Menu:

 

Search:

 

system of a down - darts:

 



Title: Darts
Artist: 
Album: System of a Down
Author: Daron Malakian and Serj Tankian


Track 1: Distorted Guitar

D|------------------------------|------------------------------|------------------------------|
A|------------------------------|------------------------------|------------------------------|
F|------------------------------|------------------------------|------------------------------|
C|-0----0---0---0---0---0---0---|-6----6---6---6---6---6---6---|-11---11--11--11--11--11--11--|
G|-0----0---0---0---0---0---0---|-6----6---6---6---6---6---6---|-11---11--11--11--11--11--11--|
C|-0----0---0---0---0---0---0---|-6----6---6---6---6---6---6---|-11---11--11--11--11--11--11--|


D|------------------------------|------------------------------|------------------------------|
A|------------------------------|------------------------------|------------------------------|
F|------------------------------|------------------------------|------------------------------|
C|-5----5---5---5---5---5---5---|-0----0---0---0---0---0---0---|-6----6---6---6---6---6---6---|
G|-5----5---5---5---5---5---5---|-0----0---0---0---0---0---0---|-6----6---6---6---6---6---6---|
C|-5----5---5---5---5---5---5---|-0----0---0---0---0---0---0---|-6----6---6---6---6---6---6---|


D|------------------------------|------------------------------|--------|--------|
A|------------------------------|------------------------------|--------|--------|
F|------------------------------|------------------------------|--------|--------|
C|-11---11--11--11--11--11--11--|-5----5---5---5---5---5---5---|--------|--------|
G|-11---11--11--11--11--11--11--|-5----5---5---5---5---5---5---|--------|--------|
C|-11---11--11--11--11--11--11--|-5----5---5---5---5---5---5---|--------|--------|


D|--------|--------|--------|--------|--------|--------|--------|--------------------|
A|--------|--------|--------|--------|--------|--------|--------|-9-----9---10--9----|
F|--------|--------|--------|--------|--------|--------|-7------|--------------------|
C|--------|--------|--------|--------|--------|--------|--------|--------------------|
G|--------|--------|--------|--------|--------|--------|--------|--------------------|
C|--------|--------|--------|--------|--------|--------|--------|--------------------|


D|--------|--------------------|--------|--------------------|--------|-------------|
A|--------|-8-----8---9---8----|--------|-9-----9---10--9----|--------|-8------8----|
F|-6------|--------------------|-7------|--------------------|-6------|-------------|
C|--------|--------------------|--------|--------------------|--------|-------------|
G|--------|--------------------|--------|--------------------|--------|-------------|
C|--------|--------------------|--------|--------------------|--------|-------------|


D|------------------------------|------------------------------|------------------------------|
A|------------------------------|------------------------------|------------------------------|
F|------------------------------|------------------------------|------------------------------|
C|-0----0---0---0---0---0---0---|-6----6---6---6---6---6---6---|-11---11--11--11--11--11--11--|
G|-0----0---0---0---0---0---0---|-6----6---6---6---6---6---6---|-11---11--11--11--11--11--11--|
C|-0----0---0---0---0---0---0---|-6----6---6---6---6---6---6---|-11---11--11--11--11--11--11--|


D|------------------------------|------------------------------|------------------------------|
A|------------------------------|------------------------------|------------------------------|
F|------------------------------|------------------------------|------------------------------|
C|-5----5---5---5---5---5---5---|-0----0---0---0---0---0---0---|-6----6---6---6---6---6---6---|
G|-5----5---5---5---5---5---5---|-0----0---0---0---0---0---0---|-6----6---6---6---6---6---6---|
C|-5----5---5---5---5---5---5---|-0----0---0---0---0---0---0---|-6----6---6---6---6---6---6---|


D|------------------------------|------------------------------|---------------------------------|
A|------------------------------|------------------------------|-10--10--10--10--10--10--10--10--|
F|------------------------------|------------------------------|---------------------------------|
C|-11---11--11--11--11--11--11--|-5----5---5---5---5---5---5---|---------------------------------|
G|-11---11--11--11--11--11--11--|-5----5---5---5---5---5---5---|---------------------------------|
C|-11---11--11--11--11--11--11--|-5----5---5---5---5---5---5---|---------------------------------|


D|---------------------------------|---------------------------------|---------------------------------|
A|-9---9---9---9---9---9---9---9---|-8---8---8---8---8---8---8---8---|-7---7---7---7---7---7---7---7---|
F|---------------------------------|---------------------------------|---------------------------------|
C|---------------------------------|---------------------------------|---------------------------------|
G|---------------------------------|---------------------------------|---------------------------------|
C|---------------------------------|---------------------------------|---------------------------------|


D|-----------12--------|--------------11--------|--------------10--------|-----------------|
A|-10---10--------10---|-9---9---9---------9----|-8----8---8--------8----|-7----7----7-----|
F|---------------------|------------------------|------------------------|-----------------|
C|---------------------|------------------------|------------------------|-----------------|
G|---------------------|------------------------|------------------------|-----------------|
C|---------------------|------------------------|------------------------|-----------------|


D|--------|--------------------|--------|--------------------|--------|--------------------|
A|--------|--------------------|--------|--------------------|--------|--------------------|
F|--------|--------------------|--------|--------------------|--------|--------------------|
C|--------|-6-----6---7---6----|--------|-5-----5---6---5----|--------|-6-----6---7---6----|
G|-5------|--------------------|-4------|--------------------|-5------|--------------------|
C|--------|--------------------|--------|--------------------|--------|--------------------|


D|--------|-15--15--15--15--15--15--15--15--|--------|--------------------|--------|
A|--------|---------------------------------|--------|--------------------|--------|
F|--------|---------------------------------|--------|--------------------|--------|
C|--------|---------------------------------|--------|-6-----6---7---6----|--------|
G|-4------|---------------------------------|-5------|--------------------|-4------|
C|--------|---------------------------------|--------|--------------------|--------|


D|--------------------|--------|--------------------|--------|-15--15--15--15--15--15--15--15--|
A|--------------------|--------|--------------------|--------|---------------------------------|
F|--------------------|--------|--------------------|--------|---------------------------------|
C|-5-----5---6---5----|--------|-6-----6---7---6----|--------|---------------------------------|
G|--------------------|-5------|--------------------|-4------|---------------------------------|
C|--------------------|--------|--------------------|--------|---------------------------------|


D|------------------------------|------------------------------|------------------------------|
A|------------------------------|------------------------------|------------------------------|
F|------------------------------|------------------------------|------------------------------|
C|-0----0---0---0---0---0---0---|-6----6---6---6---6---6---6---|-11---11--11--11--11--11--11--|
G|-0----0---0---0---0---0---0---|-6----6---6---6---6---6---6---|-11---11--11--11--11--11--11--|
C|-0----0---0---0---0---0---0---|-6----6---6---6---6---6---6---|-11---11--11--11--11--11--11--|


D|------------------------------|------------------------------|------------------------------|
A|------------------------------|------------------------------|------------------------------|
F|------------------------------|------------------------------|------------------------------|
C|-5----5---5---5---5---5---5---|-0----0---0---0---0---0---0---|-6----6---6---6---6---6---6---|
G|-5----5---5---5---5---5---5---|-0----0---0---0---0---0---0---|-6----6---6---6---6---6---6---|
C|-5----5---5---5---5---5---5---|-0----0---0---0---0---0---0---|-6----6---6---6---6---6---6---|


D|------------------------------|------------------------------|--------|--------|
A|------------------------------|------------------------------|--------|--------|
F|------------------------------|------------------------------|--------|--------|
C|-11---11--11--11--11--11--11--|-5----5---5---5---5---5---5---|-0------|-6------|
G|-11---11--11--11--11--11--11--|-5----5---5---5---5---5---5---|-0------|-6------|
C|-11---11--11--11--11--11--11--|-5----5---5---5---5---5---5---|-0------|-6------|


D|--------|--------|---------------------------------|---------------------------------|
A|--------|--------|---------------------------------|---------------------------------|
F|--------|--------|---------------------------------|---------------------------------|
C|-11-----|-5------|-0---0---0---0---0---0---0---0---|-6---6---6---6---6---6---6---6---|
G|-11-----|-5------|-0---0---0---0---0---0---0---0---|-6---6---6---6---6---6---6---6---|
C|-11-----|-5------|-0---0---0---0---0---0---0---0---|-6---6---6---6---6---6---6---6---|


D|---------------------------------|---------------------------------|--------|--------|
A|---------------------------------|---------------------------------|--------|--------|
F|---------------------------------|---------------------------------|--------|--------|
C|-11--11--11--11--11--11--11--11--|-5---5---5---5---5---5---5---5---|--------|--------|
G|-11--11--11--11--11--11--11--11--|-5---5---5---5---5---5---5---5---|--------|--------|
C|-11--11--11--11--11--11--11--11--|-5---5---5---5---5---5---5---5---|--------|--------|


D|--------|--------|--------|--------|--------|--------|------------------------------|
A|--------|--------|--------|--------|--------|--------|------------------------------|
F|--------|--------|--------|--------|--------|--------|------------------------------|
C|--------|--------|--------|--------|--------|--------|-0----0---0---0---0---0---0---|
G|--------|--------|--------|--------|--------|--------|-0----0---0---0---0---0---0---|
C|--------|--------|--------|--------|--------|--------|-0----0---0---0---0---0---0---|


D|------------------------------|------------------------------|------------------------------|
A|------------------------------|------------------------------|------------------------------|
F|------------------------------|------------------------------|------------------------------|
C|-6----6---6---6---6---6---6---|-11---11--11--11--11--11--11--|-5----5---5---5---5---5---5---|
G|-6----6---6---6---6---6---6---|-11---11--11--11--11--11--11--|-5----5---5---5---5---5---5---|
C|-6----6---6---6---6---6---6---|-11---11--11--11--11--11--11--|-5----5---5---5---5---5---5---|


D|--------|--------|--------|--------|------------------------------|------------------------------|
A|--------|--------|--------|--------|------------------------------|------------------------------|
F|--------|--------|--------|--------|------------------------------|------------------------------|
C|--------|--------|--------|--------|-0----0---0---0---0---0---0---|-6----6---6---6---6---6---6---|
G|--------|--------|--------|--------|-0----0---0---0---0---0---0---|-6----6---6---6---6---6---6---|
C|--------|--------|--------|--------|-0----0---0---0---0---0---0---|-6----6---6---6---6---6---6---|


D|------------------------------|------------------------------|--------|--------|
A|------------------------------|------------------------------|--------|--------|
F|------------------------------|------------------------------|--------|--------|
C|-11---11--11--11--11--11--11--|-5----5---5---5---5---5---5---|--------|--------|
G|-11---11--11--11--11--11--11--|-5----5---5---5---5---5---5---|--------|--------|
C|-11---11--11--11--11--11--11--|-5----5---5---5---5---5---5---|--------|--------|


D|--------|--------|------------------------------|------------------------------|
A|--------|--------|------------------------------|------------------------------|
F|--------|--------|------------------------------|------------------------------|
C|--------|--------|-0----0---0---0---0---0---0---|-6----6---6---6---6---6---6---|
G|--------|--------|-0----0---0---0---0---0---0---|-6----6---6---6---6---6---6---|
C|--------|--------|-0----0---0---0---0---0---0---|-6----6---6---6---6---6---6---|


D|------------------------------|------------------------------|--------|--------|
A|------------------------------|------------------------------|--------|--------|
F|------------------------------|------------------------------|--------|--------|
C|-11---11--11--11--11--11--11--|-5----5---5---5---5---5---5---|--------|--------|
G|-11---11--11--11--11--11--11--|-5----5---5---5---5---5---5---|--------|--------|
C|-11---11--11--11--11--11--11--|-5----5---5---5---5---5---5---|--------|--------|


D|--------|--------|------------------------------|------------------------------|
A|--------|--------|------------------------------|------------------------------|
F|--------|--------|------------------------------|------------------------------|
C|--------|--------|-0----0---0---0---0---0---0---|-6----6---6---6---6---6---6---|
G|--------|--------|-0----0---0---0---0---0---0---|-6----6---6---6---6---6---6---|
C|--------|--------|-0----0---0---0---0---0---0---|-6----6---6---6---6---6---6---|


D|------------------------------|------------------------------|--------|--------|
A|------------------------------|------------------------------|--------|--------|
F|------------------------------|------------------------------|--------|--------|
C|-11---11--11--11--11--11--11--|-5----5---5---5---5---5---5---|--------|--------|
G|-11---11--11--11--11--11--11--|-5----5---5---5---5---5---5---|--------|--------|
C|-11---11--11--11--11--11--11--|-5----5---5---5---5---5---5---|--------|--------|


D|--------|--------|------------------------------|------------------------------|
A|--------|--------|------------------------------|------------------------------|
F|--------|--------|------------------------------|------------------------------|
C|--------|--------|-0----0---0---0---0---0---0---|-6----6---6---6---6---6---6---|
G|--------|--------|-0----0---0---0---0---0---0---|-6----6---6---6---6---6---6---|
C|--------|--------|-0----0---0---0---0---0---0---|-6----6---6---6---6---6---6---|


D|------------------------------|------------------------------|-----------------------------------------|
A|------------------------------|------------------------------|-10-10-9---10-10-9---10-10-9---10-10-9---|
F|------------------------------|------------------------------|-----------------------------------------|
C|-11---11--11--11--11--11--11--|-5----5---5---5---5---5---5---|-----------------------------------------|
G|-11---11--11--11--11--11--11--|-5----5---5---5---5---5---5---|-----------------------------------------|
C|-11---11--11--11--11--11--11--|-5----5---5---5---5---5---5---|-----------------------------------------|


D|-----------------------------------------|-----------------------------------------|
A|-9--9--8---9--9--8---9--9--8---9--9--8---|-8--8--7---8--8--7---8--8--7---8--8--7---|
F|-----------------------------------------|-----------------------------------------|
C|-----------------------------------------|-----------------------------------------|
G|-----------------------------------------|-----------------------------------------|
C|-----------------------------------------|-----------------------------------------|


D|------------------------------|------------------------------|------------------------------|
A|------------------------------|------------------------------|------------------------------|
F|------------------------------|------------------------------|------------------------------|
C|-0----0---0---0---0---0---0---|-6----6---6---6---6---6---6---|-11---11--11--11--11--11--11--|
G|-0----0---0---0---0---0---0---|-6----6---6---6---6---6---6---|-11---11--11--11--11--11--11--|
C|-0----0---0---0---0---0---0---|-6----6---6---6---6---6---6---|-11---11--11--11--11--11--11--|


D|------------------------------|------------------------------|------------------------------|
A|------------------------------|------------------------------|------------------------------|
F|------------------------------|------------------------------|------------------------------|
C|-5----5---5---5---5---5---5---|-0----0---0---0---0---0---0---|-6----6---6---6---6---6---6---|
G|-5----5---5---5---5---5---5---|-0----0---0---0---0---0---0---|-6----6---6---6---6---6---6---|
C|-5----5---5---5---5---5---5---|-0----0---0---0---0---0---0---|-6----6---6---6---6---6---6---|


D|------------------------------|------------------------------|---------------------|
A|------------------------------|------------------------------|---------------------|
F|------------------------------|------------------------------|---------------------|
C|-11---11--11--11--11--11--11--|-5----5---5---5---5---5---5---|-0----0----0----0----|
G|-11---11--11--11--11--11--11--|-5----5---5---5---5---5---5---|-0----0----0----0----|
C|-11---11--11--11--11--11--11--|-5----5---5---5---5---5---5---|-0----0----0----0----|


D|---------------------|---------------------|---------------------|-------------|
A|---------------------|---------------------|---------------------|-------------|
F|---------------------|---------------------|---------------------|-------------|
C|-6----6----6----6----|-11---11---11---11---|-5----5----5----5----|-0-----------|
G|-6----6----6----6----|-11---11---11---11---|-5----5----5----5----|-0-----------|
C|-6----6----6----6----|-11---11---11---11---|-5----5----5----5----|-0-----------|


D|-------------|-------------|-------------|-------------|-------------|-------------|
A|-------------|-------------|-------------|-------------|-------------|-------------|
F|-------------|-------------|-------------|-------------|-------------|-------------|
C|-6-----------|-11----------|-5-----------|-0-----------|-6-----------|-11----------|
G|-6-----------|-11----------|-5-----------|-0-----------|-6-----------|-11----------|
C|-6-----------|-11----------|-5-----------|-0-----------|-6-----------|-11----------|


D|--------|
A|--------|
F|--------|
C|--------|
G|--------|
C|--------|





Track 2: Bass

F|------------------------------|------------------------------|------------------------------|
C|------------------------------|------------------------------|------------------------------|
G|------------------------------|------------------------------|------------------------------|
C|-0----0---0---0---0---0---0---|-6----6---6---6---6---6---6---|-11---11--11--11--11--11--11--|


F|------------------------------|------------------------------|------------------------------|
C|------------------------------|------------------------------|------------------------------|
G|------------------------------|------------------------------|------------------------------|
C|-5----5---5---5---5---5---5---|-0----0---0---0---0---0---0---|-6----6---6---6---6---6---6---|


F|------------------------------|------------------------------|---------------------------------|
C|------------------------------|------------------------------|-12--12--12--12--12--12--12--12--|
G|------------------------------|------------------------------|---------------------------------|
C|-11---11--11--11--11--11--11--|-5----5---5---5---5---5---5---|---------------------------------|


F|-13--13--13--13--13--13--13--13--|---------------------------------|-12--12--12--12--12--12--12--12--|
C|---------------------------------|-11--11--11--11--11--11--11--11--|---------------------------------|
G|---------------------------------|---------------------------------|---------------------------------|
C|---------------------------------|---------------------------------|---------------------------------|


F|------------------------------|-13---13--13--13--13--13--13--|------------------------------|
C|-12---12--12--12--12--12--12--|------------------------------|-11---11--11--11--11--11--11--|
G|------------------------------|------------------------------|------------------------------|
C|------------------------------|------------------------------|------------------------------|


F|-12--12--12---12----|---------------------------------|-13--13--13--13--13--13--13--13--|
C|--------------------|-12--12--12--12--12--12--12--12--|---------------------------------|
G|--------------------|---------------------------------|---------------------------------|
C|--------------------|---------------------------------|---------------------------------|


F|---------------------------------|-12--12--12--12--12--12--12--12--|------------------------------|
C|-11--11--11--11--11--11--11--11--|---------------------------------|-12---12--12--12--12--12--12--|
G|---------------------------------|---------------------------------|------------------------------|
C|---------------------------------|---------------------------------|------------------------------|


F|-13---13--13--13--13--13--13--|------------------------------|-12-----|------------------------------|
C|------------------------------|-11---11--11--11--11--11--11--|--------|------------------------------|
G|------------------------------|------------------------------|--------|------------------------------|
C|------------------------------|------------------------------|--------|-0----0---0---0---0---0---0---|


F|------------------------------|------------------------------|------------------------------|
C|------------------------------|------------------------------|------------------------------|
G|------------------------------|------------------------------|------------------------------|
C|-6----6---6---6---6---6---6---|-11---11--11--11--11--11--11--|-5----5---5---5---5---5---5---|


F|------------------------------|------------------------------|------------------------------|
C|------------------------------|------------------------------|------------------------------|
G|------------------------------|------------------------------|------------------------------|
C|-0----0---0---0---0---0---0---|-6----6---6---6---6---6---6---|-11---11--11--11--11--11--11--|


F|------------------------------|---------------------------------|-13--13--13--13--13--13--13--13--|
C|------------------------------|-12--12--12--12--12--12--12--12--|---------------------------------|
G|------------------------------|---------------------------------|---------------------------------|
C|-5----5---5---5---5---5---5---|---------------------------------|---------------------------------|


F|---------------------------------|-12--12--12--12--12--12--12--12--|---------------------------------|
C|-11--11--11--11--11--11--11--11--|---------------------------------|-12--12--12--12--12--12--12--12--|
G|---------------------------------|---------------------------------|---------------------------------|
C|---------------------------------|---------------------------------|---------------------------------|


F|-13--13--13--13--13--13--13--13--|---------------------------------|-11---11---11----|
C|---------------------------------|-11--11--11--11--11--11--11--11--|-----------------|
G|---------------------------------|---------------------------------|-----------------|
C|---------------------------------|---------------------------------|-----------------|


F|--------|--------------------|--------|--------------------|--------|--------------------|
C|--------|-6-----6---7---6----|--------|-5-----5---6---5----|--------|-6-----6---7---6----|
G|-5------|--------------------|-4------|--------------------|-5------|--------------------|
C|--------|--------------------|--------|--------------------|--------|--------------------|


F|--------|---------------------------------|--------|--------------------|--------|
C|--------|-5---5---5---5---5---5---5---5---|--------|-6-----6---7---6----|--------|
G|-4------|---------------------------------|-5------|--------------------|-4------|
C|--------|---------------------------------|--------|--------------------|--------|


F|--------------------|--------|--------------------|--------|--------|------------------------------|
C|-5-----5---6---5----|--------|-6-----6---7---6----|--------|-5------|------------------------------|
G|--------------------|-5------|--------------------|-4------|--------|------------------------------|
C|--------------------|--------|--------------------|--------|--------|-0----0---0---0---0---0---0---|


F|------------------------------|------------------------------|------------------------------|
C|------------------------------|------------------------------|------------------------------|
G|------------------------------|------------------------------|------------------------------|
C|-6----6---6---6---6---6---6---|-11---11--11--11--11--11--11--|-5----5---5---5---5---5---5---|


F|------------------------------|------------------------------|------------------------------|
C|------------------------------|------------------------------|------------------------------|
G|------------------------------|------------------------------|------------------------------|
C|-0----0---0---0---0---0---0---|-6----6---6---6---6---6---6---|-11---11--11--11--11--11--11--|


F|------------------------------|--------|--------|--------|--------|---------------------------------|
C|------------------------------|--------|--------|--------|--------|---------------------------------|
G|------------------------------|--------|--------|--------|--------|---------------------------------|
C|-5----5---5---5---5---5---5---|-0------|-6------|-11-----|-5------|-0---0---0---0---0---0---0---0---|


F|---------------------------------|---------------------------------|---------------------------------|
C|---------------------------------|---------------------------------|---------------------------------|
G|---------------------------------|---------------------------------|---------------------------------|
C|-6---6---6---6---6---6---6---6---|-11--11--11--11--11--11--11--11--|-5---5---5---5---5---5---5---5---|


F|--------|--------|--------|--------|--------|--------|--------|--------|------------------------------|
C|--------|--------|--------|--------|--------|--------|--------|--------|------------------------------|
G|--------|--------|--------|--------|--------|--------|--------|--------|------------------------------|
C|-0------|-6------|-11-----|-5------|-0------|-6------|-11-----|-5------|-0----0---0---0---0---0---0---|


F|------------------------------|------------------------------|------------------------------|
C|------------------------------|------------------------------|------------------------------|
G|------------------------------|------------------------------|------------------------------|
C|-6----6---6---6---6---6---6---|-11---11--11--11--11--11--11--|-5----5---5---5---5---5---5---|


F|--------|--------|--------|--------|------------------------------|------------------------------|
C|--------|--------|--------|--------|------------------------------|------------------------------|
G|--------|--------|--------|--------|------------------------------|------------------------------|
C|-0------|-6------|-11-----|-5------|-0----0---0---0---0---0---0---|-6----6---6---6---6---6---6---|


F|------------------------------|------------------------------|--------|--------|
C|------------------------------|------------------------------|--------|--------|
G|------------------------------|------------------------------|--------|--------|
C|-11---11--11--11--11--11--11--|-5----5---5---5---5---5---5---|-0------|-6------|


F|--------|--------|------------------------------|------------------------------|
C|--------|--------|------------------------------|------------------------------|
G|--------|--------|------------------------------|------------------------------|
C|-11-----|-5------|-0----0---0---0---0---0---0---|-6----6---6---6---6---6---6---|


F|------------------------------|------------------------------|--------|--------|
C|------------------------------|------------------------------|--------|--------|
G|------------------------------|------------------------------|--------|--------|
C|-11---11--11--11--11--11--11--|-5----5---5---5---5---5---5---|-0------|-6------|


F|--------|--------|------------------------------|------------------------------|
C|--------|--------|------------------------------|------------------------------|
G|--------|--------|------------------------------|------------------------------|
C|-11-----|-5------|-0----0---0---0---0---0---0---|-6----6---6---6---6---6---6---|


F|------------------------------|------------------------------|--------|--------|
C|------------------------------|------------------------------|--------|--------|
G|------------------------------|------------------------------|--------|--------|
C|-11---11--11--11--11--11--11--|-5----5---5---5---5---5---5---|-0------|-6------|


F|--------|--------|------------------------------|------------------------------|
C|--------|--------|------------------------------|------------------------------|
G|--------|--------|------------------------------|------------------------------|
C|-11-----|-5------|-0----0---0---0---0---0---0---|-6----6---6---6---6---6---6---|


F|------------------------------|------------------------------|--------|--------|
C|------------------------------|------------------------------|--------|--------|
G|------------------------------|------------------------------|--------|--------|
C|-11---11--11--11--11--11--11--|-5----5---5---5---5---5---5---|--------|--------|


F|--------|------------------------------|------------------------------|------------------------------|
C|--------|------------------------------|------------------------------|------------------------------|
G|--------|------------------------------|------------------------------|------------------------------|
C|--------|-0----0---0---0---0---0---0---|-6----6---6---6---6---6---6---|-11---11--11--11--11--11--11--|


F|------------------------------|------------------------------|------------------------------|
C|------------------------------|------------------------------|------------------------------|
G|------------------------------|------------------------------|------------------------------|
C|-5----5---5---5---5---5---5---|-0----0---0---0---0---0---0---|-6----6---6---6---6---6---6---|


F|------------------------------|------------------------------|---------------------|
C|------------------------------|------------------------------|---------------------|
G|------------------------------|------------------------------|---------------------|
C|-11---11--11--11--11--11--11--|-5----5---5---5---5---5---5---|-0----0----0----0----|


F|---------------------|---------------------|---------------------|-------------|
C|---------------------|---------------------|---------------------|-------------|
G|---------------------|---------------------|---------------------|-------------|
C|-6----6----6----6----|-11---11---11---11---|-5----5----5----5----|-0-----------|


F|-------------|-------------|-------------|-------------|-------------|-------------|
C|-------------|-------------|-------------|-------------|-------------|-------------|
G|-------------|-------------|-------------|-------------|-------------|-------------|
C|-6-----------|-11----------|-5-----------|-0-----------|-6-----------|-11----------|


F|--------|
C|--------|
G|--------|
C|--------|