Menu:

 

Search:

 

system of a down - cigaro:

 



Title: Cigaro
Artist: 
Album: Mezmerize
Author: System Of A Down


Track 1: Distortion Guitar

D#|---------------------------------|---------------------------------|---------------------------------|
A#|---------------------------------|---------------------------------|---------------------------------|
F#|---------------------------------|---------------------------------|---------------------------------|
C#|---------------------------------|---------------------------------|---------------------------------|
G#|---------------------------------|---------------------------------|---------------------------------|
C#|-1---0---1---0---1---0---1---0---|-1---0---1---0---1---0---1---0---|-1---0---1---0---1---0---1---0---|


D#|---------------------------------|---------------------------------|---------------------------------|
A#|---------------------------------|---------------------------------|---------------------------------|
F#|---------------------------------|---------------------------------|---------------------------------|
C#|---------------------------------|---------------------------------|---------------------------------|
G#|-13--12--10--12--10--8---10--0---|---------------------------------|---------------------------------|
C#|-13--12--10--12--10--8---10--0---|-1---0---1---0---1---0---1---0---|-1---0---1---0---1---0---1---0---|


D#|---------------------------------|---------------------------------|---------------------------------|
A#|---------------------------------|---------------------------------|---------------------------------|
F#|---------------------------------|---------------------------------|---------------------------------|
C#|---------------------------------|---------------------------------|---------------------------------|
G#|---------------------------------|-13--12--10--12--10--8---10--0---|---------------------------------|
C#|-1---0---1---0---1---0---1---0---|-13--12--10--12--10--8---10--0---|-1---0---1---0---1---0---1---0---|


D#|---------------------------------|---------------------------------|---------------------------------|
A#|---------------------------------|---------------------------------|---------------------------------|
F#|---------------------------------|---------------------------------|---------------------------------|
C#|---------------------------------|---------------------------------|---------------------------------|
G#|---------------------------------|---------------------------------|-13--12--10--12--10--8---10--0---|
C#|-1---0---1---0---1---0---1---0---|-1---0---1---0---1---0---1---0---|-13--12--10--12--10--8---10--0---|


D#|---------------------------------|---------------------------------|---------------------------------|
A#|---------------------------------|---------------------------------|---------------------------------|
F#|---------------------------------|---------------------------------|---------------------------------|
C#|---------------------------------|---------------------------------|---------------------------------|
G#|---------------------------------|---------------------------------|---------------------------------|
C#|-1---0---1---0---1---0---1---0---|-1---0---1---0---1---0---1---0---|-1---0---1---0---1---0---1---0---|


D#|---------------------------------|-----------------------|--------|------------------------|
A#|---------------------------------|-----------------------|--------|------------------------|
F#|---------------------------------|-----------------------|--------|------------------------|
C#|---------------------------------|-----------------------|--------|------10--9---10--9-----|
G#|-13--12--10--12--10--8---10--0---|-0---0---0-------------|--------|------8---7---8---7-----|
C#|-13--12--10--12--10--8---10--0---|-0---0---0-------------|--------|------------------------|


D#|---------------------------------|-----------------------|--------|------------------------|
A#|---------------------------------|-----------------------|--------|------------------------|
F#|---------------------------------|-----------------------|--------|------------------------|
C#|---------------------------------|-7---7---7-------------|--------|------10--9---10--9-----|
G#|-12--11--12--0---8---7---8---0---|-5---5---5-------------|--------|------8---7---8---7-----|
C#|-12--11--12--0---8---7---8---0---|-----------------------|--------|------------------------|


D#|---------------------------------|---------------------------------|---------------------------------|
A#|---------------------------------|---------------------------------|---------------------------------|
F#|---------------------------------|---------------------------------|---------------------------------|
C#|---------------------------------|---------------------------------|---------------------------------|
G#|-12--11--12--0---8---7---8---0---|---------------------------------|---------------------------------|
C#|-12--11--12--0---8---7---8---0---|-1---0---1---0---1---0---1---0---|-1---0---1---0---1---0---1---0---|


D#|---------------------------------|---------------------------------|---------------------------------|
A#|---------------------------------|---------------------------------|---------------------------------|
F#|---------------------------------|---------------------------------|---------------------------------|
C#|---------------------------------|---------------------------------|---------------------------------|
G#|---------------------------------|-13--12--10--12--10--8---10--0---|---------------------------------|
C#|-1---0---1---0---1---0---1---0---|-13--12--10--12--10--8---10--0---|-1---0---1---0---1---0---1---0---|


D#|---------------------------------|---------------------------------|---------------------------------|
A#|---------------------------------|---------------------------------|---------------------------------|
F#|---------------------------------|---------------------------------|---------------------------------|
C#|---------------------------------|---------------------------------|---------------------------------|
G#|---------------------------------|---------------------------------|-13--12--10--12--10--8---10--0---|
C#|-1---0---1---0---1---0---1---0---|-1---0---1---0---1---0---1---0---|-13--12--10--12--10--8---10--0---|


D#|-----------------------|--------|------------------------|---------------------------------|
A#|-----------------------|--------|------------------------|---------------------------------|
F#|-----------------------|--------|------------------------|---------------------------------|
C#|-7---7---7-------------|--------|------10--9---10--9-----|---------------------------------|
G#|-5---5---5-------------|--------|------8---7---8---7-----|-12--11--12--0---8---7---8---0---|
C#|-----------------------|--------|------------------------|-12--11--12--0---8---7---8---0---|


D#|-----------------------|--------|------------------------|---------------------------------|
A#|-----------------------|--------|------------------------|---------------------------------|
F#|-----------------------|--------|------------------------|---------------------------------|
C#|-7---7---7-------------|--------|------10--9---10--9-----|---------------------------------|
G#|-5---5---5-------------|--------|------8---7---8---7-----|-12--11--12--0---8---7---8---0---|
C#|-----------------------|--------|------------------------|-12--11--12--0---8---7---8---0---|


D#|---------------------------------|---------------------------------|---------------------------------|
A#|---------------------------------|---------------------------------|---------------------------------|
F#|---------------------------------|---------------------------------|---------------------------------|
C#|---------------------------------|---------------------------------|---------------------------------|
G#|---------------------------------|---------------------------------|---------------------------------|
C#|-1---0---1---0---1---0---1---0---|-1---0---1---0---1---0---1---0---|-1---0---1---0---1---0---1---0---|


D#|---------------------------------|---------------------------------|---------------------------------|
A#|---------------------------------|---------------------------------|---------------------------------|
F#|---------------------------------|---------------------------------|---------------------------------|
C#|---------------------------------|---------------------------------|---------------------------------|
G#|-13--12--10--12--10--8---10--0---|---------------------------------|---------------------------------|
C#|-13--12--10--12--10--8---10--0---|-1---0---1---0---1---0---1---0---|-1---0---1---0---1---0---1---0---|


D#|---------------------------------|---------------------------------|---------------------------------|
A#|---------------------------------|---------------------------------|---------------------------------|
F#|---------------------------------|---------------------------------|---------------------------------|
C#|---------------------------------|---------------------------------|---------------------------------|
G#|---------------------------------|-13--12--10--12--10--8---10--0---|---------------------------------|
C#|-1---0---1---0---1---0---1---0---|-13--12--10--12--10--8---10--0---|-13--12--13--12--13--12--13--12--|


D#|---------------------------------|---------------------------------|---------------------------------|
A#|---------------------------------|---------------------------------|---------------------------------|
F#|---------------------------------|---------------------------------|---------------------------------|
C#|---------------------------------|---------------------------------|---------------------------------|
G#|---------------------------------|---------------------------------|-13--12--10--12--10--8---10--0---|
C#|-13--12--13--12--13--12--13--12--|-13--12--13--12--13--12--13--12--|-13--12--10--12--10--8---10--0---|


D#|---------------------------------|---------------------------------|---------------------------------|
A#|---------------------------------|---------------------------------|---------------------------------|
F#|---------------------------------|---------------------------------|---------------------------------|
C#|---------------------------------|---------------------------------|---------------------------------|
G#|---------------------------------|---------------------------------|---------------------------------|
C#|-13--12--13--12--13--12--13--12--|-13--12--13--12--13--12--13--12--|-13--12--13--12--13--12--13--12--|


D#|---------------------------------|---------------------------------|---------------------------------|
A#|---------------------------------|---------6---------------6-------|---------6---------------6-------|
F#|---------------------------------|---------7---------------7-------|---------7---------------7-------|
C#|---------------------------------|---------------------------------|---------------------------------|
G#|-13--12--10--12--10--8---10--0---|---------------------------------|---------------------------------|
C#|-13--12--10--12--10--8---10--0---|-0---0-----------0---0-----------|-0---0-----------0---0-----------|


D#|---------------------------------|---------------------------------|---------------------------------|
A#|-6---5---6---5-------------------|---------------------------------|---------------------------------|
F#|-----------------7---6---7---0---|---------------------------------|---------------------------------|
C#|---------------------------------|-8---7---8---0-------------------|---------------------------------|
G#|---------------------------------|-----------------10--8---10--8---|-0---0---0---0---0---0---0---0---|
C#|---------------------------------|---------------------------------|-0---0---0---0---0---0---0---0---|


D#|---------------------------------|---------------------------------|---------------------------------|
A#|---------------------------------|-6---5---6---5-------------------|---------------------------------|
F#|---------------------------------|-----------------7---6---7---6---|---------------------------------|
C#|---------------------------------|---------------------------------|-8---7---8---0-------------------|
G#|-0---0---0---0---0---0---0---0---|---------------------------------|-----------------10--8---10--8---|
C#|-0---0---0---0---0---0---0---0---|---------------------------------|---------------------------------|


D#|---------------------------------|---------------------------------|---------------------------------|
A#|---------6---------------6-------|---------6---------------6-------|-6---5---6---5-------------------|
F#|---------7---------------7-------|---------7---------------7-------|-----------------7---6---7---0---|
C#|---------------------------------|---------------------------------|---------------------------------|
G#|---------------------------------|---------------------------------|---------------------------------|
C#|-0---0-----------0---0-----------|-0---0-----------0---0-----------|---------------------------------|


D#|---------------------------------|---------------------------------|---------------------------------|
A#|---------------------------------|-6---5---6---5-------------------|---------------------------------|
F#|---------------------------------|-----------------7---6---7---0---|---------------------------------|
C#|-8---7---8---0-------------------|---------------------------------|-8---7---8---0-------------------|
G#|-----------------10--8---10--0---|---------------------------------|-----------------10--8---10--0---|
C#|---------------------------------|---------------------------------|---------------------------------|


D#|---------------------------------|---------------------------------|---------------------------------|
A#|-6---5---6---5-------------------|---------------------------------|---------------------------------|
F#|-----------------7---6---7---6---|---------------------------------|---------------------------------|
C#|---------------------------------|-8---7---8---0-------------------|-10--9---10--9---12--9---12--9---|
G#|---------------------------------|-----------------10--8---10--8---|-8---7---8---7---10--7---10--7---|
C#|---------------------------------|---------------------------------|---------------------------------|


D#|---------------------------------|---------------------------------|-----------------|
A#|---------------------------------|---------------------------------|-----------------|
F#|---------------------------------|---------------------------------|-----------0-----|
C#|-9---7---9---7---10--7---10--7---|-7---5---7---5---9---7---9---7---|------3----------|
G#|-7---5---7---5---8---5---8---5---|-5---3---5---3---7---5---7---5---|-4---------------|
C#|---------------------------------|---------------------------------|-----------------|


D#|---------------------------------|---------------------------------|---------------------------------|
A#|---------------------------------|---------------------------------|---------------------------------|
F#|---------------------------------|---------------------------------|---------------------------------|
C#|-10--9---10--9---12--9---12--9---|-9---7---9---7---10--7---10--7---|-7---5---7---5---9---7---9---7---|
G#|-8---7---8---7---10--7---10--7---|-7---5---7---5---8---5---8---5---|-5---3---5---3---7---5---7---5---|
C#|---------------------------------|---------------------------------|---------------------------------|


D#|-----------------|---------------------------------|---------------------------------|
A#|-----------------|---------------------------------|---------------------------------|
F#|-----------0-----|---------------------------------|---------------------------------|
C#|------3----------|-10--9---10--9---12--9---12--9---|-9---7---9---7---10--7---10--7---|
G#|-4---------------|-8---7---8---7---10--7---10--7---|-7---5---7---5---8---5---8---5---|
C#|-----------------|---------------------------------|---------------------------------|


D#|---------------------------------|-----------------|---------------------------------|
A#|---------------------------------|-----------------|---------------------------------|
F#|---------------------------------|-----------0-----|---------------------------------|
C#|-7---5---7---5---9---7---9---7---|------3----------|-10--9---10--9---12--9---12--9---|
G#|-5---3---5---3---7---5---7---5---|-4---------------|-8---7---8---7---10--7---10--7---|
C#|---------------------------------|-----------------|---------------------------------|


D#|---------------------------------|---------------------------------|-----------------|
A#|---------------------------------|---------------------------------|-----------------|
F#|---------------------------------|---------------------------------|-----------0-----|
C#|-9---7---9---7---10--7---10--7---|-7---5---7---5---9---7---9---7---|------3----------|
G#|-7---5---7---5---8---5---8---5---|-5---3---5---3---7---5---7---5---|-4---------------|
C#|---------------------------------|---------------------------------|-----------------|


D#|---------------------------------|---------------------------------|---------------------------------|
A#|---------------------------------|---------------------------------|---------------------------------|
F#|---------------------------------|---------------------------------|---------------------------------|
C#|---------------------------------|---------------------------------|---------------------------------|
G#|---------------------------------|---------------------------------|---------------------------------|
C#|-1---0---1---0---1---0---1---0---|-1---0---1---0---1---0---1---0---|-1---0---1---0---1---0---1---0---|


D#|---------------------------------|---------------------------------|---------------------------------|
A#|---------------------------------|---------------------------------|---------------------------------|
F#|---------------------------------|---------------------------------|---------------------------------|
C#|---------------------------------|---------------------------------|---------------------------------|
G#|-13--12--10--12--10--8---10--0---|---------------------------------|---------------------------------|
C#|-13--12--10--12--10--8---10--0---|-1---0---1---0---1---0---1---0---|-1---0---1---0---1---0---1---0---|


D#|---------------------------------|---------------------------------|---------------------------------|
A#|---------------------------------|---------------------------------|---------------------------------|
F#|---------------------------------|---------------------------------|---------------------------------|
C#|---------------------------------|---------------------------------|-10--9---10--9---12--9---12--9---|
G#|---------------------------------|-13--12--10--12--10--8---12--0---|-8---7---8---7---10--7---10--7---|
C#|-1---0---1---0---1---0---1---0---|-13--12--10--12--10--8---12--0---|---------------------------------|


D#|---------------------------------|---------------------------------|-----------------|
A#|---------------------------------|---------------------------------|-----------------|
F#|---------------------------------|---------------------------------|-----------0-----|
C#|-9---7---9---7---10--7---10--7---|-7---5---7---5---9---7---9---7---|------3----------|
G#|-7---5---7---5---8---5---8---5---|-5---3---5---3---7---5---7---5---|-4---------------|
C#|---------------------------------|---------------------------------|-----------------|


D#|---------------------------------|---------------------------------|---------------------------------|
A#|---------------------------------|---------------------------------|---------------------------------|
F#|---------------------------------|---------------------------------|---------------------------------|
C#|-10--9---10--9---12--9---12--9---|-9---7---9---7---10--7---10--7---|-7---5---7---5---9---7---9---7---|
G#|-8---7---8---7---10--7---10--7---|-7---5---7---5---8---5---8---5---|-5---3---5---3---7---5---7---5---|
C#|---------------------------------|---------------------------------|---------------------------------|


D#|-----------------|---------------------------------|---------------------------------|
A#|-----------------|---------------------------------|---------------------------------|
F#|-----------0-----|---------------------------------|---------------------------------|
C#|------3----------|---------------------------------|---------------------------------|
G#|-4---------------|---------------------------------|---------------------------------|
C#|-----------------|-1---0---1---0---1---0---1---0---|-1---0---1---0---1---0---1---0---|


D#|---------------------------------|---------------------------------|---------------------------------|
A#|---------------------------------|---------------------------------|---------------------------------|
F#|---------------------------------|---------------------------------|---------------------------------|
C#|---------------------------------|---------------------------------|---------------------------------|
G#|---------------------------------|-13--12--10--12--10--8---10--0---|---------------------------------|
C#|-1---0---1---0---1---0---1---0---|-13--12--10--12--10--8---10--0---|-1---0---1---0---1---0---1---0---|


D#|---------------------------------|---------------------------------|---------------------------------|
A#|---------------------------------|---------------------------------|---------------------------------|
F#|---------------------------------|---------------------------------|---------------------------------|
C#|---------------------------------|---------------------------------|---------------------------------|
G#|---------------------------------|---------------------------------|-13--12--10--12--10--8---10--0---|
C#|-1---0---1---0---1---0---1---0---|-1---0---1---0---1---0---1---0---|-13--12--10--12--10--8---10--0---|


D#|-----------------------|-----------------------|-----------------------|---------------------------------|
A#|-----------------------|-----------------------|-----------------------|---------------------------------|
F#|-----------------------|-----------------------|-----------------------|---------------------------------|
C#|-----------------------|-----------------------|-----------------------|---------------------------------|
G#|-0---0---0-------------|-0---0---0-------------|-0---0---0-------------|-0---0---0-------0---0---0-------|
C#|-0---0---0-------------|-0---0---0-------------|-0---0---0-------------|-0---0---0-------0---0---0-------|


D#|---------------------------------|---------------------------------|---------------------------------|
A#|---------------------------------|---------------------------------|---------------------------------|
F#|---------------------------------|---------------------------------|---------------------------------|
C#|---------------------------------|---------------------------------|---------------------------------|
G#|-0---0---0-------0---0---0-------|-0---0---0-------0---0---0-------|-0---0---0-------0---0---0-------|
C#|-0---0---0-------0---0---0-------|-0---0---0-------0---0---0-------|-0---0---0-------0---0---0-------|


D#|---------------------------------|--------------------|
A#|---------------------------------|--------------------|
F#|---------------------------------|--------------------|
C#|-7---7---7---7---7---7---7---7---|-7------------------|
G#|-5---5---5---5---5---5---5---5---|-5------------------|
C#|---------------------------------|--------------------|





Track 2: Distortion Guitar

D#|--------|--------|--------|--------|--------|--------|--------|--------|--------|
A#|--------|--------|--------|--------|--------|--------|--------|--------|--------|
F#|--------|--------|--------|--------|--------|--------|--------|--------|--------|
C#|--------|--------|--------|--------|--------|--------|--------|--------|--------|
G#|--------|--------|--------|--------|--------|--------|--------|--------|--------|
C#|--------|--------|--------|--------|--------|--------|--------|--------|--------|


D#|--------|--------|--------|--------|--------|--------|--------|--------|--------|
A#|--------|--------|--------|--------|--------|--------|--------|--------|--------|
F#|--------|--------|--------|--------|--------|--------|--------|--------|--------|
C#|--------|--------|--------|--------|--------|--------|--------|--------|--------|
G#|--------|--------|--------|--------|--------|--------|--------|--------|--------|
C#|--------|--------|--------|--------|--------|--------|--------|--------|--------|


D#|--------|--------|--------|--------|--------|--------|--------|--------|--------|
A#|--------|--------|--------|--------|--------|--------|--------|--------|--------|
F#|--------|--------|--------|--------|--------|--------|--------|--------|--------|
C#|--------|--------|--------|--------|--------|--------|--------|--------|--------|
G#|--------|--------|--------|--------|--------|--------|--------|--------|--------|
C#|--------|--------|--------|--------|--------|--------|--------|--------|--------|


D#|--------|--------|--------|--------|--------|--------|--------|--------|--------|
A#|--------|--------|--------|--------|--------|--------|--------|--------|--------|
F#|--------|--------|--------|--------|--------|--------|--------|--------|--------|
C#|--------|--------|--------|--------|--------|--------|--------|--------|--------|
G#|--------|--------|--------|--------|--------|--------|--------|--------|--------|
C#|--------|--------|--------|--------|--------|--------|--------|--------|--------|


D#|--------|--------|--------|--------|--------|--------|--------|--------|--------|
A#|--------|--------|--------|--------|--------|--------|--------|--------|--------|
F#|--------|--------|--------|--------|--------|--------|--------|--------|--------|
C#|--------|--------|--------|--------|--------|--------|--------|--------|--------|
G#|--------|--------|--------|--------|--------|--------|--------|--------|--------|
C#|--------|--------|--------|--------|--------|--------|--------|--------|--------|


D#|--------|--------|--------|--------|--------|--------|--------|--------|--------|
A#|--------|--------|--------|--------|--------|--------|--------|--------|--------|
F#|--------|--------|--------|--------|--------|--------|--------|--------|--------|
C#|--------|--------|--------|--------|--------|--------|--------|--------|--------|
G#|--------|--------|--------|--------|--------|--------|--------|--------|--------|
C#|--------|--------|--------|--------|--------|--------|--------|--------|--------|


D#|--------|--------|---------------------------------|---------------------------------|
A#|--------|--------|---------6---------------6-------|---------6---------------6-------|
F#|--------|--------|---------7---------------7-------|---------7---------------7-------|
C#|--------|--------|---------------------------------|---------------------------------|
G#|--------|--------|---------------------------------|---------------------------------|
C#|--------|--------|-0---0-----------0---0-----------|-0---0-----------0---0-----------|


D#|---------------------------------|---------------------------------|--------|--------|
A#|-6---5---6---5-------------------|---------------------------------|--------|--------|
F#|-----------------7---6---7---6---|---------------------------------|--------|--------|
C#|---------------------------------|-8---7---8---0-------------------|--------|--------|
G#|---------------------------------|-----------------10--8---10--8---|--------|--------|
C#|---------------------------------|---------------------------------|--------|--------|


D#|--------|--------|---------------------------------|---------------------------------|
A#|--------|--------|---------6---------------6-------|---------6---------------6-------|
F#|--------|--------|---------7---------------7-------|---------7---------------7-------|
C#|--------|--------|---------------------------------|---------------------------------|
G#|--------|--------|---------------------------------|---------------------------------|
C#|--------|--------|-0---0-----------0---0-----------|-0---0-----------0---0-----------|


D#|---------------------------------|---------------------------------|---------------------------------|
A#|-6---5---6---5-------------------|---------------------------------|-6---5---6---5-------------------|
F#|-----------------7---6---7---6---|---------------------------------|-----------------7---6---7---0---|
C#|---------------------------------|-8---7---8---0-------------------|---------------------------------|
G#|---------------------------------|-----------------10--8---10--8---|---------------------------------|
C#|---------------------------------|---------------------------------|---------------------------------|


D#|---------------------------------|---------------------------------|---------------------------------|
A#|---------------------------------|-6---5---6---5-------------------|---------------------------------|
F#|---------------------------------|-----------------7---6---7---6---|---------------------------------|
C#|-8---7---8---0---------------0---|---------------------------------|-8---7---8---0---------------0---|
G#|-----------------10--8---10--0---|---------------------------------|-----------------10--8---10--0---|
C#|---------------------------------|---------------------------------|---------------------------------|


D#|--------|--------|--------|--------|--------|--------|--------|--------|--------|
A#|--------|--------|--------|--------|--------|--------|--------|--------|--------|
F#|--------|--------|--------|--------|--------|--------|--------|--------|--------|
C#|--------|--------|--------|--------|--------|--------|--------|--------|--------|
G#|--------|--------|--------|--------|--------|--------|--------|--------|--------|
C#|--------|--------|--------|--------|--------|--------|--------|--------|--------|


D#|--------|--------|--------|--------|--------|--------|--------|--------|--------|
A#|--------|--------|--------|--------|--------|--------|--------|--------|--------|
F#|--------|--------|--------|--------|--------|--------|--------|--------|--------|
C#|--------|--------|--------|--------|--------|--------|--------|--------|--------|
G#|--------|--------|--------|--------|--------|--------|--------|--------|--------|
C#|--------|--------|--------|--------|--------|--------|--------|--------|--------|


D#|--------|--------|--------|--------|--------|--------|--------|--------|--------|
A#|--------|--------|--------|--------|--------|--------|--------|--------|--------|
F#|--------|--------|--------|--------|--------|--------|--------|--------|--------|
C#|--------|--------|--------|--------|--------|--------|--------|--------|--------|
G#|--------|--------|--------|--------|--------|--------|--------|--------|--------|
C#|--------|--------|--------|--------|--------|--------|--------|--------|--------|


D#|--------|--------|--------|--------|--------|--------|--------|--------|--------|
A#|--------|--------|--------|--------|--------|--------|--------|--------|--------|
F#|--------|--------|--------|--------|--------|--------|--------|--------|--------|
C#|--------|--------|--------|--------|--------|--------|--------|--------|--------|
G#|--------|--------|--------|--------|--------|--------|--------|--------|--------|
C#|--------|--------|--------|--------|--------|--------|--------|--------|--------|


D#|--------|--------|--------|--------|--------|--------|--------|--------|--------|
A#|--------|--------|--------|--------|--------|--------|--------|--------|--------|
F#|--------|--------|--------|--------|--------|--------|--------|--------|--------|
C#|--------|--------|--------|--------|--------|--------|--------|--------|--------|
G#|--------|--------|--------|--------|--------|--------|--------|--------|--------|
C#|--------|--------|--------|--------|--------|--------|--------|--------|--------|


D#|--------|--------|--------|--------|
A#|--------|--------|--------|--------|
F#|--------|--------|--------|--------|
C#|--------|--------|--------|--------|
G#|--------|--------|--------|--------|
C#|--------|--------|--------|--------|





Track 3: Untitled

G|--------|--------|--------|--------|--------|--------|--------|--------|--------|
D|--------|--------|--------|--------|--------|--------|--------|--------|--------|
A|--------|--------|--------|--------|--------|--------|--------|--------|--------|
E|--------|--------|--------|--------|--------|--------|--------|--------|--------|


G|--------|--------|--------|--------|--------|--------|--------|--------|--------|
D|--------|--------|--------|--------|--------|--------|--------|--------|--------|
A|--------|--------|--------|--------|--------|--------|--------|--------|--------|
E|--------|--------|--------|--------|--------|--------|--------|--------|--------|


G|--------|--------|--------|--------|--------|--------|--------|--------|--------|
D|--------|--------|--------|--------|--------|--------|--------|--------|--------|
A|--------|--------|--------|--------|--------|--------|--------|--------|--------|
E|--------|--------|--------|--------|--------|--------|--------|--------|--------|


G|--------|--------|--------|--------|--------|--------|--------|--------|--------|
D|--------|--------|--------|--------|--------|--------|--------|--------|--------|
A|--------|--------|--------|--------|--------|--------|--------|--------|--------|
E|--------|--------|--------|--------|--------|--------|--------|--------|--------|


G|--------|--------|--------|--------|--------|--------|--------|--------|--------|
D|--------|--------|--------|--------|--------|--------|--------|--------|--------|
A|--------|--------|--------|--------|--------|--------|--------|--------|--------|
E|--------|--------|--------|--------|--------|--------|--------|--------|--------|


G|--------|--------|--------|--------|--------|--------|--------|--------|--------|
D|--------|--------|--------|--------|--------|--------|--------|--------|--------|
A|--------|--------|--------|--------|--------|--------|--------|--------|--------|
E|--------|--------|--------|--------|--------|--------|--------|--------|--------|


G|--------|--------|--------|--------|--------|--------|--------|--------|--------|
D|--------|--------|--------|--------|--------|--------|--------|--------|--------|
A|--------|--------|--------|--------|--------|--------|--------|--------|--------|
E|--------|--------|--------|--------|--------|--------|--------|--------|--------|


G|--------|--------|--------|--------|--------|--------|--------|--------|--------|
D|--------|--------|--------|--------|--------|--------|--------|--------|--------|
A|--------|--------|--------|--------|--------|--------|--------|--------|--------|
E|--------|--------|--------|--------|--------|--------|--------|--------|--------|


G|--------|--------|--------|--------|--------|--------|--------|--------|--------|
D|--------|--------|--------|--------|--------|--------|--------|--------|--------|
A|--------|--------|--------|--------|--------|--------|--------|--------|--------|
E|--------|--------|--------|--------|--------|--------|--------|--------|--------|


G|--------|--------|--------|--------|--------|--------|--------|--------|--------|
D|--------|--------|--------|--------|--------|--------|--------|--------|--------|
A|--------|--------|--------|--------|--------|--------|--------|--------|--------|
E|--------|--------|--------|--------|--------|--------|--------|--------|--------|


G|--------|--------|--------|--------|--------|--------|--------|--------|--------|
D|--------|--------|--------|--------|--------|--------|--------|--------|--------|
A|--------|--------|--------|--------|--------|--------|--------|--------|--------|
E|--------|--------|--------|--------|--------|--------|--------|--------|--------|


G|--------|--------|--------|--------|--------|--------|--------|--------|--------|
D|--------|--------|--------|--------|--------|--------|--------|--------|--------|
A|--------|--------|--------|--------|--------|--------|--------|--------|--------|
E|--------|--------|--------|--------|--------|--------|--------|--------|--------|


G|--------|--------|--------|--------|--------|--------|--------|--------|--------|
D|--------|--------|--------|--------|--------|--------|--------|--------|--------|
A|--------|--------|--------|--------|--------|--------|--------|--------|--------|
E|--------|--------|--------|--------|--------|--------|--------|--------|--------|


G|--------|--------|--------|--------|
D|--------|--------|--------|--------|
A|--------|--------|--------|--------|
E|--------|--------|--------|--------|