Menu:

 

Search:

 

system of a down - chop suey:

 



Title: Chop Suey!
Artist: 
Album: Toxicity
Author: Daron Malakian


Track 1: acous. (centre)

D|------------------|-------------------------------------------|-------------------------------------------|
A|------------------|-------------------------------------------|-------------------------------------------|
F|--------5---------|----5--5------5--5--5--5---5--5--5--7---7--|-7--7--7---7--7--7--7--7---------4---4--4--|
C|--------7---7--7--|----7--7---7--7--7--7--7---7--7--7--9---9--|-9--9--9---9--9--9--9--9---9--9--5---5--5--|
G|--------0---0--0--|----0--0---0--0--0--0--0---0--0--0--0---0--|-0--0--0---0--0--0--0--0---0--0--0---------|
C|------------------|-------------------------------------------|-------------------------------------------|


D|-----------------------------------------|-----------------------------------------|
A|-----------------------------------------|-----------------------------------------|
F|-4--4--4---4--4--4--4--4---4---2---2--2--|-2--2--2---2--2--2--2--2---------5----5--|
C|-5--5--5---5--5--5--5--5---5---3---3--3--|-3--3--3---3--3--3--3--3---3--3--7----7--|
G|-0--0--0------------0--0---0---0---------|-0--0--0---0--0--0--0--0---0--0--0----0--|
C|-----------------------------------------|-----------------------------------------|


D|-------------------------------------------|-----------------------------------------|
A|-------------------------------------------|-----------------------------------------|
F|-5--5--5---5--5--5--5--5---5--5--5--7---7--|-7--7--7---7--7--7--7--7---7--7--4----4--|
C|-7--7--7---7--7--7--7--7---7--7--7--9---9--|-9--9--9---9--9--9--9--9---9--9--5----5--|
G|-0--0--0---0--0--0--0--0---0--0--0--0---0--|-0--0--0---0--0--0--0--0---0--0--0----0--|
C|-------------------------------------------|-----------------------------------------|


D|---------------------------------------|-------------------------------------------|
A|---------------------------------------|-------------------------------------------|
F|-4--4--4---4--4--4---4---2---2---2--2--|-2--2--2---2--2--2--2--2--2--2--2--5----5--|
C|-5--5--5---5--5--5---5---3---3---3--3--|-3--3--3---3--3--3--3--3--3--3--3--7----7--|
G|-0--0--0---0--0--0---0---0---0---0--0--|-0--0--0---0--0--0--0--0--0--0--0--0----0--|
C|---------------------------------------|-------------------------------------------|


D|-------------------------------------------|---------------------------------------|
A|-------------------------------------------|---------------------------------------|
F|-5--5--5---5--5--5--5--5---5--5--5--7---7--|-7--7--7---7--7--7--7--7---7---4----4--|
C|-7--7--7---7--7--7--7--7---7--7--7--9---9--|-9--9--9---9--9--9--9--9---9---5----5--|
G|-0--0--0---0--0--0--0--0---0--0--0--0---0--|-0--0--0---0--0--0--0--0---0---0----0--|
C|-------------------------------------------|---------------------------------------|


D|------------------------------------|------------------------------------|-------------------------------------------|
A|------------------------------------|------------------------------------|-------------------------------------------|
F|-4--4--4---4--4--4--4--4----2----2--|-2--2--2---2--2--2--2--2----5----5--|-5--5--5---5--5--5--5--5---5--5--5--7---7--|
C|-5--5--5---5--5--5--5--5----3----3--|-3--3--3---3--3--3--3--3----7----7--|-7--7--7---7--7--7--7--7---7--7--7--9---9--|
G|-0--0--0---0--0--0--0--0----0----0--|-0--0--0---0--0--0--0--0----0----0--|-0--0--0---0--0--0--0--0---0--0--0--0---0--|
C|------------------------------------|------------------------------------|-------------------------------------------|


D|---------------------------------------|------------------------------------|---------------------------------|
A|---------------------------------------|------------------------------------|---------------------------------|
F|-7--7--7---7--7--7--7--7---7---4----4--|-4--4--4---4--4--4--4--4----2----2--|-2--2--2---2--2--2--2--2---------|
C|-9--9--9---9--9--9--9--9---9---5----5--|-5--5--5---5--5--5--5--5----3----3--|-3--3--3---3--3--3--3--3---------|
G|-0--0--0---0--0--0--0--0---0---0----0--|-0--0--0---0--0--0--0--0----0----0--|-0--0--0---0--0--0--0--0---------|
C|---------------------------------------|------------------------------------|---------------------------------|


D|--------|--------|--------|--------|--------|--------|--------|--------|--------|
A|--------|--------|--------|--------|--------|--------|--------|--------|--------|
F|--------|--------|--------|--------|--------|--------|--------|--------|--------|
C|--------|--------|--------|--------|--------|--------|--------|--------|--------|
G|--------|--------|--------|--------|--------|--------|--------|--------|--------|
C|--------|--------|--------|--------|--------|--------|--------|--------|--------|


D|--------|--------|--------|--------|--------|--------|----------------|---------------------------------|
A|--------|--------|--------|--------|--------|--------|----------------|---------------------------------|
F|--------|--------|--------|--------|--------|--------|--------5-------|---------5-----------5---7-------|
C|--------|--------|--------|--------|--------|--------|------------7---|-----7-------7---------------9---|
G|--------|--------|--------|--------|--------|--------|----------------|-0---------------0---------------|
C|--------|--------|--------|--------|--------|--------|----------------|---------------------------------|


D|---------------------------------|---------------------------------|---------------------------------|
A|---------------------------------|---------------------------------|---------------------------------|
F|---------7-----------7---4-------|---------4-----------4---2-------|---------2-----------2---5-------|
C|-----9-------9---------------5---|-----5-------5---------------3---|-----3-------3---------------7---|
G|-0---------------0---------------|-0---------------0---------------|-0---------------0---------------|
C|---------------------------------|---------------------------------|---------------------------------|


D|---------------------------------|---------------------------------|---------------------------------|
A|---------------------------------|---------------------------------|---------------------------------|
F|---------5-----------5---7-------|---------7-----------7---4-------|---------4-----------4---2-------|
C|-----7-------7---------------9---|-----9-------9---------------5---|-----5-------5---------------3---|
G|-0---------------0---------------|-0---------------0---------------|-0---------------0---------------|
C|---------------------------------|---------------------------------|---------------------------------|


D|------------------------------|--------|--------|--------|--------|--------|--------|
A|------------------------------|--------|--------|--------|--------|--------|--------|
F|---------2-----------2--------|--------|--------|--------|--------|--------|--------|
C|-----3-------3----------------|--------|--------|--------|--------|--------|--------|
G|-0---------------0------------|--------|--------|--------|--------|--------|--------|
C|------------------------------|--------|--------|--------|--------|--------|--------|


D|--------|--------|--------|--------|--------|--------|----------------|---------------------------------|
A|--------|--------|--------|--------|--------|--------|----------------|---------------------------------|
F|--------|--------|--------|--------|--------|--------|--------5-------|---------5-----------5---7-------|
C|--------|--------|--------|--------|--------|--------|------------7---|-----7-------7---------------9---|
G|--------|--------|--------|--------|--------|--------|----------------|-0---------------0---------------|
C|--------|--------|--------|--------|--------|--------|----------------|---------------------------------|


D|---------------------------------|---------------------------------|---------------------------------|
A|---------------------------------|---------------------------------|---------------------------------|
F|---------7-----------7---4-------|---------4-----------4---2-------|---------2-----------2---5-------|
C|-----9-------9---------------5---|-----5-------5---------------3---|-----3-------3---------------7---|
G|-0---------------0---------------|-0---------------0---------------|-0---------------0---------------|
C|---------------------------------|---------------------------------|---------------------------------|


D|---------------------------------|---------------------------------|---------------------------------|
A|---------------------------------|---------------------------------|---------------------------------|
F|---------5-----------5---7-------|---------7-----------7---4-------|---------4-----------4---2-------|
C|-----7-------7---------------9---|-----9-------9---------------5---|-----5-------5---------------3---|
G|-0---------------0---------------|-0---------------0---------------|-0---------------0---------------|
C|---------------------------------|---------------------------------|---------------------------------|


D|---------------------------------|---------------------------------|---------------------------------|
A|---------------------------------|---------------------------------|---------------------------------|
F|---------2-----------2---5-------|---------5-----------5---7-------|---------7-----------7---4-------|
C|-----3-------3---------------7---|-----7-------7---------------9---|-----9-------9---------------5---|
G|-0---------------0---------------|-0---------------0---------------|-0---------------0---------------|
C|---------------------------------|---------------------------------|---------------------------------|


D|---------------------------------|---------------------------------|---------------------------------|
A|---------------------------------|---------------------------------|---------------------------------|
F|---------4-----------4---2-------|---------2-----------2---5-------|---------5-----------5---7-------|
C|-----5-------5---------------3---|-----3-------3---------------7---|-----7-------7---------------9---|
G|-0---------------0---------------|-0---------------0---------------|-0---------------0---------------|
C|---------------------------------|---------------------------------|---------------------------------|


D|---------------------------------|------------------------------|-------------|--------|
A|---------------------------------|------------------------------|-------------|--------|
F|---------7-----------7---4-------|---------4-----------4--------|-------------|--------|
C|-----9-------9---------------5---|-----5-------5----------------|-------------|--------|
G|-0---------------0---------------|-0---------------0------------|-------------|--------|
C|---------------------------------|------------------------------|-------------|--------|


D|--------|--------|--------|--------|--------|--------|--------|--------|--------|
A|--------|--------|--------|--------|--------|--------|--------|--------|--------|
F|--------|--------|--------|--------|--------|--------|--------|--------|--------|
C|--------|--------|--------|--------|--------|--------|--------|--------|--------|
G|--------|--------|--------|--------|--------|--------|--------|--------|--------|
C|--------|--------|--------|--------|--------|--------|--------|--------|--------|


D|--------|--------|--------|--------|--------|--------|--------|--------|--------|
A|--------|--------|--------|--------|--------|--------|--------|--------|--------|
F|--------|--------|--------|--------|--------|--------|--------|--------|--------|
C|--------|--------|--------|--------|--------|--------|--------|--------|--------|
G|--------|--------|--------|--------|--------|--------|--------|--------|--------|
C|--------|--------|--------|--------|--------|--------|--------|--------|--------|


D|--------|--------|--------|--------|--------|--------|--------|--------|--------|
A|--------|--------|--------|--------|--------|--------|--------|--------|--------|
F|--------|--------|--------|--------|--------|--------|--------|--------|--------|
C|--------|--------|--------|--------|--------|--------|--------|--------|--------|
G|--------|--------|--------|--------|--------|--------|--------|--------|--------|
C|--------|--------|--------|--------|--------|--------|--------|--------|--------|


D|--------|--------|--------|--------|--------|--------|--------|--------|--------|
A|--------|--------|--------|--------|--------|--------|--------|--------|--------|
F|--------|--------|--------|--------|--------|--------|--------|--------|--------|
C|--------|--------|--------|--------|--------|--------|--------|--------|--------|
G|--------|--------|--------|--------|--------|--------|--------|--------|--------|
C|--------|--------|--------|--------|--------|--------|--------|--------|--------|





Track 2: elec. (right)

D|--------|--------|--------|--------|----------------|---------------------------------|
A|--------|--------|--------|--------|----------------|---------------------------------|
F|--------|--------|--------|--------|--------5-------|-----5---5-------5-------7-------|
C|--------|--------|--------|--------|-------------7--|-7----------7--------7--------9--|
G|--------|--------|--------|--------|----------------|---------------------------------|
C|--------|--------|--------|--------|----------------|---------------------------------|


D|---------------------------------|---------------------------------|---------------------------------|
A|---------------------------------|---------------------------------|---------------------------------|
F|-----7---7-------7-------4-------|-----4---4-------4-------2-------|-----2---2-------2------------5--|
C|-9----------9--------9--------5--|-5----------5--------5--------3--|-3----------3--------3---7-------|
G|---------------------------------|---------------------------------|---------------------------------|
C|---------------------------------|---------------------------------|---------------------------------|


D|---------------------------------|---------------------------------|---------------------------------|
A|---------------------------------|---------------------------------|---------------------------------|
F|-5----------5--------5--------7--|-7----------7--------7--------4--|-4----------4--------4--------2--|
C|-----7---7-------7-------9-------|-----9---9-------9-------5-------|-----5---5-------5-------3-------|
G|---------------------------------|---------------------------------|---------------------------------|
C|---------------------------------|---------------------------------|---------------------------------|


D|---------------------------------|---------------------------------|---------------------------------|
A|---------------------------------|---------------------------------|---------------------------------|
F|-2----------2--------2--------5--|-5----------5--------5--------7--|-7----------7--------7--------4--|
C|-----3---3-------3-------7-------|-----7---7-------7-------9-------|-----9---9-------9-------5-------|
G|---------------------------------|---------------------------------|---------------------------------|
C|---------------------------------|---------------------------------|---------------------------------|


D|---------------------------------|------------------------------|--------|--------|
A|---------------------------------|------------------------------|--------|--------|
F|-4----------4--------4---2---2---|-2---2---2---2---2---2--------|--------|--------|
C|-----5---5-------5-------3---3---|-3---3---3---3---3---3--------|--------|--------|
G|---------------------------------|------------------------------|--------|--------|
C|---------------------------------|------------------------------|--------|--------|


D|--------|--------|--------|--------|--------|--------|--------|--------|--------|
A|--------|--------|--------|--------|--------|--------|--------|--------|--------|
F|--------|--------|--------|--------|--------|--------|--------|--------|--------|
C|--------|--------|--------|--------|--------|--------|--------|--------|--------|
G|--------|--------|--------|--------|--------|--------|--------|--------|--------|
C|--------|--------|--------|--------|--------|--------|--------|--------|--------|


D|--------|--------|--------|--------|-------------|---------------------------|---------------------------|
A|--------|--------|--------|--------|-------------|---------------------------|---------------------------|
F|--------|--------|--------|--------|--------5----|------5---------------7----|------7---------------4----|
C|--------|--------|--------|--------|-------------|----------7-------7--------|----------9-------9--------|
G|--------|--------|--------|--------|-------------|-0------------0------------|-0------------0------------|
C|--------|--------|--------|--------|-------------|---------------------------|---------------------------|


D|---------------------------|---------------------------|---------------------------|
A|---------------------------|---------------------------|---------------------------|
F|------4---------------2----|------2---------------5----|------5---------------7----|
C|----------5-------5--------|----------3-------3--------|----------7-------7--------|
G|-0------------0------------|-0------------0------------|-0------------0------------|
C|---------------------------|---------------------------|---------------------------|


D|---------------------------|---------------------------|---------------------------|
A|---------------------------|---------------------------|---------------------------|
F|------7---------------4----|------4---------------2----|------2--------------------|
C|----------9-------9--------|----------5-------5--------|----------3-------3--------|
G|-0------------0------------|-0------------0------------|-0------------0------------|
C|---------------------------|---------------------------|---------------------------|


D|--------|--------|--------|--------|--------|--------|--------|--------|--------|
A|--------|--------|--------|--------|--------|--------|--------|--------|--------|
F|--------|--------|--------|--------|--------|--------|--------|--------|--------|
C|--------|--------|--------|--------|--------|--------|--------|--------|--------|
G|--------|--------|--------|--------|--------|--------|--------|--------|--------|
C|--------|--------|--------|--------|--------|--------|--------|--------|--------|


D|--------|--------|--------|-------------|---------------------------|---------------------------|
A|--------|--------|--------|-------------|---------------------------|---------------------------|
F|--------|--------|--------|--------5----|------5---------------7----|------7---------------4----|
C|--------|--------|--------|-------------|----------7-------7--------|----------9-------9--------|
G|--------|--------|--------|-------------|-0------------0------------|-0------------0------------|
C|--------|--------|--------|-------------|---------------------------|---------------------------|


D|---------------------------|---------------------------|---------------------------|
A|---------------------------|---------------------------|---------------------------|
F|------4---------------2----|------2---------------5----|------5---------------7----|
C|----------5-------5--------|----------3-------3--------|----------7-------7--------|
G|-0------------0------------|-0------------0------------|-0------------0------------|
C|---------------------------|---------------------------|---------------------------|


D|---------------------------|---------------------------|---------------------------|
A|---------------------------|---------------------------|---------------------------|
F|------7---------------4----|------4---------------2----|------2---------------5----|
C|----------9-------9--------|----------5-------5--------|----------3-------3--------|
G|-0------------0------------|-0------------0------------|-0------------0------------|
C|---------------------------|---------------------------|---------------------------|


D|---------------------------|---------------------------|---------------------------|
A|---------------------------|---------------------------|---------------------------|
F|------5---------------7----|------7---------------4----|------4---------------2----|
C|----------7-------7--------|----------9-------9--------|----------5-------5--------|
G|-0------------0------------|-0------------0------------|-0------------0------------|
C|---------------------------|---------------------------|---------------------------|


D|---------------------------|---------------------------|---------------------------|
A|---------------------------|---------------------------|---------------------------|
F|------2---------------5----|------5---------------7----|------7---------------4----|
C|----------3-------3--------|----------7-------7--------|----------9-------9--------|
G|-0------------0------------|-0------------0------------|-0------------0------------|
C|---------------------------|---------------------------|---------------------------|


D|---------------------------|-------------|--------|--------|--------|--------|--------|
A|---------------------------|-------------|--------|--------|--------|--------|--------|
F|------4---------------2----|--------2----|--------|--------|--------|--------|--------|
C|----------5-------5---3----|--------3----|--------|--------|--------|--------|--------|
G|-0------------0-------0----|--------0----|--------|--------|--------|--------|--------|
C|---------------------------|-------------|--------|--------|--------|--------|--------|


D|--------|--------|--------|--------|--------|--------|--------|--------|--------|
A|--------|--------|--------|--------|--------|--------|--------|--------|--------|
F|--------|--------|--------|--------|--------|--------|--------|--------|--------|
C|--------|--------|--------|--------|--------|--------|--------|--------|--------|
G|--------|--------|--------|--------|--------|--------|--------|--------|--------|
C|--------|--------|--------|--------|--------|--------|--------|--------|--------|


D|--------|--------|--------|--------|--------|--------|--------|--------|--------|
A|--------|--------|--------|--------|--------|--------|--------|--------|--------|
F|--------|--------|--------|--------|--------|--------|--------|--------|--------|
C|--------|--------|--------|--------|--------|--------|--------|--------|--------|
G|--------|--------|--------|--------|--------|--------|--------|--------|--------|
C|--------|--------|--------|--------|--------|--------|--------|--------|--------|


D|--------|--------|--------|--------|--------|--------|--------|--------|--------|
A|--------|--------|--------|--------|--------|--------|--------|--------|--------|
F|--------|--------|--------|--------|--------|--------|--------|--------|--------|
C|--------|--------|--------|--------|--------|--------|--------|--------|--------|
G|--------|--------|--------|--------|--------|--------|--------|--------|--------|
C|--------|--------|--------|--------|--------|--------|--------|--------|--------|


D|--------|--------|--------|--------|--------|
A|--------|--------|--------|--------|--------|
F|--------|--------|--------|--------|--------|
C|--------|--------|--------|--------|--------|
G|--------|--------|--------|--------|--------|
C|--------|--------|--------|--------|--------|





Track 3: acous. (centre)

D|--------|--------|--------|--------|--------|--------|-------------|--------|--------|
A|--------|--------|--------|--------|--------|--------|-------------|--------|--------|
F|--------|--------|--------|--------|--------|--------|-------------|--------|--------|
C|--------|--------|--------|--------|--------|--------|-------------|--------|--------|
G|--------|--------|--------|--------|--------|--------|-------------|--------|--------|
C|--------|--------|--------|--------|--------|--------|-------------|--------|--------|


D|--------|--------|--------|--------|--------|--------|--------|--------|--------|
A|--------|--------|--------|--------|--------|--------|--------|--------|--------|
F|--------|--------|--------|--------|--------|--------|--------|--------|--------|
C|--------|--------|--------|--------|--------|--------|--------|--------|--------|
G|--------|--------|--------|--------|--------|--------|--------|--------|--------|
C|--------|--------|--------|--------|--------|--------|--------|--------|--------|


D|--------|--------|--------|--------|--------|--------|--------|--------|--------|
A|--------|--------|--------|--------|--------|--------|--------|--------|--------|
F|--------|--------|--------|--------|--------|--------|--------|--------|--------|
C|--------|--------|--------|--------|--------|--------|--------|--------|--------|
G|--------|--------|--------|--------|--------|--------|--------|--------|--------|
C|--------|--------|--------|--------|--------|--------|--------|--------|--------|


D|--------|--------|--------|--------|--------|--------|--------|--------|--------|
A|--------|--------|--------|--------|--------|--------|--------|--------|--------|
F|--------|--------|--------|--------|--------|--------|--------|--------|--------|
C|--------|--------|--------|--------|--------|--------|--------|--------|--------|
G|--------|--------|--------|--------|--------|--------|--------|--------|--------|
C|--------|--------|--------|--------|--------|--------|--------|--------|--------|


D|--------|--------|--------|--------|--------|--------|--------|--------|--------|
A|--------|--------|--------|--------|--------|--------|--------|--------|--------|
F|--------|--------|--------|--------|--------|--------|--------|--------|--------|
C|--------|--------|--------|--------|--------|--------|--------|--------|--------|
G|--------|--------|--------|--------|--------|--------|--------|--------|--------|
C|--------|--------|--------|--------|--------|--------|--------|--------|--------|


D|--------|--------|--------|--------|--------|--------|--------|--------|--------|
A|--------|--------|--------|--------|--------|--------|--------|--------|--------|
F|--------|--------|--------|--------|--------|--------|--------|--------|--------|
C|--------|--------|--------|--------|--------|--------|--------|--------|--------|
G|--------|--------|--------|--------|--------|--------|--------|--------|--------|
C|--------|--------|--------|--------|--------|--------|--------|--------|--------|


D|--------|--------|--------|--------|--------|--------|--------|--------|--------|
A|--------|--------|--------|--------|--------|--------|--------|--------|--------|
F|--------|--------|--------|--------|--------|--------|--------|--------|--------|
C|--------|--------|--------|--------|--------|--------|--------|--------|--------|
G|--------|--------|--------|--------|--------|--------|--------|--------|--------|
C|--------|--------|--------|--------|--------|--------|--------|--------|--------|


D|--------|--------|--------|--------|--------|--------|--------|--------|--------|
A|--------|--------|--------|--------|--------|--------|--------|--------|--------|
F|--------|--------|--------|--------|--------|--------|--------|--------|--------|
C|--------|--------|--------|--------|--------|--------|--------|--------|--------|
G|--------|--------|--------|--------|--------|--------|--------|--------|--------|
C|--------|--------|--------|--------|--------|--------|--------|--------|--------|


D|--------|--------|--------|--------|--------|--------|--------|--------|--------|
A|--------|--------|--------|--------|--------|--------|--------|--------|--------|
F|--------|--------|--------|--------|--------|--------|--------|--------|--------|
C|--------|--------|--------|--------|--------|--------|--------|--------|--------|
G|--------|--------|--------|--------|--------|--------|--------|--------|--------|
C|--------|--------|--------|--------|--------|--------|--------|--------|--------|


D|--------|--------|--------|--------|--------|--------|--------|--------|--------|
A|--------|--------|--------|--------|--------|--------|--------|--------|--------|
F|--------|--------|--------|--------|--------|--------|--------|--------|--------|
C|--------|--------|--------|--------|--------|--------|--------|--------|--------|
G|--------|--------|--------|--------|--------|--------|--------|--------|--------|
C|--------|--------|--------|--------|--------|--------|--------|--------|--------|


D|--------|--------|--------|--------|--------|--------|--------|--------|--------|
A|--------|--------|--------|--------|--------|--------|--------|--------|--------|
F|--------|--------|--------|--------|--------|--------|--------|--------|--------|
C|--------|--------|--------|--------|--------|--------|--------|--------|--------|
G|--------|--------|--------|--------|--------|--------|--------|--------|--------|
C|--------|--------|--------|--------|--------|--------|--------|--------|--------|


D|--------|--------|--------|--------|--------|--------|--------|--------|
A|--------|--------|--------|--------|--------|--------|--------|--------|
F|--------|--------|--------|--------|--------|--------|--------|--------|
C|--------|--------|--------|--------|--------|--------|--------|--------|
G|--------|--------|--------|--------|--------|--------|--------|--------|
C|--------|--------|--------|--------|--------|--------|--------|--------|





Track 4: mandolin (rightish)

D|--------|--------|--------|--------|--------|--------|--------|--------8--8--8--8--|
A|--------|--------|--------|--------|--------|--------|--------|--------10-10-10-10-|
F|--------|--------|--------|--------|--------|--------|--------|--------------------|
C|--------|--------|--------|--------|--------|--------|--------|--------------------|
G|--------|--------|--------|--------|--------|--------|--------|--------------------|
C|--------|--------|--------|--------|--------|--------|--------|--------------------|


D|-8--8--8--8--8--8--8--8--8--8--8--8--8--8--8--8--|-8--8--8--8--8--8--8--8--8--8--8--8--10-10-10-10-|
A|-10-10-10-10-10-10-10-10-10-10-10-10-10-10-10-10-|-10-10-10-10-10-10-10-10-10-10-10-10-12-12-12-12-|
F|-------------------------------------------------|-------------------------------------------------|
C|-------------------------------------------------|-------------------------------------------------|
G|-------------------------------------------------|-------------------------------------------------|
C|-------------------------------------------------|-------------------------------------------------|


D|-10-10-10-10-10-10-10-10-10-10-10-10-7--7--7--7--|-7--7--7--7--7--7--7--7--7--7--7--7--12-12-12-12-|
A|-12-12-12-12-12-12-12-12-12-12-12-12-8--8--8--8--|-8--8--8--8--8--8--8--8--8--8--8--8--13-13-13-13-|
F|-------------------------------------------------|-------------------------------------------------|
C|-------------------------------------------------|-------------------------------------------------|
G|-------------------------------------------------|-------------------------------------------------|
C|-------------------------------------------------|-------------------------------------------------|


D|-12-12-12-12-12-12-12-12-12-12-12-12-12-12-12-12-|-12-12-12-12-12-12-12-12-12-12-12-12-13-13-13-13-|
A|-13-13-13-13-13-13-13-13-13-13-13-13-13-13-13-13-|-13-13-13-13-13-13-13-13-13-13-13-13-15-15-15-15-|
F|-------------------------------------------------|-------------------------------------------------|
C|-------------------------------------------------|-------------------------------------------------|
G|-------------------------------------------------|-------------------------------------------------|
C|-------------------------------------------------|-------------------------------------------------|


D|-13-13-13-13-13-13-13-13-13-13-13-13-10-10-10-10-|-10-10-10-10-10-10-10-10-10-10-10-10-13-13-13-13-|
A|-15-15-15-15-15-15-15-15-15-15-15-15-12-12-12-12-|-12-12-12-12-12-12-12-12-12-12-12-12-15-15-15-15-|
F|-------------------------------------------------|-------------------------------------------------|
C|-------------------------------------------------|-------------------------------------------------|
G|-------------------------------------------------|-------------------------------------------------|
C|-------------------------------------------------|-------------------------------------------------|


D|-13-13-13-13-13-13-13-13-13-13-13-13------|--------|--------|--------|--------|--------|
A|-15-15-15-15-15-15-15-15-15-15-15-15------|--------|--------|--------|--------|--------|
F|------------------------------------------|--------|--------|--------|--------|--------|
C|------------------------------------------|--------|--------|--------|--------|--------|
G|------------------------------------------|--------|--------|--------|--------|--------|
C|------------------------------------------|--------|--------|--------|--------|--------|


D|--------|--------|--------|--------|--------|--------|--------|--------|--------|
A|--------|--------|--------|--------|--------|--------|--------|--------|--------|
F|--------|--------|--------|--------|--------|--------|--------|--------|--------|
C|--------|--------|--------|--------|--------|--------|--------|--------|--------|
G|--------|--------|--------|--------|--------|--------|--------|--------|--------|
C|--------|--------|--------|--------|--------|--------|--------|--------|--------|


D|--------|--------8--8--8--8--|-8--8--8--8--8--8--8--8--8--8--8--8--10-10-10-10-|
A|--------|--------10-10-10-10-|-10-10-10-10-10-10-10-10-10-10-10-10-12-12-12-12-|
F|--------|--------------------|-------------------------------------------------|
C|--------|--------------------|-------------------------------------------------|
G|--------|--------------------|-------------------------------------------------|
C|--------|--------------------|-------------------------------------------------|


D|-10-10-10-10-10-10-10-10-10-10-10-10-7--7--7--7--|-7--7--7--7--7--7--7--7--7--7--7--7--12-12-12-12-|
A|-12-12-12-12-12-12-12-12-12-12-12-12-8--8--8--8--|-8--8--8--8--8--8--8--8--8--8--8--8--13-13-13-13-|
F|-------------------------------------------------|-------------------------------------------------|
C|-------------------------------------------------|-------------------------------------------------|
G|-------------------------------------------------|-------------------------------------------------|
C|-------------------------------------------------|-------------------------------------------------|


D|-12-12-12-12-12-12-12-12-12-12-12-12-8--8--8--8--|-8--8--8--8--8--8--8--8--8--8--8--8--10-10-10-10-|
A|-13-13-13-13-13-13-13-13-13-13-13-13-10-10-10-10-|-10-10-10-10-10-10-10-10-10-10-10-10-12-12-12-12-|
F|-------------------------------------------------|-------------------------------------------------|
C|-------------------------------------------------|-------------------------------------------------|
G|-------------------------------------------------|-------------------------------------------------|
C|-------------------------------------------------|-------------------------------------------------|


D|-10-10-10-10-10-10-10-10-10-10-10-10-7--7--7--7--|-7--7--7--7--7--7--7--7--7--7--7--7--12-12-12-12-|
A|-12-12-12-12-12-12-12-12-12-12-12-12-8--8--8--8--|-8--8--8--8--8--8--8--8--8--8--8--8--13-13-13-13-|
F|-------------------------------------------------|-------------------------------------------------|
C|-------------------------------------------------|-------------------------------------------------|
G|-------------------------------------------------|-------------------------------------------------|
C|-------------------------------------------------|-------------------------------------------------|


D|-12-12-12-12-12-12-12-12-12-12-12-12------|--------|--------|--------|--------|--------|
A|-13-13-13-13-13-13-13-13-13-13-13-13------|--------|--------|--------|--------|--------|
F|------------------------------------------|--------|--------|--------|--------|--------|
C|------------------------------------------|--------|--------|--------|--------|--------|
G|------------------------------------------|--------|--------|--------|--------|--------|
C|------------------------------------------|--------|--------|--------|--------|--------|


D|--------|--------|--------|--------|--------|--------|--------|--------8--8--8--8--|
A|--------|--------|--------|--------|--------|--------|--------|--------10-10-10-10-|
F|--------|--------|--------|--------|--------|--------|--------|--------------------|
C|--------|--------|--------|--------|--------|--------|--------|--------------------|
G|--------|--------|--------|--------|--------|--------|--------|--------------------|
C|--------|--------|--------|--------|--------|--------|--------|--------------------|


D|-8--8--8--8--8--8--8--8--8--8--8--8--10-10-10-10-|-10-10-10-10-10-10-10-10-10-10-10-10-7--7--7--7--|
A|-10-10-10-10-10-10-10-10-10-10-10-10-12-12-12-12-|-12-12-12-12-12-12-12-12-12-12-12-12-8--8--8--8--|
F|-------------------------------------------------|-------------------------------------------------|
C|-------------------------------------------------|-------------------------------------------------|
G|-------------------------------------------------|-------------------------------------------------|
C|-------------------------------------------------|-------------------------------------------------|


D|-7--7--7--7--7--7--7--7--7--7--7--7--12-12-12-12-|-12-12-12-12-12-12-12-12-12-12-12-12-8--8--8--8--|
A|-8--8--8--8--8--8--8--8--8--8--8--8--13-13-13-13-|-13-13-13-13-13-13-13-13-13-13-13-13-10-10-10-10-|
F|-------------------------------------------------|-------------------------------------------------|
C|-------------------------------------------------|-------------------------------------------------|
G|-------------------------------------------------|-------------------------------------------------|
C|-------------------------------------------------|-------------------------------------------------|


D|-8--8--8--8--8--8--8--8--8--8--8--8--10-10-10-10-|-10-10-10-10-10-10-10-10-10-10-10-10-7--7--7--7--|
A|-10-10-10-10-10-10-10-10-10-10-10-10-12-12-12-12-|-12-12-12-12-12-12-12-12-12-12-12-12-8--8--8--8--|
F|-------------------------------------------------|-------------------------------------------------|
C|-------------------------------------------------|-------------------------------------------------|
G|-------------------------------------------------|-------------------------------------------------|
C|-------------------------------------------------|-------------------------------------------------|


D|-7--7--7--7--7--7--7--7--7--7--7--7--12-12-12-12-|-12-12-12-12-12-12-12-12-12-12-12-12-8--8--8--8--|
A|-8--8--8--8--8--8--8--8--8--8--8--8--13-13-13-13-|-13-13-13-13-13-13-13-13-13-13-13-13-10-10-10-10-|
F|-------------------------------------------------|-------------------------------------5-----------|
C|-------------------------------------------------|-------------------------------------------------|
G|-------------------------------------------------|-------------------------------------------------|
C|-------------------------------------------------|-------------------------------------------------|


D|-8--8--8--8--8--8--8--8--8--8--8--8--10-10-10-10-|-10-10-10-10-10-10-10-10-10-10-10-10-7--7--7--7--|
A|-10-10-10-10-10-10-10-10-10-10-10-10-12-12-12-12-|-12-12-12-12-12-12-12-12-12-12-12-12-8--8--8--8--|
F|-------------------------7-----9-----7-----------|-------------------------9-----10----7-----------|
C|-------------------------------------------------|-------------------------------------------------|
G|-------------------------------------------------|-------------------------------------------------|
C|-------------------------------------------------|-------------------------------------------------|


D|-7--7--7--7--7--7--7--7--7--7--7--7--12-12-12-12-|-12-12-12-12-12-12-12-12-12-12-12-12-8--8--8--8--|
A|-8--8--8--8--8--8--8--8--8--8--8--8--13-13-13-13-|-13-13-13-13-13-13-13-13-13-13-13-13-10-10-10-10-|
F|-------------------------7-----9-----10-------9--|-9-----7-----5--------4--4-----2-----------------|
C|-------------------------------------------------|-------------------------------------------------|
G|-------------------------------------------------|-------------------------------------------------|
C|-------------------------------------------------|-------------------------------------------------|


D|-8--8--8--8--8--8--8--8--8--8--8--8--10-10-10-10-|-10-10-10-10-10-10-10-10-10-10-10-10-7--7--7--7--|
A|-10-10-10-10-10-10-10-10-10-10-10-10-12-12-12-12-|-12-12-12-12-12-12-12-12-12-12-12-12-8--8--8--8--|
F|-------------------------------------------------|-------------------------------------------------|
C|-------------------------------------------------|-------------------------------------------------|
G|-------------------------------------------------|-------------------------------------------------|
C|-------------------------------------------------|-------------------------------------------------|


D|-7--7--7--7--7--7--7--7--7--7--7--7-------|-------------|--------|--------|--------|
A|-8--8--8--8--8--8--8--8--8--8--8--8-------|-------------|--------|--------|--------|
F|------------------------------------------|-------------|--------|--------|--------|
C|------------------------------------------|-------------|--------|--------|--------|
G|------------------------------------------|-------------|--------|--------|--------|
C|------------------------------------------|-------------|--------|--------|--------|


D|--------|--------|--------|--------|--------|--------|--------|--------|--------|
A|--------|--------|--------|--------|--------|--------|--------|--------|--------|
F|--------|--------|--------|--------|--------|--------|--------|--------|--------|
C|--------|--------|--------|--------|--------|--------|--------|--------|--------|
G|--------|--------|--------|--------|--------|--------|--------|--------|--------|
C|--------|--------|--------|--------|--------|--------|--------|--------|--------|


D|--------|--------|--------|--------|--------|--------|--------|--------|--------|
A|--------|--------|--------|--------|--------|--------|--------|--------|--------|
F|--------|--------|--------|--------|--------|--------|--------|--------|--------|
C|--------|--------|--------|--------|--------|--------|--------|--------|--------|
G|--------|--------|--------|--------|--------|--------|--------|--------|--------|
C|--------|--------|--------|--------|--------|--------|--------|--------|--------|


D|--------|--------|--------|--------|--------|--------|--------|-------------|------------------------|
A|--------|--------|--------|--------|--------|--------|--------|-------------|------------------------|
F|--------|--------|--------|--------|--------|--------|--------|--------5----|-----------7---9---7----|
C|--------|--------|--------|--------|--------|--------|--------|-------------|------------------------|
G|--------|--------|--------|--------|--------|--------|--------|-------------|------------------------|
C|--------|--------|--------|--------|--------|--------|--------|-------------|------------------------|


D|------------------------|---------------------------|------------------------------|
A|------------------------|---------------------------|------------------------------|
F|-----------9---10--9----|-----------9---10--12---10-|-10--9---7----5--5---4---2----|
C|------------------------|---------------------------|------------------------------|
G|------------------------|---------------------------|------------------------------|
C|------------------------|---------------------------|------------------------------|


D|-----------------|--------|--------|--------|
A|-----------------|--------|--------|--------|
F|-----------------|--------|--------|--------|
C|-----------------|--------|--------|--------|
G|-----------------|--------|--------|--------|
C|-----------------|--------|--------|--------|





Track 5: elec. (doubled in left and right)

D|--------|--------|--------|--------|--------|--------|--------|--------|--------|
A|--------|--------|--------|--------|--------|--------|--------|--------|--------|
F|--------|--------|--------|--------|--------|--------|--------|--------|--------|
C|--------|--------|--------|--------|--------|--------|--------|--------|--------|
G|--------|--------|--------|--------|--------|--------|--------|--------|--------|
C|--------|--------|--------|--------|--------|--------|--------|--------|--------|


D|--------|--------|--------|--------|--------|--------|--------|--------------------|
A|--------|--------|--------|--------|--------|--------|--------|--------------------|
F|--------|--------|--------|--------|--------|--------|--------|--------------------|
C|--------|--------|--------|--------|--------|--------|--------|--------------------|
G|--------|--------|--------|--------|--------|--------|--------|--------8--7--8--7--|
C|--------|--------|--------|--------|--------|--------|--------|--------8--7--8--7--|


D|-------------------------------------------------|-------------------------------------------------|
A|-------------------------------------------------|-------------------------------------------------|
F|-------------------------------------------------|-------------------------------------------------|
C|-------------------------------------------------|-------------------------------------------------|
G|-8--7--8--7--7--6--7--6--7--6--7--6--10-9--10-9--|-10-9--10-9--12-10-12-10-12-10-12-10-8--7--8--7--|
C|-8--7--8--7--7--6--7--6--7--6--7--6--10-9--10-9--|-10-9--10-9--12-10-12-10-12-10-12-10-8--7--8--7--|


D|-------------------------------------------------|-------------------------------------------------|
A|-------------------------------------------------|-------------------------------------------------|
F|-------------------------------------------------|-------------------------------------------------|
C|-------------------------------------------------|-------------------------------------------------|
G|-8--7--8--7--7--6--7--6--7--6--7--6--10-9--10-9--|-10-9--10-9--12-10-12-10-12-10-12-10-------------|
C|-8--7--8--7--7--6--7--6--7--6--7--6--10-9--10-9--|-10-9--10-9--12-10-12-10-12-10-12-10-7--7--7--7--|


D|-------------------------------------------------|-------------------------------------------------|
A|-------------------------------------------------|-------------------------------------------------|
F|-------------------------------------------------|-------------------------------------------------|
C|-------------------------------------------------|-------------------------------------------------|
G|-------------------------------------------------|-------------------------------------------------|
C|-7--7--7--7--6--6--6--6--6--6--6--6--9--9--9--9--|-9--9--9--9--12-12-12-12-12-12-12-12-7--7--7--7--|


D|-------------------------------------------------|-----------------------------------------------|
A|-------------------------------------------------|-----------------------------------------------|
F|-------------------------------------------------|-----------------------------------------------|
C|-------------------------------------------------|-----------------------------------------------|
G|-------------------------------------------------|-------------------------------------8--7------|
C|-7--7--7--7--6--6--6--6--6--6--6--6--9--9--9--9--|-9--9--9--9--12-12-12-12-12-12-12-12-8--7------|


D|----------------------------------------|----------------------------------------|
A|----------------------------------------|----------------------------------------|
F|----------------------------------------|----------------------------------------|
C|----------------------------------------|----------------------------------------|
G|------8--7--8--7--8--7--8--7--7--6------|------7--6--7--6--7--6--7--6--8--7------|
C|------8--7--8--7--8--7--8--7--7--6------|------7--6--7--6--7--6--7--6--8--7------|


D|----------------------------------------|----------------------------------------|
A|----------------------------------------|----------------------------------------|
F|----------------------------------------|----------------------------------------|
C|----------------------------------------|----------------------------------------|
G|------8--7--8--7--8--7--8--7--7--6------|------7--6--7--6--7--6--7--6--8--7------|
C|------8--7--8--7--8--7--8--7--7--6------|------7--6--7--6--7--6--7--6--8--7------|


D|----------------------------------------|----------------------------------------|
A|----------------------------------------|----------------------------------------|
F|----------------------------------------|----------------------------------------|
C|----------------------------------------|----------------------------------------|
G|------8--7--8--7--8--7--8--7--7--6------|------7--6--7--6--7--6--7--6--8--7------|
C|------8--7--8--7--8--7--8--7--7--6------|------7--6--7--6--7--6--7--6--8--7------|


D|----------------------------------------|-----------------------------------|--------|
A|----------------------------------------|-----------------------------------|--------|
F|----------------------------------------|-----------------------------------|--------|
C|----------------------------------------|-----------------------------------|--------|
G|------8--7--8--7--8--7--8--7--7--6------|------7--6--7--6--7--6--7--6-------|--------|
C|------8--7--8--7--8--7--8--7--7--6------|------7--6--7--6--7--6--7--6-------|--------|


D|--------|--------|--------|--------|--------|--------|--------------------|-------------------------------------------------|
A|--------|--------|--------|--------|--------|--------|--------------------|-------------------------------------------------|
F|--------|--------|--------|--------|--------|--------|--------------------|-------------------------------------------------|
C|--------|--------|--------|--------|--------|--------|--------------------|-------------------------------------------------|
G|--------|--------|--------|--------|--------|--------|--------8--7--8--7--|-8--7--8--7--7--6--7--6--7--6--7--6--10-9--10-9--|
C|--------|--------|--------|--------|--------|--------|--------8--7--8--7--|-8--7--8--7--7--6--7--6--7--6--7--6--10-9--10-9--|


D|-------------------------------------------------|-------------------------------------------------|
A|-------------------------------------------------|-------------------------------------------------|
F|-------------------------------------------------|-------------------------------------------------|
C|-------------------------------------------------|-------------------------------------------------|
G|-10-9--10-9--12-10-12-10-12-10-12-10-8--7--8--7--|-8--7--8--7--7--6--7--6--7--6--7--6--10-9--10-9--|
C|-10-9--10-9--12-10-12-10-12-10-12-10-8--7--8--7--|-8--7--8--7--7--6--7--6--7--6--7--6--10-9--10-9--|


D|-------------------------------------------------|-----------------------------------------------|
A|-------------------------------------------------|-----------------------------------------------|
F|-------------------------------------------------|-----------------------------------------------|
C|-------------------------------------------------|-----------------------------------------------|
G|-10-9--10-9--12-10-12-10-12-10-12-10-8--7--8--7--|-8--7--8--7--8--7--8--7--8--7--8--7--8--7------|
C|-10-9--10-9--12-10-12-10-12-10-12-10-8--7--8--7--|-8--7--8--7--8--7--8--7--8--7--8--7--8--7------|


D|----------------------------------------|----------------------------------------|
A|----------------------------------------|----------------------------------------|
F|----------------------------------------|----------------------------------------|
C|----------------------------------------|----------------------------------------|
G|------8--7--8--7--8--7--8--7--7--6------|------7--6--7--6--7--6--7--6--8--7------|
C|------8--7--8--7--8--7--8--7--7--6------|------7--6--7--6--7--6--7--6--8--7------|


D|----------------------------------------|----------------------------------------|
A|----------------------------------------|----------------------------------------|
F|----------------------------------------|----------------------------------------|
C|----------------------------------------|----------------------------------------|
G|------8--7--8--7--8--7--8--7--7--6------|------7--6--7--6--7--6--7--6--8--7------|
C|------8--7--8--7--8--7--8--7--7--6------|------7--6--7--6--7--6--7--6--8--7------|


D|----------------------------------------|----------------------------------------|
A|----------------------------------------|----------------------------------------|
F|----------------------------------------|----------------------------------------|
C|----------------------------------------|----------------------------------------|
G|------8--7--8--7--8--7--8--7--7--6------|------7--6--7--6--7--6--7--6--8--7------|
C|------8--7--8--7--8--7--8--7--7--6------|------7--6--7--6--7--6--7--6--8--7------|


D|----------------------------------------|-----------------------------------|--------|
A|----------------------------------------|-----------------------------------|--------|
F|----------------------------------------|-----------------------------------|--------|
C|----------------------------------------|-----------------------------------|--------|
G|------8--7--8--7--8--7--8--7--7--6------|------7--6--7--6--7--6--7--6-------|--------|
C|------8--7--8--7--8--7--8--7--7--6------|------7--6--7--6--7--6--7--6-------|--------|


D|--------|--------|--------|--------|--------|--------|--------|--------|--------|
A|--------|--------|--------|--------|--------|--------|--------|--------|--------|
F|--------|--------|--------|--------|--------|--------|--------|--------|--------|
C|--------|--------|--------|--------|--------|--------|--------|--------|--------|
G|--------|--------|--------|--------|--------|--------|--------|--------|--------|
C|--------|--------|--------|--------|--------|--------|--------|--------|--------|


D|--------|--------|--------|--------|--------|--------|--------------------|-------------------------------------------------|
A|--------|--------|--------|--------|--------|--------|--------------------|-------------------------------------------------|
F|--------|--------|--------|--------|--------|--------|--------------------|-------------------------------------------------|
C|--------|--------|--------|--------|--------|--------|--------8--7--8--7--|-8--7--8--7--7--6--7--6--7--6--7--6--10-9--10-9--|
G|--------|--------|--------|--------|--------|--------|--------8--7--8--7--|-8--7--8--7--7--6--7--6--7--6--7--6--10-9--10-9--|
C|--------|--------|--------|--------|--------|--------|--------8--7--8--7--|-8--7--8--7--7--6--7--6--7--6--7--6--10-9--10-9--|


D|-------------------------------------------------|-------------------------------------------------|
A|-------------------------------------------------|-------------------------------------------------|
F|-------------------------------------------------|-------------------------------------------------|
C|-10-9--10-9--12-10-12-10-12-10-12-10-8--7--8--7--|-8--7--8--7--7--6--7--6--7--6--7--6--10-9--10-9--|
G|-10-9--10-9--12-10-12-10-12-10-12-10-8--7--8--7--|-8--7--8--7--7--6--7--6--7--6--7--6--10-9--10-9--|
C|-10-9--10-9--12-10-12-10-12-10-12-10-8--7--8--7--|-8--7--8--7--7--6--7--6--7--6--7--6--10-9--10-9--|


D|-------------------------------------------------|-------------------------------------------------|
A|-------------------------------------------------|-------------------------------------------------|
F|-------------------------------------------------|-------------------------------------------------|
C|-10-9--10-9--12-10-12-10-12-10-12-10-------------|-------------------------------------------------|
G|-10-9--10-9--12-10-12-10-12-10-12-10-8--7--8--7--|-8--7--8--7--7--6--7--6--7--6--7--6--10-9--10-9--|
C|-10-9--10-9--12-10-12-10-12-10-12-10-8--7--8--7--|-8--7--8--7--7--6--7--6--7--6--7--6--10-9--10-9--|


D|-------------------------------------------------|-------------------------------------------------|
A|-------------------------------------------------|-------------------------------------------------|
F|-------------------------------------------------|-------------------------------------------------|
C|-------------------------------------------------|-------------------------------------------------|
G|-10-9--10-9--12-10-12-10-12-10-12-10-8--7--8--7--|-8--7--8--7--7--6--7--6--7--6--7--6--10-9--10-9--|
C|-10-9--10-9--12-10-12-10-12-10-12-10-8--7--8--7--|-8--7--8--7--7--6--7--6--7--6--7--6--10-9--10-9--|


D|-------------------------------------------------|-------------------------------------------------|
A|-------------------------------------------------|-------------------------------------------------|
F|-------------------------------------------------|-------------------------------------------------|
C|-------------------------------------------------|-------------------------------------------------|
G|-10-9--10-9--12-10-12-10-12-10-12-10-------------|-------------------------------------------------|
C|-10-9--10-9--12-10-12-10-12-10-12-10-7--7--7--7--|-7--7--7--7--6--6--6--6--6--6--6--6--9--9--9--9--|


D|-------------------------------------------------|-------------------------------------------------|
A|-------------------------------------------------|-------------------------------------------------|
F|-------------------------------------------------|-------------------------------------------------|
C|-------------------------------------------------|-------------------------------------------------|
G|-------------------------------------------------|-------------------------------------------------|
C|-9--9--9--9--12-12-12-12-12-12-12-12-7--7--7--7--|-7--7--7--7--6--6--6--6--6--6--6--6--9--9--9--9--|


D|------------------------------------------|-------------|-------------|-------------|
A|------------------------------------------|-------------|-------------|-------------|
F|------------------------------------------|--------10---|-------------|--------10---|
C|-------------------------------------7----|--------10---|--------10---|--------10---|
G|-------------------------------------7----|--------8----|--------10---|--------8----|
C|-9--9--9--9--12-12-12-12-12-12-12-12-7----|-------------|--------10---|-------------|


D|-------------|-------------|-------------|-------------|-------------|-------------|
A|-------------|-------------|-------------|-------------|-------------|-------------|
F|-------------|--------10---|-------------|--------10---|-------------|--------10---|
C|--------7----|--------10---|--------10---|--------10---|--------7----|--------10---|
G|--------7----|--------8----|--------10---|--------8----|--------7----|--------8----|
C|--------7----|-------------|--------10---|-------------|--------7----|-------------|


D|-------------|-------------|-------------|-------------|-------------|-------------|
A|-------------|-------------|-------------|-------------|-------------|-------------|
F|-------------|--------10---|-------------|--------10---|-------------|--------10---|
C|--------10---|--------10---|--------7----|--------10---|--------10---|--------10---|
G|--------10---|--------8----|--------7----|--------8----|--------10---|--------8----|
C|--------10---|-------------|--------7----|-------------|--------10---|-------------|


D|-------------|-------------|-------------|-------------|-------------|-------------|
A|-------------|-------------|-------------|-------------|-------------|-------------|
F|-------------|--------10---|-------------|--------10---|-------------|--------10---|
C|--------7----|--------10---|--------10---|--------10---|--------7----|--------10---|
G|--------7----|--------8----|--------10---|--------8----|--------7----|--------8----|
C|--------7----|-------------|--------10---|-------------|--------7----|-------------|


D|-------------|------------------|--------------------------|
A|-------------|------------------|--------------------------|
F|-------------|--------10-----10-|-------10--10---10--------|
C|--------10---|--------10-----10-|-------10--10---10---7----|
G|--------10---|--------8------8--|-------8---8----8----7----|
C|--------10---|------------------|---------------------7----|





Track 6: acous. (centre)

D|--------|--------|--------|--------|--------|--------|--------|--------|--------|
A|--------|--------|--------|--------|--------|--------|--------|--------|--------|
F|--------|--------|--------|--------|--------|--------|--------|--------|--------|
C|--------|--------|--------|--------|--------|--------|--------|--------|--------|
G|--------|--------|--------|--------|--------|--------|--------|--------|--------|
C|--------|--------|--------|--------|--------|--------|--------|--------|--------|


D|--------|--------|--------|--------|--------|--------|--------|--------|--------|
A|--------|--------|--------|--------|--------|--------|--------|--------|--------|
F|--------|--------|--------|--------|--------|--------|--------|--------|--------|
C|--------|--------|--------|--------|--------|--------|--------|--------|--------|
G|--------|--------|--------|--------|--------|--------|--------|--------|--------|
C|--------|--------|--------|--------|--------|--------|--------|--------|--------|


D|--------|--------|--------|--------|--------|--------|--------|--------|--------|
A|--------|--------|--------|--------|--------|--------|--------|--------|--------|
F|--------|--------|--------|--------|--------|--------|--------|--------|--------|
C|--------|--------|--------|--------|--------|--------|--------|--------|--------|
G|--------|--------|--------|--------|--------|--------|--------|--------|--------|
C|--------|--------|--------|--------|--------|--------|--------|--------|--------|


D|--------|--------|--------|--------|--------|--------|--------|--------|--------|
A|--------|--------|--------|--------|--------|--------|--------|--------|--------|
F|--------|--------|--------|--------|--------|--------|--------|--------|--------|
C|--------|--------|--------|--------|--------|--------|--------|--------|--------|
G|--------|--------|--------|--------|--------|--------|--------|--------|--------|
C|--------|--------|--------|--------|--------|--------|--------|--------|--------|


D|--------|--------|--------|--------|--------|--------|--------|--------|--------|
A|--------|--------|--------|--------|--------|--------|--------|--------|--------|
F|--------|--------|--------|--------|--------|--------|--------|--------|--------|
C|--------|--------|--------|--------|--------|--------|--------|--------|--------|
G|--------|--------|--------|--------|--------|--------|--------|--------|--------|
C|--------|--------|--------|--------|--------|--------|--------|--------|--------|


D|--------|-------------|--------|-------------|--------|-------------|--------|-------------|
A|--------|-------------|--------|-------------|--------|-------------|--------|-------------|
F|--------|-------------|--------|-------------|--------|-------------|--------|-------------|
C|--------|-------------|--------|-------------|--------|-------------|--------|-------------|
G|--------|-------------|--------|-------------|--------|-------------|--------|-------------|
C|--------|-------------|--------|-------------|--------|-------------|--------|-------------|


D|--------|--------|--------|--------|--------|--------|--------|--------|--------|
A|--------|--------|--------|--------|--------|--------|--------|--------|--------|
F|--------|--------|--------|--------|--------|--------|--------|--------|--------|
C|--------|--------|--------|--------|--------|--------|--------|--------|--------|
G|--------|--------|--------|--------|--------|--------|--------|--------|--------|
C|--------|--------|--------|--------|--------|--------|--------|--------|--------|


D|--------|--------|--------|--------|--------|--------|--------|--------|--------|
A|--------|--------|--------|--------|--------|--------|--------|--------|--------|
F|--------|--------|--------|--------|--------|--------|--------|--------|--------|
C|--------|--------|--------|--------|--------|--------|--------|--------|--------|
G|--------|--------|--------|--------|--------|--------|--------|--------|--------|
C|--------|--------|--------|--------|--------|--------|--------|--------|--------|


D|--------|--------|--------|--------|--------|--------|--------|--------|--------|
A|--------|--------|--------|--------|--------|--------|--------|--------|--------|
F|--------|--------|--------|--------|--------|--------|--------|--------|--------|
C|--------|--------|--------|--------|--------|--------|--------|--------|--------|
G|--------|--------|--------|--------|--------|--------|--------|--------|--------|
C|--------|--------|--------|--------|--------|--------|--------|--------|--------|


D|--------|--------|--------|--------|--------|--------|--------|--------|--------|
A|--------|--------|--------|--------|--------|--------|--------|--------|--------|
F|--------|--------|--------|--------|--------|--------|--------|--------|--------|
C|--------|--------|--------|--------|--------|--------|--------|--------|--------|
G|--------|--------|--------|--------|--------|--------|--------|--------|--------|
C|--------|--------|--------|--------|--------|--------|--------|--------|--------|


D|--------|--------|--------|--------|--------|--------|--------|--------|--------|
A|--------|--------|--------|--------|--------|--------|--------|--------|--------|
F|--------|--------|--------|--------|--------|--------|--------|--------|--------|
C|--------|--------|--------|--------|--------|--------|--------|--------|--------|
G|--------|--------|--------|--------|--------|--------|--------|--------|--------|
C|--------|--------|--------|--------|--------|--------|--------|--------|--------|


D|--------|--------|--------|--------|--------|--------|--------|--------|--------|
A|--------|--------|--------|--------|--------|--------|--------|--------|--------|
F|--------|--------|--------|--------|--------|--------|--------|--------|--------|
C|--------|--------|--------|--------|--------|--------|--------|--------|--------|
G|--------|--------|--------|--------|--------|--------|--------|--------|--------|
C|--------|--------|--------|--------|--------|--------|--------|--------|--------|





Track 7: acous. (centre)

D|--------|--------|--------|--------|--------|--------|--------|--------|--------|
A|--------|--------|--------|--------|--------|--------|--------|--------|--------|
F|--------|--------|--------|--------|--------|--------|--------|--------|--------|
C|--------|--------|--------|--------|--------|--------|--------|--------|--------|
G|--------|--------|--------|--------|--------|--------|--------|--------|--------|
C|--------|--------|--------|--------|--------|--------|--------|--------|--------|


D|--------|--------|--------|--------|--------|--------|--------|--------|--------|
A|--------|--------|--------|--------|--------|--------|--------|--------|--------|
F|--------|--------|--------|--------|--------|--------|--------|--------|--------|
C|--------|--------|--------|--------|--------|--------|--------|--------|--------|
G|--------|--------|--------|--------|--------|--------|--------|--------|--------|
C|--------|--------|--------|--------|--------|--------|--------|--------|--------|


D|--------|--------|--------|--------|--------|--------|--------|--------|--------|
A|--------|--------|--------|--------|--------|--------|--------|--------|--------|
F|--------|--------|--------|--------|--------|--------|--------|--------|--------|
C|--------|--------|--------|--------|--------|--------|--------|--------|--------|
G|--------|--------|--------|--------|--------|--------|--------|--------|--------|
C|--------|--------|--------|--------|--------|--------|--------|--------|--------|


D|--------|--------|--------|--------|--------|--------|--------|--------|--------|
A|--------|--------|--------|--------|--------|--------|--------|--------|--------|
F|--------|--------|--------|--------|--------|--------|--------|--------|--------|
C|--------|--------|--------|--------|--------|--------|--------|--------|--------|
G|--------|--------|--------|--------|--------|--------|--------|--------|--------|
C|--------|--------|--------|--------|--------|--------|--------|--------|--------|


D|--------|--------|--------|--------|--------|--------|--------|--------|--------|
A|--------|--------|--------|--------|--------|--------|--------|--------|--------|
F|--------|--------|--------|--------|--------|--------|--------|--------|--------|
C|--------|--------|--------|--------|--------|--------|--------|--------|--------|
G|--------|--------|--------|--------|--------|--------|--------|--------|--------|
C|--------|--------|--------|--------|--------|--------|--------|--------|--------|


D|--------|-------------|--------|-------------|--------|-------------|--------|-------------|
A|--------|-------------|--------|-------------|--------|-------------|--------|-------------|
F|--------|-------------|--------|-------------|--------|-------------|--------|-------------|
C|--------|-------------|--------|-------------|--------|-------------|--------|-------------|
G|--------|-------------|--------|-------------|--------|-------------|--------|-------------|
C|--------|-------------|--------|-------------|--------|-------------|--------|-------------|


D|--------|--------|--------|--------|--------|--------|--------|--------|--------|
A|--------|--------|--------|--------|--------|--------|--------|--------|--------|
F|--------|--------|--------|--------|--------|--------|--------|--------|--------|
C|--------|--------|--------|--------|--------|--------|--------|--------|--------|
G|--------|--------|--------|--------|--------|--------|--------|--------|--------|
C|--------|--------|--------|--------|--------|--------|--------|--------|--------|


D|--------|--------|--------|--------|--------|--------|--------|--------|--------|
A|--------|--------|--------|--------|--------|--------|--------|--------|--------|
F|--------|--------|--------|--------|--------|--------|--------|--------|--------|
C|--------|--------|--------|--------|--------|--------|--------|--------|--------|
G|--------|--------|--------|--------|--------|--------|--------|--------|--------|
C|--------|--------|--------|--------|--------|--------|--------|--------|--------|


D|--------|--------|--------|--------|--------|--------|--------|--------|--------|
A|--------|--------|--------|--------|--------|--------|--------|--------|--------|
F|--------|--------|--------|--------|--------|--------|--------|--------|--------|
C|--------|--------|--------|--------|--------|--------|--------|--------|--------|
G|--------|--------|--------|--------|--------|--------|--------|--------|--------|
C|--------|--------|--------|--------|--------|--------|--------|--------|--------|


D|--------|--------|--------|--------|--------|--------|--------|--------|--------|
A|--------|--------|--------|--------|--------|--------|--------|--------|--------|
F|--------|--------|--------|--------|--------|--------|--------|--------|--------|
C|--------|--------|--------|--------|--------|--------|--------|--------|--------|
G|--------|--------|--------|--------|--------|--------|--------|--------|--------|
C|--------|--------|--------|--------|--------|--------|--------|--------|--------|


D|--------|--------|--------|--------|--------|--------|--------|--------|--------|
A|--------|--------|--------|--------|--------|--------|--------|--------|--------|
F|--------|--------|--------|--------|--------|--------|--------|--------|--------|
C|--------|--------|--------|--------|--------|--------|--------|--------|--------|
G|--------|--------|--------|--------|--------|--------|--------|--------|--------|
C|--------|--------|--------|--------|--------|--------|--------|--------|--------|


D|--------|--------|--------|--------|--------|--------|--------|--------|--------|
A|--------|--------|--------|--------|--------|--------|--------|--------|--------|
F|--------|--------|--------|--------|--------|--------|--------|--------|--------|
C|--------|--------|--------|--------|--------|--------|--------|--------|--------|
G|--------|--------|--------|--------|--------|--------|--------|--------|--------|
C|--------|--------|--------|--------|--------|--------|--------|--------|--------|





Track 8: bass

F|--------|--------|--------|--------|-------------|-------------|-------------|-------------|
C|--------|--------|--------|--------|-------------|-------------|-------------|-------------|
G|--------|--------|--------|--------|--------0----|--------0----|--------0----|-------------|
C|--------|--------|--------|--------|-------------|-------------|-------------|-------------|


F|-------------|-------------|-------------|-------------|-------------|-------------|
C|-------------|-------------|-------------|-------------|-------------|-------------|
G|--------0----|--------8----|--------3----|-------------|--------0----|--------8----|
C|-------------|-------------|-------------|--------3----|-------------|-------------|


F|-------------|----------------|-------------------------------------|-------------------------------------------------|
C|-------------|----------------|-------------------------------------|-------------------------------------------------|
G|--------3----|----------------|-------------------------------------|-------------------------------------------------|
C|-------------|--------3---3---|-3---3---3---3---3---3---8--7--8--7--|-8--7--8--7--7--6--7--6--7--6--7--6--10-9--10-9--|


F|-------------------------------------------------|-------------------------------------------------|
C|-------------------------------------------------|-------------------------------------------------|
G|-------------------------------------------------|-------------------------------------------------|
C|-10-9--10-9--12-10-12-10-12-10-12-10-8--7--8--7--|-8--7--8--7--7--6--7--6--7--6--7--6--10-9--10-9--|


F|-------------------------------------------------|-------------------------------------------------|
C|-------------------------------------------------|-------------------------------------------------|
G|-------------------------------------------------|-------------------------------------------------|
C|-10-9--10-9--12-10-12-10-12-10-12-10-7--7--7--7--|-7--7--7--7--6--6--6--6--6--6--6--6--9--9--9--9--|


F|-------------------------------------------------|-------------------------------------------------|
C|-------------------------------------------------|-------------------------------------------------|
G|-------------------------------------------------|-------------------------------------------------|
C|-9--9--9--9--12-12-12-12-12-12-12-12-7--7--7--7--|-7--7--7--7--6--6--6--6--6--6--6--6--9--9--9--9--|


F|-----------------------------------------------|----------------------------------------|
C|-----------------------------------------------|----------------------------------------|
G|-----------------------------------------------|----------------------------------------|
C|-9--9--9--9--12-12-12-12-12-12-12-12-8--7------|------8--7--8--7--8--7--8--7--7--6------|


F|----------------------------------------|----------------------------------------|
C|----------------------------------------|----------------------------------------|
G|----------------------------------------|----------------------------------------|
C|------7--6--7--6--7--6--7--6--8--7------|------8--7--8--7--8--7--8--7--7--6------|


F|----------------------------------------|----------------------------------------|
C|----------------------------------------|----------------------------------------|
G|----------------------------------------|----------------------------------------|
C|------7--6--7--6--7--6--7--6--8--7------|------8--7--8--7--8--7--8--7--7--6------|


F|----------------------------------------|----------------------------------------|
C|----------------------------------------|----------------------------------------|
G|----------------------------------------|----------------------------------------|
C|------7--6--7--6--7--6--7--6--8--7------|------8--7--8--7--8--7--8--7--7--6------|


F|-----------------------------------|-------------|-------------|-------------|---------------------|
C|-----------------------------------|-------------|-------------|-------------|---------------------|
G|------------------------------0----|--------8----|--------3----|-------------|----------------0----|
C|------7--6--7--6--7--6--7--6-------|-------------|-------------|--------3----|------3----5---------|


F|-------------|-------------|-------------|----------------------------|-------------------------------------------------|
C|-------------|-------------|-------------|----------------------------|-------------------------------------------------|
G|--------8----|--------3----|-------------|----------------------------|-------------------------------------------------|
C|-------------|-------------|--------3----|------3----5----8--7--8--7--|-8--7--8--7--7--6--7--6--7--6--7--6--10-9--10-9--|


F|-------------------------------------------------|-------------------------------------------------|
C|-------------------------------------------------|-------------------------------------------------|
G|-------------------------------------------------|-------------------------------------------------|
C|-10-9--10-9--12-10-12-10-12-10-12-10-8--7--8--7--|-8--7--8--7--7--6--7--6--7--6--7--6--10-9--10-9--|


F|-------------------------------------------------|-----------------------------------------------|
C|-------------------------------------------------|-----------------------------------------------|
G|-------------------------------------------------|-----------------------------------------------|
C|-10-9--10-9--12-10-12-10-12-10-12-10-8--7--8--7--|-8--7--8--7--8--7--8--7--8--7--8--7--8--7------|


F|----------------------------------------|----------------------------------------|
C|----------------------------------------|----------------------------------------|
G|----------------------------------------|----------------------------------------|
C|------8--7--8--7--8--7--8--7--7--6------|------7--6--7--6--7--6--7--6--8--7------|


F|----------------------------------------|----------------------------------------|
C|----------------------------------------|----------------------------------------|
G|----------------------------------------|----------------------------------------|
C|------8--7--8--7--8--7--8--7--7--6------|------7--6--7--6--7--6--7--6--8--7------|


F|----------------------------------------|----------------------------------------|
C|----------------------------------------|----------------------------------------|
G|----------------------------------------|----------------------------------------|
C|------8--7--8--7--8--7--8--7--7--6------|------7--6--7--6--7--6--7--6--8--7------|


F|----------------------------------------|-----------------------------------|-------------|
C|----------------------------------------|-----------------------------------|-------------|
G|----------------------------------------|------------------------------0----|--------8----|
C|------8--7--8--7--8--7--8--7--7--6------|------7--6--7--6--7--6--7--6-------|-------------|


F|-------------|-------------|---------------------|-------------|-------------|-------------|
C|-------------|-------------|---------------------|-------------|-------------|-------------|
G|--------3----|-------------|----------------0----|--------8----|--------3----|-------------|
C|-------------|--------3----|------3----5---------|-------------|-------------|--------3----|


F|---------------------|-------------|-------------|-------------|---------------------|
C|---------------------|-------------|-------------|-------------|---------------------|
G|----------------0----|--------8----|--------3----|-------------|----------------0----|
C|------3----5---------|-------------|-------------|--------3----|------3----5---------|


F|-------------|-------------|-------------|-------------|--------------------|-------------------------------------------------|
C|-------------|-------------|-------------|-------------|--------------------|-------------------------------------------------|
G|--------8----|--------3----|-------------|-------------|--------------------|-------------------------------------------------|
C|-------------|-------------|--------3----|--------3----|--------8--7--8--7--|-8--7--8--7--7--6--7--6--7--6--7--6--10-9--10-9--|


F|-------------------------------------------------|-------------------------------------------------|
C|-------------------------------------------------|-------------------------------------------------|
G|-------------------------------------------------|-------------------------------------------------|
C|-10-9--10-9--12-10-12-10-12-10-12-10-8--7--8--7--|-8--7--8--7--7--6--7--6--7--6--7--6--10-9--10-9--|


F|-------------------------------------------------|-------------------------------------------------|
C|-------------------------------------------------|-------------------------------------------------|
G|-------------------------------------------------|-------------------------------------------------|
C|-10-9--10-9--12-10-12-10-12-10-12-10-8--7--8--7--|-8--7--8--7--7--6--7--6--7--6--7--6--10-9--10-9--|


F|-------------------------------------------------|-------------------------------------------------|
C|-------------------------------------------------|-------------------------------------------------|
G|-------------------------------------------------|-------------------------------------------------|
C|-10-9--10-9--12-10-12-10-12-10-12-10-8--7--8--7--|-8--7--8--7--7--6--7--6--7--6--7--6--10-9--10-9--|


F|-------------------------------------------------|-------------------------------------------------|
C|-------------------------------------------------|-------------------------------------------------|
G|-------------------------------------------------|-------------------------------------------------|
C|-10-9--10-9--12-10-12-10-12-10-12-10-7--7--7--7--|-7--7--7--7--6--6--6--6--6--6--6--6--9--9--9--9--|


F|-------------------------------------------------|-------------------------------------------------|
C|-------------------------------------------------|-------------------------------------------------|
G|-------------------------------------------------|-------------------------------------------------|
C|-9--9--9--9--12-12-12-12-12-12-12-12-7--7--7--7--|-7--7--7--7--6--6--6--6--6--6--6--6--9--9--9--9--|


F|------------------------------------------|-------------|-------------|-------------|
C|------------------------------------------|-------------|-------------|-------------|
G|------------------------------------------|--------8----|-------------|--------8----|
C|-9--9--9--9--12-12-12-12-12-12-12-12-7----|-------------|--------10---|-------------|


F|-------------|-------------|-------------|-------------|-------------|-------------|
C|-------------|-------------|-------------|-------------|-------------|-------------|
G|-------------|--------8----|-------------|--------8----|-------------|--------8----|
C|--------7----|-------------|--------10---|-------------|--------7----|-------------|


F|-------------|-------------|-------------|-------------|-------------|-------------|
C|-------------|-------------|-------------|-------------|-------------|-------------|
G|-------------|--------8----|-------------|--------8----|-------------|--------8----|
C|--------10---|-------------|--------7----|-------------|--------10---|-------------|


F|-------------|-------------|-------------|-------------|-------------|-------------|
C|-------------|-------------|-------------|-------------|-------------|-------------|
G|-------------|--------8----|-------------|--------8----|-------------|--------8----|
C|--------7----|-------------|--------10---|-------------|--------7----|-------------|


F|-------------|------------------|--------------------------|
C|-------------|------------------|--------------------------|
G|-------------|--------8------8--|-------8---8----8---------|
C|--------10---|------------------|---------------------7----|





Track 9: bass

F|--------|--------|--------|--------|--------|--------|-------------|-------------|
C|--------|--------|--------|--------|--------|--------|-------------|-------------|
G|--------|--------|--------|--------|--------|--------|-------------|-------------|
C|--------|--------|--------|--------|--------|--------|-------------|-------------|


F|--------|--------|--------|--------|--------|--------|--------|--------|--------|
C|--------|--------|--------|--------|--------|--------|--------|--------|--------|
G|--------|--------|--------|--------|--------|--------|--------|--------|--------|
C|--------|--------|--------|--------|--------|--------|--------|--------|--------|


F|--------|--------|--------|--------|--------|--------|--------|--------|--------|
C|--------|--------|--------|--------|--------|--------|--------|--------|--------|
G|--------|--------|--------|--------|--------|--------|--------|--------|--------|
C|--------|--------|--------|--------|--------|--------|--------|--------|--------|


F|--------|--------|--------|--------|--------|--------|--------|--------|--------|
C|--------|--------|--------|--------|--------|--------|--------|--------|--------|
G|--------|--------|--------|--------|--------|--------|--------|--------|--------|
C|--------|--------|--------|--------|--------|--------|--------|--------|--------|


F|--------|--------|--------|--------|--------|--------|--------|--------|--------|
C|--------|--------|--------|--------|--------|--------|--------|--------|--------|
G|--------|--------|--------|--------|--------|--------|--------|--------|--------|
C|--------|--------|--------|--------|--------|--------|--------|--------|--------|


F|--------|--------|--------|--------|--------|--------|--------|--------|--------|
C|--------|--------|--------|--------|--------|--------|--------|--------|--------|
G|--------|--------|--------|--------|--------|--------|--------|--------|--------|
C|--------|--------|--------|--------|--------|--------|--------|--------|--------|


F|--------|--------|--------|--------|--------|--------|--------|--------|--------|
C|--------|--------|--------|--------|--------|--------|--------|--------|--------|
G|--------|--------|--------|--------|--------|--------|--------|--------|--------|
C|--------|--------|--------|--------|--------|--------|--------|--------|--------|


F|--------|--------|--------|--------|--------|--------|--------|--------|--------|
C|--------|--------|--------|--------|--------|--------|--------|--------|--------|
G|--------|--------|--------|--------|--------|--------|--------|--------|--------|
C|--------|--------|--------|--------|--------|--------|--------|--------|--------|


F|--------|--------|--------|--------|--------|--------|--------|--------|--------|
C|--------|--------|--------|--------|--------|--------|--------|--------|--------|
G|--------|--------|--------|--------|--------|--------|--------|--------|--------|
C|--------|--------|--------|--------|--------|--------|--------|--------|--------|


F|--------|--------|--------|--------|--------|--------|--------|--------|--------|
C|--------|--------|--------|--------|--------|--------|--------|--------|--------|
G|--------|--------|--------|--------|--------|--------|--------|--------|--------|
C|--------|--------|--------|--------|--------|--------|--------|--------|--------|


F|--------|--------|--------|--------|--------|--------|--------|--------|--------|
C|--------|--------|--------|--------|--------|--------|--------|--------|--------|
G|--------|--------|--------|--------|--------|--------|--------|--------|--------|
C|--------|--------|--------|--------|--------|--------|--------|--------|--------|


F|--------|--------|--------|--------|--------|--------|--------|--------|--------|
C|--------|--------|--------|--------|--------|--------|--------|--------|--------|
G|--------|--------|--------|--------|--------|--------|--------|--------|--------|
C|--------|--------|--------|--------|--------|--------|--------|--------|--------|





Track 10: strings

D|--------|--------|--------|--------|--------|--------|--------|--------|-------------|
A|--------|--------|--------|--------|--------|--------|--------|--------|--------10---|
F|--------|--------|--------|--------|--------|--------|--------|--------|-------------|
C|--------|--------|--------|--------|--------|--------|--------|--------|-------------|
G|--------|--------|--------|--------|--------|--------|--------|--------|-------------|
C|--------|--------|--------|--------|--------|--------|--------|--------|-------------|


D|-------------|-------------|-------------|-------------|-------------|--------12---|
A|--------12---|--------8----|--------6----|--------10---|--------12---|-------------|
F|-------------|-------------|-------------|-------------|-------------|-------------|
C|-------------|-------------|-------------|-------------|-------------|-------------|
G|-------------|-------------|-------------|-------------|-------------|-------------|
C|-------------|-------------|-------------|-------------|-------------|-------------|


D|--------17---|-------------|--------|-------------|--------|--------|--------|--------|
A|-------------|-------------|--------|-------------|--------|--------|--------|--------|
F|-------------|-------------|--------|-------------|--------|--------|--------|--------|
C|-------------|-------------|--------|-------------|--------|--------|--------|--------|
G|-------------|-------------|--------|-------------|--------|--------|--------|--------|
C|-------------|-------------|--------|-------------|--------|--------|--------|--------|


D|--------|--------|-------------|--------|-------------|--------|-------------|--------|
A|--------|--------|-------------|--------|-------------|--------|-------------|--------|
F|--------|--------|-------------|--------|-------------|--------|-------------|--------|
C|--------|--------|-------------|--------|-------------|--------|-------------|--------|
G|--------|--------|-------------|--------|-------------|--------|-------------|--------|
C|--------|--------|-------------|--------|-------------|--------|-------------|--------|


D|-------------|--------|--------|--------|--------|--------|--------|--------|--------|
A|-------------|--------|--------|--------|--------|--------|--------|--------|--------|
F|-------------|--------|--------|--------|--------|--------|--------|--------|--------|
C|-------------|--------|--------|--------|--------|--------|--------|--------|--------|
G|-------------|--------|--------|--------|--------|--------|--------|--------|--------|
C|-------------|--------|--------|--------|--------|--------|--------|--------|--------|


D|--------|--------|--------|--------|--------|--------|--------|--------|--------|
A|--------|--------|--------|--------|--------|--------|--------|--------|--------|
F|--------|--------|--------|--------|--------|--------|--------|--------|--------|
C|--------|--------|--------|--------|--------|--------|--------|--------|--------|
G|--------|--------|--------|--------|--------|--------|--------|--------|--------|
C|--------|--------|--------|--------|--------|--------|--------|--------|--------|


D|-------------|-------------|-------------|-------------|--------|--------|--------|
A|-------------|-------------|-------------|-------------|--------|--------|--------|
F|-------------|-------------|-------------|-------------|--------|--------|--------|
C|--------7----|--------6----|--------7----|--------6----|--------|--------|--------|
G|-------------|-------------|-------------|-------------|--------|--------|--------|
C|--------7----|--------6----|--------7----|--------6----|--------|--------|--------|


D|--------|--------|--------|--------|--------|-------------|-------------|-------------|
A|--------|--------|--------|--------|--------|--------10---|--------12---|--------8----|
F|--------|--------|--------|--------|--------|-------------|-------------|-------------|
C|--------|--------|--------|--------|--------|-------------|-------------|-------------|
G|--------|--------|--------|--------|--------|-------------|-------------|-------------|
C|--------|--------|--------|--------|--------|-------------|-------------|-------------|


D|-------------|-------------|-------------|-------------|----------------|------------------------|
A|--------6----|--------10---|--------12---|--------8----|--------13---12-|-12---------------------|
F|-------------|-------------|-------------|-------------|----------------|-----14--12---14---14---|
C|-------------|-------------|-------------|-------------|----------------|------------------------|
G|-------------|-------------|-------------|-------------|----------------|------------------------|
C|-------------|-------------|-------------|-------------|----------------|------------------------|


D|-------------|--------|-------------|--------|--------|--------|--------|--------|
A|-------------|--------|-------------|--------|--------|--------|--------|--------|
F|-------------|--------|-------------|--------|--------|--------|--------|--------|
C|-------------|--------|-------------|--------|--------|--------|--------|--------|
G|-------------|--------|-------------|--------|--------|--------|--------|--------|
C|-------------|--------|-------------|--------|--------|--------|--------|--------|


D|--------|--------|--------|--------|--------|--------|--------|--------|--------|
A|--------|--------|--------|--------|--------|--------|--------|--------|--------|
F|--------|--------|--------|--------|--------|--------|--------|--------|--------|
C|--------|--------|--------|--------|--------|--------|--------|--------|--------|
G|--------|--------|--------|--------|--------|--------|--------|--------|--------|
C|--------|--------|--------|--------|--------|--------|--------|--------|--------|


D|--------|--------|--------|-------------|--------13---|-------------|--------13---|
A|--------|--------|--------|--------10---|-------------|--------13---|-------------|
F|--------|--------|--------|-------------|-------------|-------------|-------------|
C|--------|--------|--------|-------------|-------------|-------------|-------------|
G|--------|--------|--------|-------------|-------------|-------------|-------------|
C|--------|--------|--------|-------------|-------------|-------------|-------------|


D|-------------|--------13---|-------------|--------13---|-------------|--------13---|
A|--------10---|-------------|--------13---|-------------|--------10---|-------------|
F|-------------|-------------|-------------|-------------|-------------|-------------|
C|-------------|-------------|-------------|-------------|-------------|-------------|
G|-------------|-------------|-------------|-------------|-------------|-------------|
C|-------------|-------------|-------------|-------------|-------------|-------------|


D|-------------|--------13---|-------------|--------13---|-------------|--------13---13-|
A|--------13---|-------------|--------10---|-------------|--------13---|----------------|
F|-------------|-------------|-------------|-------------|-------------|----------------|
C|-------------|-------------|-------------|-------------|-------------|----------------|
G|-------------|-------------|-------------|-------------|-------------|----------------|
C|-------------|-------------|-------------|-------------|-------------|----------------|


D|-13--12--12---12--------|
A|-------------------10---|
F|------------------------|
C|------------------------|
G|------------------------|
C|------------------------|





Track 11: piano

D|--------|--------|--------|--------|--------|--------|--------|--------|--------|
A|--------|--------|--------|--------|--------|--------|--------|--------|--------|
F|--------|--------|--------|--------|--------|--------|--------|--------|--------|
C|--------|--------|--------|--------|--------|--------|--------|--------|--------|
G|--------|--------|--------|--------|--------|--------|--------|--------|--------|
C|--------|--------|--------|--------|--------|--------|--------|--------|--------|


D|--------|--------|--------|--------|--------|--------|--------|--------|--------|
A|--------|--------|--------|--------|--------|--------|--------|--------|--------|
F|--------|--------|--------|--------|--------|--------|--------|--------|--------|
C|--------|--------|--------|--------|--------|--------|--------|--------|--------|
G|--------|--------|--------|--------|--------|--------|--------|--------|--------|
C|--------|--------|--------|--------|--------|--------|--------|--------|--------|


D|--------|--------|--------|--------|--------|--------|--------|--------|--------|
A|--------|--------|--------|--------|--------|--------|--------|--------|--------|
F|--------|--------|--------|--------|--------|--------|--------|--------|--------|
C|--------|--------|--------|--------|--------|--------|--------|--------|--------|
G|--------|--------|--------|--------|--------|--------|--------|--------|--------|
C|--------|--------|--------|--------|--------|--------|--------|--------|--------|


D|--------|--------|--------|--------|--------|--------12---|-------------|-------------|
A|--------|--------|--------|--------|--------|-------------|--------15---|--------12---|
F|--------|--------|--------|--------|--------|-------------|-------------|-------------|
C|--------|--------|--------|--------|--------|-------------|-------------|-------------|
G|--------|--------|--------|--------|--------|-------------|-------------|-------------|
C|--------|--------|--------|--------|--------|-------------|-------------|-------------|


D|--------13---12-|-12---------------------|-------------|-------------|--------13---12-|
A|----------------|-----15--13---15--------|--------15---|--------12---|----------------|
F|----------------|-------------------14---|-------------|-------------|----------------|
C|----------------|------------------------|-------------|-------------|----------------|
G|----------------|------------------------|-------------|-------------|----------------|
C|----------------|------------------------|-------------|-------------|----------------|


D|-12---------------------|--------|-------------|--------|--------|--------|--------|
A|-----15--13---15--------|--------|-------------|--------|--------|--------|--------|
F|------------------------|--------|-------------|--------|--------|--------|--------|
C|------------------------|--------|-------------|--------|--------|--------|--------|
G|------------------------|--------|-------------|--------|--------|--------|--------|
C|------------------------|--------|-------------|--------|--------|--------|--------|


D|--------|--------|--------|--------|--------|--------|--------12---|-------------|
A|--------|--------|--------|--------|--------|--------|-------------|--------15---|
F|--------|--------|--------|--------|--------|--------|-------------|-------------|
C|--------|--------|--------|--------|--------|--------|-------------|-------------|
G|--------|--------|--------|--------|--------|--------|-------------|-------------|
C|--------|--------|--------|--------|--------|--------|-------------|-------------|


D|-------------|--------13---12-|-12---------------------|-------------|-------------|
A|--------12---|----------------|-----15--13---15--------|--------15---|--------12---|
F|-------------|----------------|-------------------14---|-------------|-------------|
C|-------------|----------------|------------------------|-------------|-------------|
G|-------------|----------------|------------------------|-------------|-------------|
C|-------------|----------------|------------------------|-------------|-------------|


D|--------13---12-|-12---------------------|-------------|-------------|--------13---12-|
A|----------------|-----15--13---15--------|--------15---|--------12---|----------------|
F|----------------|-------------------14---|-------------|-------------|----------------|
C|----------------|------------------------|-------------|-------------|----------------|
G|----------------|------------------------|-------------|-------------|----------------|
C|----------------|------------------------|-------------|-------------|----------------|


D|-12---------------------|-------------|-------------|----------------|------------------------|
A|-----15--13---15--------|--------15---|--------12---|--------13---12-|-12---------------------|
F|-------------------14---|-------------|-------------|----------------|-----14--12---14---14---|
C|------------------------|-------------|-------------|----------------|------------------------|
G|------------------------|-------------|-------------|----------------|------------------------|
C|------------------------|-------------|-------------|----------------|------------------------|


D|-------------|--------|-------------|--------|--------|--------|--------|--------|
A|-------------|--------|-------------|--------|--------|--------|--------|--------|
F|-------------|--------|-------------|--------|--------|--------|--------|--------|
C|-------------|--------|-------------|--------|--------|--------|--------|--------|
G|-------------|--------|-------------|--------|--------|--------|--------|--------|
C|-------------|--------|-------------|--------|--------|--------|--------|--------|


D|--------|--------|--------|--------|--------|--------|--------|--------|--------|
A|--------|--------|--------|--------|--------|--------|--------|--------|--------|
F|--------|--------|--------|--------|--------|--------|--------|--------|--------|
C|--------|--------|--------|--------|--------|--------|--------|--------|--------|
G|--------|--------|--------|--------|--------|--------|--------|--------|--------|
C|--------|--------|--------|--------|--------|--------|--------|--------|--------|


D|--------|-------------|-------------|--------|--------|--------|--------|--------|
A|--------|-------------|-------------|--------|--------|--------|--------|--------|
F|--------|-------------|-------------|--------|--------|--------|--------|--------|
C|--------|-------------|-------------|--------|--------|--------|--------|--------|
G|--------|-------------|-------------|--------|--------|--------|--------|--------|
C|--------|-------------|-------------|--------|--------|--------|--------|--------|


D|--------|--------|--------|--------|--------|--------|--------|--------|--------|
A|--------|--------|--------|--------|--------|--------|--------|--------|--------|
F|--------|--------|--------|--------|--------|--------|--------|--------|--------|
C|--------|--------|--------|--------|--------|--------|--------|--------|--------|
G|--------|--------|--------|--------|--------|--------|--------|--------|--------|
C|--------|--------|--------|--------|--------|--------|--------|--------|--------|


D|--------|--------|--------|
A|--------|--------|--------|
F|--------|--------|--------|
C|--------|--------|--------|
G|--------|--------|--------|
C|--------|--------|--------|