Menu:

 

Search:

 

system of a down - attack:

 



Title: Attack
Artist: 
Album: Hypnotize
Author: Daron Malakian


Track 1: Distortion

D#|-----------------------------------------------|-----------------------------------------------|
A#|-----------------------------------------------|-----------------------------------------------|
F#|-----------------------------------------------|-----------------------------------------------|
C#|-----------------------------------------------|-----------------------------------------------|
G#|-----------------------------------------------|-----------------------------------------------|
C#|-13-12-13-12-13-12-13-12-12--0--0--0--0--0--0--|-13-12-13-12-13-12-13-12-12--0--0--0--0--0--0--|


D#|-----------------------------------------------|-----------------------------------|
A#|-----------------------------------------------|-----------------------------------|
F#|-----------------------------------------------|-----------------------------------|
C#|-----------------------------------------------|-----------------------------------|
G#|-----------------------------------------------|-----------------------------------|
C#|-13-12-13-12-13-12-13-12-12--0--0--0--0--0--0--|-13-12-13-12-13-12-13-12-12--------|


D#|-----------------------------------------------|-----------------------------------------------|
A#|-----------------------------------------------|-----------------------------------------------|
F#|-----------------------------------------------|-----------------------------------------------|
C#|-----------------------------------------------|-----------------------------------------------|
G#|-----------------------------------------------|-----------------------------------------------|
C#|-13-12-13-12-13-12-13-12-12--0--0--0--0--0--0--|-13-12-13-12-13-12-13-12-12--0--0--0--0--0--0--|


D#|-----------------------------------------------|-----------------------------------------------|
A#|-----------------------------------------------|-----------------------------------------------|
F#|-----------------------------------------------|-----------------------------------------------|
C#|-----------------------------------------------|-----------------------------------------------|
G#|-----------------------------------------------|-----------------------------------------------|
C#|-13-12-13-12-13-12-13-12-12--0--0--0--0--0--0--|-13-12-13-12-13-12-13-12-12--0--0--0--0--0--0--|


D#|-----------------------------------------------|-----------------------------------------------|
A#|-----------------------------------------------|-----------------------------------------------|
F#|-----------------------------------------------|-----------------------------------------------|
C#|-----------------------------------------------|-----------------------------------------------|
G#|-----------------------------------------------|-----------------------------------------------|
C#|-13-12-13-12-13-12-13-12-12--0--0--0--0--0--0--|-13-12-13-12-13-12-13-12-12--0--0--0--0--0--0--|


D#|-----------------------------------------------|-----------------------------------------------|
A#|-----------------------------------------------|-----------------------------------------------|
F#|-----------------------------------------------|-----------------------------------------------|
C#|-----------------------------------------------|-----------------------------------------------|
G#|-----------------------------------------------|-----------------------------------------------|
C#|-13-12-13-12-13-12-13-12-12--0--0--0--0--0--0--|-13-12-13-12-13-12-13-12-12--0--0--0--0--0--0--|


D#|--------|--------|--------|--------|--------|--------|--------|--------|--------|
A#|--------|--------|--------|--------|--------|--------|--------|--------|--------|
F#|--------|--------|--------|--------|--------|--------|--------|--------|--------|
C#|--------|--------|--------|--------|--------|--------|--------|--------|--------|
G#|--------|--------|--------|--------|--------|--------|--------|--------|--------|
C#|--------|--------|--------|--------|--------|--------|--------|--------|--------|


D#|--------|--------|--------|--------|--------|---------------------------------|
A#|--------|--------|--------|--------|--------|---------------------------------|
F#|--------|--------|--------|--------|--------|---------------------------------|
C#|--------|--------|--------|--------|--------|---------------------------------|
G#|--------|--------|--------|--------|--------|-5---5---4---5---7---7---5---7---|
C#|--------|--------|--------|--------|--------|-5---5---4---5---7---7---5---7---|


D#|---------------------------------|-------------------------------------------------|
A#|---------------------------------|-------------------------------------------------|
F#|---------------------------------|-------------------------------------------------|
C#|---------------------------------|-------------------------------------------------|
G#|-8---8---7---8---10--10--10--10--|-------------------------------------------------|
C#|-8---8---7---8---10--10--10--10--|-12-12-12-12-10-10-10-10-8--8--8--8--7--7--7--7--|


D#|-------------------------------------------------|---------------------------------|
A#|-------------------------------------------------|---------------------------------|
F#|-------------------------------------------------|---------------------------------|
C#|-------------------------------------------------|---------------------------------|
G#|-------------------------------------------------|-5---5---4---5---7---7---5---7---|
C#|-10-10-10-10-8--8--8--8--7--7--7--7--4--4--4--4--|-5---5---4---5---7---7---5---7---|


D#|---------------------------------|-------------------------------------------------|
A#|---------------------------------|-------------------------------------------------|
F#|---------------------------------|-------------------------------------------------|
C#|---------------------------------|-------------------------------------------------|
G#|-8---8---7---8---10--10--10--10--|-------------------------------------------------|
C#|-8---8---7---8---10--10--10--10--|-12-12-12-12-10-10-10-10-8--8--8--8--7--7--7--7--|


D#|-----------------------------------------|-----------------------------------------------|
A#|-----------------------------------------|-----------------------------------------------|
F#|-----------------------------------------|-----------------------------------------------|
C#|-----------------------------5---8---7---|-7---------------------------------------------|
G#|-----------------------------3---6---5---|-5---------------------------------------------|
C#|-10-10-10-10-8--8--8--8--7---------------|-----0--0--0--0--0--0--0--0--0--0--0--0--0--0--|


D#|-----------------------------------------|-----------------------------------------------|
A#|-----------------------------------------|-----------------------------------------------|
F#|-----------------------------------------|-----------------------------------------------|
C#|-----------------------------5---8---7---|-7---------------------------------------------|
G#|-----------------------------3---6---5---|-5---------------------------------------------|
C#|-0--0--0--0--0--0--0--0--0---------------|-----0--0--0--0--0--0--0--0--0--0--0--0--0--0--|


D#|-----------------------------------------|-----------------------------------------------|
A#|-----------------------------------------|-----------------------------------------------|
F#|-----------------------------------------|-----------------------------------------------|
C#|-----------------------------5---8---7---|-7---------------------------------------------|
G#|-----------------------------3---6---5---|-5---------------------------------------------|
C#|-0--0--0--0--0--0--0--0--0---------------|-----0--0--0--0--0--0--0--0--0--0--0--0--0--0--|


D#|-----------------------------------------|---------------------------------|---------------------------------|
A#|-----------------------------------------|---------------------------------|---------------------------------|
F#|-----------------------------------------|---------------------------------|---------------------------------|
C#|-----------------------------5---8---7---|-7---8---11--11--11--11--11--11--|-11--12--11--------------8---7---|
G#|-----------------------------3---6---5---|-5---6---9---9---9---9---9---9---|-9---10--9---------------6---5---|
C#|-0--0--0--0--0--0--0--0--0---------------|---------------------------------|-------------0---5---0-----------|


D#|---------------------------------|---------------------------------|-------------------------------------------------|
A#|---------------------------------|---------------------------------|-------------------------------------------------|
F#|---------------------------------|---------------------------------|-------------------------------------------------|
C#|---------------------------------|---------------------------------|-------------------------------------------------|
G#|-5---5---4---5---7---7---5---7---|-8---8---7---8---10--10--10--10--|-------------------------------------------------|
C#|-5---5---4---5---7---7---5---7---|-8---8---7---8---10--10--10--10--|-12-12-12-12-10-10-10-10-8--8--8--8--7--7--7--7--|


D#|-------------------------------------------------|---------------------------------|
A#|-------------------------------------------------|---------------------------------|
F#|-------------------------------------------------|---------------------------------|
C#|-------------------------------------------------|---------------------------------|
G#|-------------------------------------------------|-5---5---4---5---7---7---5---7---|
C#|-10-10-10-10-8--8--8--8--7--7--7--7--4--4--4--4--|-5---5---4---5---7---7---5---7---|


D#|---------------------------------|-------------------------------------------------|
A#|---------------------------------|-------------------------------------------------|
F#|---------------------------------|-------------------------------------------------|
C#|---------------------------------|-------------------------------------------------|
G#|-8---8---7---8---10--10--10--10--|-------------------------------------------------|
C#|-8---8---7---8---10--10--10--10--|-12-12-12-12-10-10-10-10-8--8--8--8--7--7--7--7--|


D#|-----------------------------------------|-----------------------------------------------|
A#|-----------------------------------------|-----------------------------------------------|
F#|-----------------------------------------|-----------------------------------------------|
C#|-----------------------------5---8---7---|-7---------------------------------------------|
G#|-----------------------------3---6---5---|-5---------------------------------------------|
C#|-10-10-10-10-8--8--8--8--7---------------|-----0--0--0--0--0--0--0--0--0--0--0--0--0--0--|


D#|-----------------------------------------|-----------------------------------------------|
A#|-----------------------------------------|-----------------------------------------------|
F#|-----------------------------------------|-----------------------------------------------|
C#|-----------------------------5---8---7---|-7---------------------------------------------|
G#|-----------------------------3---6---5---|-5---------------------------------------------|
C#|-0--0--0--0--0--0--0--0--0---------------|-----0--0--0--0--0--0--0--0--0--0--0--0--0--0--|


D#|-----------------------------------------|-----------------------------------------------|
A#|-----------------------------------------|-----------------------------------------------|
F#|-----------------------------------------|-----------------------------------------------|
C#|-----------------------------5---8---7---|-7---------------------------------------------|
G#|-----------------------------3---6---5---|-5---------------------------------------------|
C#|-0--0--0--0--0--0--0--0--0---------------|-----0--0--0--0--0--0--0--0--0--0--0--0--0--0--|


D#|-----------------------------------------|---------------------------------|---------------------------|
A#|-----------------------------------------|---------------------------------|---------------------------|
F#|-----------------------------------------|---------------------------------|---------------------------|
C#|-----------------------------5---8---7---|-7---8---11--11--11--11--11--11--|-11--11--11--11--11--------|
G#|-----------------------------3---6---5---|-5---6---9---9---9---9---9---9---|-9---9---9---9---9---------|
C#|-0--0--0--0--0--0--0--0--0---------------|---------------------------------|---------------------------|


D#|-----------------------------------------------|-----------------------------------------------|
A#|-----------------------------------------------|-----------------------------------------------|
F#|-----------------------------------------------|-----------------------------------------------|
C#|-----------------------------------------------|-----------------------------------------------|
G#|-----------------------------------------------|-----------------------------------------------|
C#|-13-12-13-12-13-12-13-12-12--0--0--0--0--0--0--|-13-12-13-12-13-12-13-12-12--0--0--0--0--0--0--|


D#|-----------------------------------------------|-----------------------------------------------|
A#|-----------------------------------------------|-----------------------------------------------|
F#|-----------------------------------------------|-----------------------------------------------|
C#|-----------------------------------------------|-----------------------------------------------|
G#|-----------------------------------------------|-----------------------------------------------|
C#|-13-12-13-12-13-12-13-12-12--0--0--0--0--0--0--|-13-12-13-12-13-12-13-12-12--0--0--0--0--0--0--|


D#|-----------------------------------------------|-----------------------------------------------|
A#|-----------------------------------------------|-----------------------------------------------|
F#|-----------------------------------------------|-----------------------------------------------|
C#|-----------------------------------------------|-----------------------------------------------|
G#|-----------------------------------------------|-----------------------------------------------|
C#|-13-12-13-12-13-12-13-12-12--0--0--0--0--0--0--|-13-12-13-12-13-12-13-12-12--0--0--0--0--0--0--|


D#|-----------------------------------------------|-----------------------------------------------|
A#|-----------------------------------------------|-----------------------------------------------|
F#|-----------------------------------------------|-----------------------------------------------|
C#|-----------------------------------------------|-----------------------------------------------|
G#|-----------------------------------------------|-----------------------------------------------|
C#|-13-12-13-12-13-12-13-12-12--0--0--0--0--0--0--|-13-12-13-12-13-12-13-12-12--0--0--0--0--0--0--|


D#|--------|--------|--------|--------|--------|--------|--------|--------|--------|
A#|--------|--------|--------|--------|--------|--------|--------|--------|--------|
F#|--------|--------|--------|--------|--------|--------|--------|--------|--------|
C#|--------|--------|--------|--------|--------|--------|--------|--------|--------|
G#|--------|--------|--------|--------|--------|--------|--------|--------|--------|
C#|--------|--------|--------|--------|--------|--------|--------|--------|--------|


D#|--------|--------|--------|--------|--------|--------|--------|--------|--------|
A#|--------|--------|--------|--------|--------|--------|--------|--------|--------|
F#|--------|--------|--------|--------|--------|--------|--------|--------|--------|
C#|--------|--------|--------|--------|--------|--------|--------|--------|--------|
G#|--------|--------|--------|--------|--------|--------|--------|--------|--------|
C#|--------|--------|--------|--------|--------|--------|--------|--------|--------|


D#|--------|--------|--------|--------|--------|--------|--------|--------|--------|
A#|--------|--------|--------|--------|--------|--------|--------|--------|--------|
F#|--------|--------|--------|--------|--------|--------|--------|--------|--------|
C#|--------|--------|--------|--------|--------|--------|--------|--------|--------|
G#|--------|--------|--------|--------|--------|--------|--------|--------|--------|
C#|--------|--------|--------|--------|--------|--------|--------|--------|--------|


D#|---------------------------------|---------------------------------|-------------------------------------------------|
A#|---------------------------------|---------------------------------|-------------------------------------------------|
F#|---------------------------------|---------------------------------|-------------------------------------------------|
C#|---------------------------------|---------------------------------|-------------------------------------------------|
G#|-5---5---4---5---7---7---5---7---|-8---8---7---8---10--10--10--10--|-------------------------------------------------|
C#|-5---5---4---5---7---7---5---7---|-8---8---7---8---10--10--10--10--|-12-12-12-12-10-10-10-10-8--8--8--8--7--7--7--7--|


D#|-------------------------------------------------|---------------------------------|
A#|-------------------------------------------------|---------------------------------|
F#|-------------------------------------------------|---------------------------------|
C#|-------------------------------------------------|---------------------------------|
G#|-------------------------------------------------|-5---5---4---5---7---7---5---7---|
C#|-10-10-10-10-8--8--8--8--7--7--7--7--4--4--4--4--|-5---5---4---5---7---7---5---7---|


D#|---------------------------------|-------------------------------------------------|
A#|---------------------------------|-------------------------------------------------|
F#|---------------------------------|-------------------------------------------------|
C#|---------------------------------|-------------------------------------------------|
G#|-8---8---7---8---10--10--10--10--|-------------------------------------------------|
C#|-8---8---7---8---10--10--10--10--|-12-12-12-12-10-10-10-10-8--8--8--8--7--7--7--7--|


D#|-----------------------------------------|-----------------------------------------------|
A#|-----------------------------------------|-----------------------------------------------|
F#|-----------------------------------------|-----------------------------------------------|
C#|-----------------------------5---8---7---|-7---------------------------------------------|
G#|-----------------------------3---6---5---|-5---------------------------------------------|
C#|-10-10-10-10-8--8--8--8--7---------------|-----0--0--0--0--0--0--0--0--0--0--0--0--0--0--|


D#|-----------------------------------------|-----------------------------------------------|
A#|-----------------------------------------|-----------------------------------------------|
F#|-----------------------------------------|-----------------------------------------------|
C#|-----------------------------5---8---7---|-7---------------------------------------------|
G#|-----------------------------3---6---5---|-5---------------------------------------------|
C#|-0--0--0--0--0--0--0--0--0---------------|-----0--0--0--0--0--0--0--0--0--0--0--0--0--0--|


D#|-----------------------------------------|-----------------------------------------------|
A#|-----------------------------------------|-----------------------------------------------|
F#|-----------------------------------------|-----------------------------------------------|
C#|-----------------------------5---8---7---|-7---------------------------------------------|
G#|-----------------------------3---6---5---|-5---------------------------------------------|
C#|-0--0--0--0--0--0--0--0--0---------------|-----0--0--0--0--0--0--0--0--0--0--0--0--0--0--|


D#|-----------------------------------------|---------------------------------|---------------------------------|
A#|-----------------------------------------|---------------------------------|---------------------------------|
F#|-----------------------------------------|---------------------------------|---------------------------------|
C#|-----------------------------5---8---7---|-7---8---11--11--11--11--11--11--|-11--12--11--------------8---7---|
G#|-----------------------------3---6---5---|-5---6---9---9---9---9---9---9---|-9---10--9---------------6---5---|
C#|-0--0--0--0--0--0--0--0--0---------------|---------------------------------|-------------0---5---0-----------|


D#|---------------------------------|---------------------------------|---------------------------------|
A#|---------------------------------|---------------------------------|---------------------------------|
F#|---------------------------------|---------------------------------|---------------------------------|
C#|-7---------------7---------------|-----------------5---7---8---7---|-7---------------7---------------|
G#|-5---0---0---0---5---0---0---0---|-0---0---0---0---3---5---6---5---|-5---0---0---0---5---0---0---0---|
C#|-----0---0---0-------0---0---0---|-0---0---0---0-------------------|-----0---0---0-------0---0---0---|


D#|---------------------------------|---------------------------------|---------------------------------|
A#|---------------------------------|---------------------------------|---------------------------------|
F#|---------------------------------|---------------------------------|---------------------------------|
C#|---------------------5---8---7---|-7---------------7---------------|---------------------5---8---7---|
G#|-0---0---0---0---0---3---6---5---|-5---0---0---0---5---0---0---0---|-0---0---0---0---0---3---6---5---|
C#|-0---0---0---0---0---------------|-----0---0---0-------0---0---0---|-0---0---0---0---0---------------|


D#|---------------------------------|---------------------------------|-------------|
A#|---------------------------------|---------------------------------|-------------|
F#|---------------------------------|---------------------------------|-------------|
C#|-7---8---11--11--11--11--11--11--|-11--11--11--11--11--11--11------|-4-----4-----|
G#|-5---6---9---9---9---9---9---9---|-9---9---9---9---9---9---9-------|-4-----4-----|
C#|---------------------------------|-----------------------------0---|-4-----4-----|


D#|-------------|-------------|-----------------|-----------------|-----------------|
A#|-------------|-------------|-----------------|-----------------|-----------------|
F#|-------------|-------------|-----------------|-----------------|-----------------|
C#|-4-----4-----|-4-----4-----|-4-----2---1-----|-4-----2---5-----|-4-----2---1-----|
G#|-4-----4-----|-4-----4-----|-4-----2---1-----|-4-----2---5-----|-4-----2---1-----|
C#|-4-----4-----|-4-----4-----|-4-----2---1-----|-4-----2---5-----|-4-----2---1-----|


D#|-----------------|------------------------------|----------------------|--------|
A#|-----------------|------------------------------|----------------------|--------|
F#|-----------------|------------------------------|----------------------|--------|
C#|-4-----2---5-----|-4------------5---7---8---7---|-7--------------------|--------|
G#|-4-----2---5-----|-4----4---4---3---5---6---5---|-5--------------------|--------|
C#|-4-----2---5-----|-4----4---4-------------------|-----0--0--0----------|--------|





Track 2: Clean 1

D#|--------|--------|--------|--------|--------|--------|--------|--------|--------|
A#|--------|--------|--------|--------|--------|--------|--------|--------|--------|
F#|--------|--------|--------|--------|--------|--------|--------|--------|--------|
C#|--------|--------|--------|--------|--------|--------|--------|--------|--------|
G#|--------|--------|--------|--------|--------|--------|--------|--------|--------|
C#|--------|--------|--------|--------|--------|--------|--------|--------|--------|


D#|--------|--------|--------|-8----8---6---6-----|-6-----6----8----|-5------|-5------|
A#|--------|--------|--------|-10---10--8---8-----|-8-----8----10---|-7------|-7------|
F#|--------|--------|--------|--------------------|-----------------|--------|--------|
C#|--------|--------|--------|--------------------|-----------------|--------|--------|
G#|--------|--------|--------|--------------------|-----------------|--------|--------|
C#|--------|--------|--------|--------------------|-----------------|--------|--------|


D#|-8----8---6---6-----|-6-----10---8----|-5------|-5-----6-----|-8------|-10----11----|
A#|-10---10--8---8-----|-8-----11---10---|-7------|-7-----8-----|-10-----|-11----11----|
F#|--------------------|-----------------|--------|-------------|--------|-------------|
C#|--------------------|-----------------|--------|-------------|--------|-------------|
G#|--------------------|-----------------|--------|-------------|--------|-------------|
C#|--------------------|-----------------|--------|-------------|--------|-------------|


D#|-6------|-8-----10----|-5---6---5---6---5---6---5---6---|-5---6---6---6---6---6---6---6---|
A#|-8------|-10----11----|-7-------------------------------|-----7---7---7---7---7---7---7---|
F#|--------|-------------|---------------------------------|---------------------------------|
C#|--------|-------------|---------------------------------|---------------------------------|
G#|--------|-------------|---------------------------------|---------------------------------|
C#|--------|-------------|---------------------------------|---------------------------------|


D#|--------|--------|--------|--------|--------|--------|--------|--------|--------|
A#|--------|--------|--------|--------|--------|--------|--------|--------|--------|
F#|--------|--------|--------|--------|--------|--------|--------|--------|--------|
C#|--------|--------|--------|--------|--------|--------|--------|--------|--------|
G#|--------|--------|--------|--------|--------|--------|--------|--------|--------|
C#|--------|--------|--------|--------|--------|--------|--------|--------|--------|


D#|--------|--------|--------|--------|--------|--------|--------|--------|--------|
A#|--------|--------|--------|--------|--------|--------|--------|--------|--------|
F#|--------|--------|--------|--------|--------|--------|--------|--------|--------|
C#|--------|--------|--------|--------|--------|--------|--------|--------|--------|
G#|--------|--------|--------|--------|--------|--------|--------|--------|--------|
C#|--------|--------|--------|--------|--------|--------|--------|--------|--------|


D#|--------|--------|--------|--------|--------|--------|--------|--------|--------|
A#|--------|--------|--------|--------|--------|--------|--------|--------|--------|
F#|--------|--------|--------|--------|--------|--------|--------|--------|--------|
C#|--------|--------|--------|--------|--------|--------|--------|--------|--------|
G#|--------|--------|--------|--------|--------|--------|--------|--------|--------|
C#|--------|--------|--------|--------|--------|--------|--------|--------|--------|


D#|--------|--------|--------|--------|--------|--------|--------|--------|--------|
A#|--------|--------|--------|--------|--------|--------|--------|--------|--------|
F#|--------|--------|--------|--------|--------|--------|--------|--------|--------|
C#|--------|--------|--------|--------|--------|--------|--------|--------|--------|
G#|--------|--------|--------|--------|--------|--------|--------|--------|--------|
C#|--------|--------|--------|--------|--------|--------|--------|--------|--------|


D#|--------|--------|--------|--------|-8----8---6---6-----|-6-----6----8----|-5------|
A#|--------|--------|--------|--------|-10---10--8---8-----|-8-----8----10---|-7------|
F#|--------|--------|--------|--------|--------------------|-----------------|--------|
C#|--------|--------|--------|--------|--------------------|-----------------|--------|
G#|--------|--------|--------|--------|--------------------|-----------------|--------|
C#|--------|--------|--------|--------|--------------------|-----------------|--------|


D#|-5------|-8----8---6---6-----|-6-----10---8----|-5------|-5-----6-----|-8------|
A#|-7------|-10---10--8---8-----|-8-----11---10---|-7------|-7-----8-----|-10-----|
F#|--------|--------------------|-----------------|--------|-------------|--------|
C#|--------|--------------------|-----------------|--------|-------------|--------|
G#|--------|--------------------|-----------------|--------|-------------|--------|
C#|--------|--------------------|-----------------|--------|-------------|--------|


D#|-10----11----|-6------|-8-----10----|-5---6---5------|-8----8---6---6-----|-6-----6----8----|
A#|-11----11----|-8------|-10----11----|-7--------------|-10---10--8---8-----|-8-----8----10---|
F#|-------------|--------|-------------|----------------|--------------------|-----------------|
C#|-------------|--------|-------------|----------------|--------------------|-----------------|
G#|-------------|--------|-------------|----------------|--------------------|-----------------|
C#|-------------|--------|-------------|----------------|--------------------|-----------------|


D#|-5------|-5------|-8----8---6---6-----|-6-----10---8----|-5------|-5-----6-----|
A#|-7------|-7------|-10---10--8---8-----|-8-----11---10---|-7------|-7-----8-----|
F#|--------|--------|--------------------|-----------------|--------|-------------|
C#|--------|--------|--------------------|-----------------|--------|-------------|
G#|--------|--------|--------------------|-----------------|--------|-------------|
C#|--------|--------|--------------------|-----------------|--------|-------------|


D#|-8------|-10----11----|-6------|-8-----10----|-5---6---5---6---5---6---5---6---|
A#|-10-----|-11----11----|-8------|-10----11----|-7---7---7---7---7---7---7---7---|
F#|--------|-------------|--------|-------------|---------------------------------|
C#|--------|-------------|--------|-------------|---------------------------------|
G#|--------|-------------|--------|-------------|---------------------------------|
C#|--------|-------------|--------|-------------|---------------------------------|


D#|-5---5---5---5---5---5---5---5---|--------|--------|--------|--------|--------|
A#|-7---7---7---7---7---7---7---7---|--------|--------|--------|--------|--------|
F#|---------------------------------|--------|--------|--------|--------|--------|
C#|---------------------------------|--------|--------|--------|--------|--------|
G#|---------------------------------|--------|--------|--------|--------|--------|
C#|---------------------------------|--------|--------|--------|--------|--------|


D#|--------|--------|--------|--------|--------|--------|--------|--------|--------|
A#|--------|--------|--------|--------|--------|--------|--------|--------|--------|
F#|--------|--------|--------|--------|--------|--------|--------|--------|--------|
C#|--------|--------|--------|--------|--------|--------|--------|--------|--------|
G#|--------|--------|--------|--------|--------|--------|--------|--------|--------|
C#|--------|--------|--------|--------|--------|--------|--------|--------|--------|


D#|--------|--------|--------|--------|--------|--------|--------|--------|--------|
A#|--------|--------|--------|--------|--------|--------|--------|--------|--------|
F#|--------|--------|--------|--------|--------|--------|--------|--------|--------|
C#|--------|--------|--------|--------|--------|--------|--------|--------|--------|
G#|--------|--------|--------|--------|--------|--------|--------|--------|--------|
C#|--------|--------|--------|--------|--------|--------|--------|--------|--------|


D#|--------|--------|--------|--------|--------|--------|--------|--------|--------|
A#|--------|--------|--------|--------|--------|--------|--------|--------|--------|
F#|--------|--------|--------|--------|--------|--------|--------|--------|--------|
C#|--------|--------|--------|--------|--------|--------|--------|--------|--------|
G#|--------|--------|--------|--------|--------|--------|--------|--------|--------|
C#|--------|--------|--------|--------|--------|--------|--------|--------|--------|


D#|--------|--------|
A#|--------|--------|
F#|--------|--------|
C#|--------|--------|
G#|--------|--------|
C#|--------|--------|





Track 3: Clean 2

D#|--------|--------|--------|--------|--------|--------|--------|--------|--------|
A#|--------|--------|--------|--------|--------|--------|--------|--------|--------|
F#|--------|--------|--------|--------|--------|--------|--------|--------|--------|
C#|--------|--------|--------|--------|--------|--------|--------|--------|--------|
G#|--------|--------|--------|--------|--------|--------|--------|--------|--------|
C#|--------|--------|--------|--------|--------|--------|--------|--------|--------|


D#|--------|--------|--------|---------------------------------|---------------------------------|
A#|--------|--------|--------|---------------------------------|---------------------------------|
F#|--------|--------|--------|---------------------------------|---------------------------------|
C#|--------|--------|--------|---------------------------------|---------------------------------|
G#|--------|--------|--------|---------------------------------|---------------------------------|
C#|--------|--------|--------|-12--12--12--12--12--12--12--12--|-12--12--12--12--12--12--12--12--|


D#|---------------------------------|---------------------------------|---------------------------------|
A#|---------------------------------|---------------------------------|---------------------------------|
F#|---------------------------------|---------------------------------|---------------------------------|
C#|---------------------------------|---------------------------------|---------------------------------|
G#|---------------------------------|---------------------------------|---------------------------------|
C#|-12--12--12--12--12--12--12--12--|-12--12--12--12--12--12--12--12--|-12--12--12--12--12--12--12--12--|


D#|---------------------------------|---------------------------------|---------------------------------|
A#|---------------------------------|---------------------------------|---------------------------------|
F#|---------------------------------|---------------------------------|---------------------------------|
C#|---------------------------------|---------------------------------|---------------------------------|
G#|---------------------------------|---------------------------------|---------------------------------|
C#|-12--12--12--12--12--12--12--12--|-12--12--12--12--12--12--12--12--|-12--12--12--12--12--12--12--12--|


D#|---------------------------------|---------------------------------|---------------------------------|
A#|---------------------------------|---------------------------------|---------------------------------|
F#|---------------------------------|---------------------------------|---------------------------------|
C#|---------------------------------|---------------------------------|---------------------------------|
G#|---------------------------------|---------------------------------|---------------------------------|
C#|-12--12--12--12--12--12--12--12--|-12--12--12--12--12--12--12--12--|-12--12--12--12--12--12--12--12--|


D#|---------------------------------|---------------------------------|---------------------------------|
A#|---------------------------------|---------------------------------|---------------------------------|
F#|---------------------------------|---------------------------------|---------------------------------|
C#|---------------------------------|---------------------------------|---------------------------------|
G#|---------------------------------|---------------------------------|---------------------------------|
C#|-12--12--12--12--12--12--12--12--|-12--12--12--12--12--12--12--12--|-12--12--12--12--12--12--12--12--|


D#|--------|--------|--------|--------|--------|--------|--------|--------|--------|
A#|--------|--------|--------|--------|--------|--------|--------|--------|--------|
F#|--------|--------|--------|--------|--------|--------|--------|--------|--------|
C#|--------|--------|--------|--------|--------|--------|--------|--------|--------|
G#|--------|--------|--------|--------|--------|--------|--------|--------|--------|
C#|--------|--------|--------|--------|--------|--------|--------|--------|--------|


D#|--------|--------|--------|--------|--------|--------|--------|--------|--------|
A#|--------|--------|--------|--------|--------|--------|--------|--------|--------|
F#|--------|--------|--------|--------|--------|--------|--------|--------|--------|
C#|--------|--------|--------|--------|--------|--------|--------|--------|--------|
G#|--------|--------|--------|--------|--------|--------|--------|--------|--------|
C#|--------|--------|--------|--------|--------|--------|--------|--------|--------|


D#|--------|--------|--------|--------|--------|--------|--------|--------|--------|
A#|--------|--------|--------|--------|--------|--------|--------|--------|--------|
F#|--------|--------|--------|--------|--------|--------|--------|--------|--------|
C#|--------|--------|--------|--------|--------|--------|--------|--------|--------|
G#|--------|--------|--------|--------|--------|--------|--------|--------|--------|
C#|--------|--------|--------|--------|--------|--------|--------|--------|--------|


D#|--------|--------|--------|--------|--------|--------|--------|--------|--------|
A#|--------|--------|--------|--------|--------|--------|--------|--------|--------|
F#|--------|--------|--------|--------|--------|--------|--------|--------|--------|
C#|--------|--------|--------|--------|--------|--------|--------|--------|--------|
G#|--------|--------|--------|--------|--------|--------|--------|--------|--------|
C#|--------|--------|--------|--------|--------|--------|--------|--------|--------|


D#|--------|--------|--------|--------|---------------------------------|---------------------------------|
A#|--------|--------|--------|--------|---------------------------------|---------------------------------|
F#|--------|--------|--------|--------|---------------------------------|---------------------------------|
C#|--------|--------|--------|--------|---------------------------------|---------------------------------|
G#|--------|--------|--------|--------|---------------------------------|---------------------------------|
C#|--------|--------|--------|--------|-12--12--12--12--12--12--12--12--|-12--12--12--12--12--12--12--12--|


D#|---------------------------------|---------------------------------|---------------------------------|
A#|---------------------------------|---------------------------------|---------------------------------|
F#|---------------------------------|---------------------------------|---------------------------------|
C#|---------------------------------|---------------------------------|---------------------------------|
G#|---------------------------------|---------------------------------|---------------------------------|
C#|-12--12--12--12--12--12--12--12--|-12--12--12--12--12--12--12--12--|-12--12--12--12--12--12--12--12--|


D#|---------------------------------|---------------------------------|---------------------------------|
A#|---------------------------------|---------------------------------|---------------------------------|
F#|---------------------------------|---------------------------------|---------------------------------|
C#|---------------------------------|---------------------------------|---------------------------------|
G#|---------------------------------|---------------------------------|---------------------------------|
C#|-12--12--12--12--12--12--12--12--|-12--12--12--12--12--12--12--12--|-12--12--12--12--12--12--12--12--|


D#|---------------------------------|---------------------------------|---------------------------------|
A#|---------------------------------|---------------------------------|---------------------------------|
F#|---------------------------------|---------------------------------|---------------------------------|
C#|---------------------------------|---------------------------------|---------------------------------|
G#|---------------------------------|---------------------------------|---------------------------------|
C#|-12--12--12--12--12--12--12--12--|-12--12--12--12--12--12--12--12--|-12--12--12--12--12--12--12--12--|


D#|---------------------------------|---------------------------------|---------------------------------|
A#|---------------------------------|---------------------------------|---------------------------------|
F#|---------------------------------|---------------------------------|---------------------------------|
C#|---------------------------------|---------------------------------|---------------------------------|
G#|---------------------------------|---------------------------------|---------------------------------|
C#|-12--12--12--12--12--12--12--12--|-12--12--12--12--12--12--12--12--|-12--12--12--12--12--12--12--12--|


D#|---------------------------------|---------------------------------|---------------------------------|
A#|---------------------------------|---------------------------------|---------------------------------|
F#|---------------------------------|---------------------------------|---------------------------------|
C#|---------------------------------|---------------------------------|---------------------------------|
G#|---------------------------------|---------------------------------|---------------------------------|
C#|-12--12--12--12--12--12--12--12--|-12--12--12--12--12--12--12--12--|-12--12--12--12--12--12--12--12--|


D#|---------------------------------|---------------------------------|---------------------------------|
A#|---------------------------------|---------------------------------|---------------------------------|
F#|---------------------------------|---------------------------------|---------------------------------|
C#|---------------------------------|---------------------------------|---------------------------------|
G#|---------------------------------|---------------------------------|---------------------------------|
C#|-12--12--12--12--12--12--12--12--|-12--12--12--12--12--12--12--12--|-12--12--12--12--12--12--12--12--|


D#|---------------------------------|---------------------------------|---------------------------------|
A#|---------------------------------|---------------------------------|---------------------------------|
F#|---------------------------------|---------------------------------|---------------------------------|
C#|---------------------------------|---------------------------------|---------------------------------|
G#|---------------------------------|---------------------------------|---------------------------------|
C#|-12--12--12--12--12--12--12--12--|-12--12--12--12--12--12--12--12--|-12--12--12--12--12--12--12--12--|


D#|---------------------------------|---------------------------------|---------------------------------|
A#|---------------------------------|---------------------------------|---------------------------------|
F#|---------------------------------|---------------------------------|---------------------------------|
C#|---------------------------------|---------------------------------|---------------------------------|
G#|---------------------------------|---------------------------------|---------------------------------|
C#|-12--12--12--12--12--12--12--12--|-12--12--12--12--12--12--12--12--|-12--12--12--12--12--12--12--12--|


D#|---------------------------------|--------|--------|--------|--------|--------|
A#|---------------------------------|--------|--------|--------|--------|--------|
F#|---------------------------------|--------|--------|--------|--------|--------|
C#|---------------------------------|--------|--------|--------|--------|--------|
G#|---------------------------------|--------|--------|--------|--------|--------|
C#|-12--12--12--12--12--12--12--12--|--------|--------|--------|--------|--------|


D#|--------|--------|--------|--------|--------|--------|--------|--------|--------|
A#|--------|--------|--------|--------|--------|--------|--------|--------|--------|
F#|--------|--------|--------|--------|--------|--------|--------|--------|--------|
C#|--------|--------|--------|--------|--------|--------|--------|--------|--------|
G#|--------|--------|--------|--------|--------|--------|--------|--------|--------|
C#|--------|--------|--------|--------|--------|--------|--------|--------|--------|


D#|--------|--------|--------|--------|--------|--------|--------|--------|--------|
A#|--------|--------|--------|--------|--------|--------|--------|--------|--------|
F#|--------|--------|--------|--------|--------|--------|--------|--------|--------|
C#|--------|--------|--------|--------|--------|--------|--------|--------|--------|
G#|--------|--------|--------|--------|--------|--------|--------|--------|--------|
C#|--------|--------|--------|--------|--------|--------|--------|--------|--------|


D#|--------|--------|--------|--------|--------|--------|--------|--------|--------|
A#|--------|--------|--------|--------|--------|--------|--------|--------|--------|
F#|--------|--------|--------|--------|--------|--------|--------|--------|--------|
C#|--------|--------|--------|--------|--------|--------|--------|--------|--------|
G#|--------|--------|--------|--------|--------|--------|--------|--------|--------|
C#|--------|--------|--------|--------|--------|--------|--------|--------|--------|


D#|--------|--------|
A#|--------|--------|
F#|--------|--------|
C#|--------|--------|
G#|--------|--------|
C#|--------|--------|





Track 4: Clean 3

D#|--------|--------|--------|--------|--------|--------|--------|--------|--------|
A#|--------|--------|--------|--------|--------|--------|--------|--------|--------|
F#|--------|--------|--------|--------|--------|--------|--------|--------|--------|
C#|--------|--------|--------|--------|--------|--------|--------|--------|--------|
G#|--------|--------|--------|--------|--------|--------|--------|--------|--------|
C#|--------|--------|--------|--------|--------|--------|--------|--------|--------|


D#|--------|--------|--------|--------|--------|--------|--------|--------|--------|
A#|--------|--------|--------|--------|--------|--------|--------|--------|--------|
F#|--------|--------|--------|--------|--------|--------|--------|--------|--------|
C#|--------|--------|--------|--------|--------|--------|--------|--------|--------|
G#|--------|--------|--------|--------|--------|--------|--------|--------|--------|
C#|--------|--------|--------|--------|--------|--------|--------|--------|--------|


D#|--------|--------|--------|--------|--------|--------|--------|--------|--------|
A#|--------|--------|--------|--------|--------|--------|--------|--------|--------|
F#|--------|--------|--------|--------|--------|--------|--------|--------|--------|
C#|--------|--------|--------|--------|--------|--------|--------|--------|--------|
G#|--------|--------|--------|--------|--------|--------|--------|--------|--------|
C#|--------|--------|--------|--------|--------|--------|--------|--------|--------|


D#|--------|--------|--------|--------|--------|--------|--------|--------|--------|
A#|--------|--------|--------|--------|--------|--------|--------|--------|--------|
F#|--------|--------|--------|--------|--------|--------|--------|--------|--------|
C#|--------|--------|--------|--------|--------|--------|--------|--------|--------|
G#|--------|--------|--------|--------|--------|--------|--------|--------|--------|
C#|--------|--------|--------|--------|--------|--------|--------|--------|--------|


D#|--------|--------|--------|--------|--------|--------|--------|--------|--------|
A#|--------|--------|--------|--------|--------|--------|--------|--------|--------|
F#|--------|--------|--------|--------|--------|--------|--------|--------|--------|
C#|--------|--------|--------|--------|--------|--------|--------|--------|--------|
G#|--------|--------|--------|--------|--------|--------|--------|--------|--------|
C#|--------|--------|--------|--------|--------|--------|--------|--------|--------|


D#|--------|--------|--------|--------|--------|--------|--------|--------|--------|
A#|--------|--------|--------|--------|--------|--------|--------|--------|--------|
F#|--------|--------|--------|--------|--------|--------|--------|--------|--------|
C#|--------|--------|--------|--------|--------|--------|--------|--------|--------|
G#|--------|--------|--------|--------|--------|--------|--------|--------|--------|
C#|--------|--------|--------|--------|--------|--------|--------|--------|--------|


D#|--------|--------|--------|--------|--------|--------|--------|--------|--------|
A#|--------|--------|--------|--------|--------|--------|--------|--------|--------|
F#|--------|--------|--------|--------|--------|--------|--------|--------|--------|
C#|--------|--------|--------|--------|--------|--------|--------|--------|--------|
G#|--------|--------|--------|--------|--------|--------|--------|--------|--------|
C#|--------|--------|--------|--------|--------|--------|--------|--------|--------|


D#|--------|--------|--------|--------|--------|--------|--------|--------|--------|
A#|--------|--------|--------|--------|--------|--------|--------|--------|--------|
F#|--------|--------|--------|--------|--------|--------|--------|--------|--------|
C#|--------|--------|--------|--------|--------|--------|--------|--------|--------|
G#|--------|--------|--------|--------|--------|--------|--------|--------|--------|
C#|--------|--------|--------|--------|--------|--------|--------|--------|--------|


D#|--------|--------|--------|--------|--------|--------|--------|--------|-18--18--18--18--18--18--18--18--|
A#|--------|--------|--------|--------|--------|--------|--------|--------|-20--20--20--20--20--20--20--20--|
F#|--------|--------|--------|--------|--------|--------|--------|--------|---------------------------------|
C#|--------|--------|--------|--------|--------|--------|--------|--------|---------------------------------|
G#|--------|--------|--------|--------|--------|--------|--------|--------|---------------------------------|
C#|--------|--------|--------|--------|--------|--------|--------|--------|---------------------------------|


D#|--------17--17--|-17--17--17--17--17--17--17--17--|-----------18--18--18--|-18--18--18--18--18--18--18--18--|
A#|--------19--19--|-19--19--19--19--19--19--19--19--|-----------20--20--20--|-20--20--20--20--20--20--20--20--|
F#|----------------|---------------------------------|-----------------------|---------------------------------|
C#|----------------|---------------------------------|-----------------------|---------------------------------|
G#|----------------|---------------------------------|-----------------------|---------------------------------|
C#|----------------|---------------------------------|-----------------------|---------------------------------|


D#|--------17--17--|-17--17--17--17--17--17--17--17--|-17--17--17--17--17--17--17--17--|
A#|--------19--19--|-19--19--19--19--19--19--19--19--|-19--19--19--19--19--19--19--19--|
F#|----------------|---------------------------------|---------------------------------|
C#|----------------|---------------------------------|---------------------------------|
G#|----------------|---------------------------------|---------------------------------|
C#|----------------|---------------------------------|---------------------------------|


D#|-17--17--17--17--17--17--17--17--|-18--18--18--18--18--18--18--18--|-18--18--18--18--18--18--18--18--|
A#|-19--19--19--19--19--19--19--19--|-20--20--20--20--20--20--20--20--|-20--20--20--20--20--20--20--20--|
F#|---------------------------------|---------------------------------|---------------------------------|
C#|---------------------------------|---------------------------------|---------------------------------|
G#|---------------------------------|---------------------------------|---------------------------------|
C#|---------------------------------|---------------------------------|---------------------------------|


D#|-18--18--18--18--18--18--18--18--|-18--18--18--18--18--18--18--18--|--------|--------|
A#|-20--20--20--20--20--20--20--20--|-20--20--20--20--20--20--20--20--|--------|--------|
F#|---------------------------------|---------------------------------|--------|--------|
C#|---------------------------------|---------------------------------|--------|--------|
G#|---------------------------------|---------------------------------|--------|--------|
C#|---------------------------------|---------------------------------|--------|--------|


D#|--------|--------|--------|--------|--------|--------|--------|--------|--------|
A#|--------|--------|--------|--------|--------|--------|--------|--------|--------|
F#|--------|--------|--------|--------|--------|--------|--------|--------|--------|
C#|--------|--------|--------|--------|--------|--------|--------|--------|--------|
G#|--------|--------|--------|--------|--------|--------|--------|--------|--------|
C#|--------|--------|--------|--------|--------|--------|--------|--------|--------|


D#|--------|--------|--------|--------|--------|--------|--------|--------|--------|
A#|--------|--------|--------|--------|--------|--------|--------|--------|--------|
F#|--------|--------|--------|--------|--------|--------|--------|--------|--------|
C#|--------|--------|--------|--------|--------|--------|--------|--------|--------|
G#|--------|--------|--------|--------|--------|--------|--------|--------|--------|
C#|--------|--------|--------|--------|--------|--------|--------|--------|--------|


D#|--------|--------|--------|--------|--------|--------|--------|--------|--------|
A#|--------|--------|--------|--------|--------|--------|--------|--------|--------|
F#|--------|--------|--------|--------|--------|--------|--------|--------|--------|
C#|--------|--------|--------|--------|--------|--------|--------|--------|--------|
G#|--------|--------|--------|--------|--------|--------|--------|--------|--------|
C#|--------|--------|--------|--------|--------|--------|--------|--------|--------|


D#|--------|--------|--------|--------|--------|
A#|--------|--------|--------|--------|--------|
F#|--------|--------|--------|--------|--------|
C#|--------|--------|--------|--------|--------|
G#|--------|--------|--------|--------|--------|
C#|--------|--------|--------|--------|--------|





Track 5: Bass

F#|--------|--------|--------|--------|-----------------------------------------------|
C#|--------|--------|--------|--------|-----------------------------------------------|
G#|--------|--------|--------|--------|-----------------------------------------------|
C#|--------|--------|--------|--------|-13-12-13-12-13-12-13-12-12--0--0--0--0--0--0--|


F#|-----------------------------------------------|-----------------------------------------------|
C#|-----------------------------------------------|-----------------------------------------------|
G#|-----------------------------------------------|-----------------------------------------------|
C#|-13-12-13-12-13-12-13-12-12--0--0--0--0--0--0--|-13-12-13-12-13-12-13-12-12--0--0--0--0--0--0--|


F#|-----------------------------------------------|-----------------------------------------------|
C#|-----------------------------------------------|-----------------------------------------------|
G#|-----------------------------------------------|-----------------------------------------------|
C#|-13-12-13-12-13-12-13-12-12--0--0--0--0--0--0--|-13-12-13-12-13-12-13-12-12--0--0--0--0--0--0--|


F#|-----------------------------------------------|-----------------------------------------------|
C#|-----------------------------------------------|-----------------------------------------------|
G#|-----------------------------------------------|-----------------------------------------------|
C#|-13-12-13-12-13-12-13-12-12--0--0--0--0--0--0--|-13-12-13-12-13-12-13-12-12--0--0--0--0--0--0--|


F#|-----------------------------------------------|---------------------------------|
C#|-----------------------------------------------|-12--12--12--12--12--12--12--12--|
G#|-----------------------------------------------|---------------------------------|
C#|-13-12-13-12-13-12-13-12-12--0--0--0--0--0--0--|---------------------------------|


F#|---------------------------------|---------------------------------|---------------------------------|
C#|-12--12--12--12--12--12--12--12--|-12--12--12--12--12--12--12--12--|-12--12--12--12--12--12--12--12--|
G#|---------------------------------|---------------------------------|---------------------------------|
C#|---------------------------------|---------------------------------|---------------------------------|


F#|---------------------------------|---------------------------------|---------------------------------|
C#|-12--12--12--12--12--12--12--12--|-12--12--12--12--12--12--12--12--|-12--12--12--12--12--12--12--12--|
G#|---------------------------------|---------------------------------|---------------------------------|
C#|---------------------------------|---------------------------------|---------------------------------|


F#|---------------------------------|---------------------------------|---------------------------------|
C#|-12--12--12--12--12--12--12--12--|-12--12--12--12--12--12--12--12--|-12--12--12--12--12--12--12--12--|
G#|---------------------------------|---------------------------------|---------------------------------|
C#|---------------------------------|---------------------------------|---------------------------------|


F#|---------------------------------|---------------------------------|---------------------------------|
C#|-12--12--12--12--12--12--12--12--|-12--12--12--12--12--12--12--12--|-12--12--12--12--12--12--12--12--|
G#|---------------------------------|---------------------------------|---------------------------------|
C#|---------------------------------|---------------------------------|---------------------------------|


F#|---------------------------------|---------------------------------|---------------------------------|
C#|-12--12--12--12--12--12--12--12--|---------------------------------|---------------------------------|
G#|---------------------------------|---------------------------------|---------------------------------|
C#|---------------------------------|-5---5---4---5---7---7---5---7---|-8---8---7---8---10--10--10--10--|


F#|-------------------------------------------------|-------------------------------------------------|
C#|-------------------------------------------------|-------------------------------------------------|
G#|-------------------------------------------------|-------------------------------------------------|
C#|-12-12-12-12-10-10-10-10-8--8--8--8--7--7--7--7--|-10-10-10-10-8--8--8--8--7--7--7--7--4--4--4--4--|


F#|---------------------------------|---------------------------------|-------------------------------------------------|
C#|---------------------------------|---------------------------------|-------------------------------------------------|
G#|---------------------------------|---------------------------------|-------------------------------------------------|
C#|-5---5---4---5---7---7---5---7---|-8---8---7---8---10--10--10--10--|-12-12-12-12-10-10-10-10-8--8--8--8--7--7--7--7--|


F#|-----------------------------------------|-----------------------------------------------|
C#|-----------------------------------------|-----------------------------------------------|
G#|-----------------------------3---6---5---|-5---------------------------------------------|
C#|-10-10-10-10-8--8--8--8--7---------------|-----0--0--0--0--0--0--0--0--0--0--0--0--0--0--|


F#|-----------------------------------------|-----------------------------------------------|
C#|-----------------------------------------|-----------------------------------------------|
G#|-----------------------------3---6---5---|-5---------------------------------------------|
C#|-0--0--0--0--0--0--0--0--0---------------|-----0--0--0--0--0--0--0--0--0--0--0--0--0--0--|


F#|-----------------------------------------|-----------------------------------------------|
C#|-----------------------------------------|-----------------------------------------------|
G#|-----------------------------3---6---5---|-5---------------------------------------------|
C#|-0--0--0--0--0--0--0--0--0---------------|-----0--0--0--0--0--0--0--0--0--0--0--0--0--0--|


F#|-----------------------------------------|---------------------------------|------------------------------|
C#|-----------------------------------------|---------------------------------|------------------------------|
G#|-----------------------------3---6---5---|-5---6---9---9---9---9---9---9---|-9---10--9---9-----------6----|
C#|-0--0--0--0--0--0--0--0--0---------------|---------------------------------|-----------------0---0--------|


F#|---------------------------------|---------------------------------|-------------------------------------------------|
C#|---------------------------------|---------------------------------|-------------------------------------------------|
G#|---------------------------------|---------------------------------|-------------------------------------------------|
C#|-5---5---4---5---7---7---5---7---|-8---8---7---8---10--10--10--10--|-12-12-12-12-10-10-10-10-8--8--8--8--7--7--7--7--|


F#|-------------------------------------------------|---------------------------------|
C#|-------------------------------------------------|---------------------------------|
G#|-------------------------------------------------|---------------------------------|
C#|-10-10-10-10-8--8--8--8--7--7--7--7--4--4--4--4--|-5---5---4---5---7---7---5---7---|


F#|---------------------------------|-------------------------------------------------|
C#|---------------------------------|-------------------------------------------------|
G#|---------------------------------|-------------------------------------------------|
C#|-8---8---7---8---10--10--10--10--|-12-12-12-12-10-10-10-10-8--8--8--8--7--7--7--7--|


F#|-----------------------------------------|-----------------------------------------------|
C#|-----------------------------------------|-----------------------------------------------|
G#|-----------------------------3---6---5---|-5---------------------------------------------|
C#|-10-10-10-10-8--8--8--8--7---------------|-----0--0--0--0--0--0--0--0--0--0--0--0--0--0--|


F#|-----------------------------------------|-----------------------------------------------|
C#|-----------------------------------------|-----------------------------------------------|
G#|-----------------------------3---6---5---|-5---------------------------------------------|
C#|-0--0--0--0--0--0--0--0--0---------------|-----0--0--0--0--0--0--0--0--0--0--0--0--0--0--|


F#|-----------------------------------------|-----------------------------------------------|
C#|-----------------------------------------|-----------------------------------------------|
G#|-----------------------------3---6---5---|-5---------------------------------------------|
C#|-0--0--0--0--0--0--0--0--0---------------|-----0--0--0--0--0--0--0--0--0--0--0--0--0--0--|


F#|-----------------------------------------|---------------------------------|---------------------------|
C#|-----------------------------------------|---------------------------------|---------------------------|
G#|-----------------------------3---6---5---|-5---6---9---9---9---9---9---9---|-9---9---9---9---9---------|
C#|-0--0--0--0--0--0--0--0--0---------------|---------------------------------|---------------------------|


F#|-----------------------------------------------|-----------------------------------------------|
C#|-----------------------------------------------|-----------------------------------------------|
G#|-----------------------------------------------|-----------------------------------------------|
C#|-13-12-13-12-13-12-13-12-12--0--0--0--0--0--0--|-13-12-13-12-13-12-13-12-12--0--0--0--0--0--0--|


F#|-----------------------------------------------|-----------------------------------------------|
C#|-----------------------------------------------|-----------------------------------------------|
G#|-----------------------------------------------|-----------------------------------------------|
C#|-13-12-13-12-13-12-13-12-12--0--0--0--0--0--0--|-13-12-13-12-13-12-13-12-12--0--0--0--0--0--0--|


F#|-----------------------------------------------|-----------------------------------------------|
C#|-----------------------------------------------|-----------------------------------------------|
G#|-----------------------------------------------|-----------------------------------------------|
C#|-13-12-13-12-13-12-13-12-12--0--0--0--0--0--0--|-13-12-13-12-13-12-13-12-12--0--0--0--0--0--0--|


F#|-----------------------------------------------|-----------------------------------------------|
C#|-----------------------------------------------|-----------------------------------------------|
G#|-----------------------------------------------|-----------------------------------------------|
C#|-13-12-13-12-13-12-13-12-12--0--0--0--0--0--0--|-13-12-13-12-13-12-13-12-12--0--0--0--0--0--0--|


F#|---------------------------------|---------------------------------|---------------------------------|
C#|-12--12--12--12--12--12--12--12--|-12--12--12--12--12--12--12--12--|-12--12--12--12--12--12--12--12--|
G#|---------------------------------|---------------------------------|---------------------------------|
C#|---------------------------------|---------------------------------|---------------------------------|


F#|---------------------------------|---------------------------------|---------------------------------|
C#|-12--12--12--12--12--12--12--12--|-12--12--12--12--12--12--12--12--|-12--12--12--12--12--12--12--12--|
G#|---------------------------------|---------------------------------|---------------------------------|
C#|---------------------------------|---------------------------------|---------------------------------|


F#|---------------------------------|---------------------------------|---------------------------------|
C#|-12--12--12--12--12--12--12--12--|-12--12--12--12--12--12--12--12--|-12--12--12--12--12--12--12--12--|
G#|---------------------------------|---------------------------------|---------------------------------|
C#|---------------------------------|---------------------------------|---------------------------------|


F#|---------------------------------|---------------------------------|---------------------------------|
C#|-12--12--12--12--12--12--12--12--|-12--12--12--12--12--12--12--12--|-12--12--12--12--12--12--12--12--|
G#|---------------------------------|---------------------------------|---------------------------------|
C#|---------------------------------|---------------------------------|---------------------------------|


F#|---------------------------------|---------------------------------|---------------------------------|
C#|-12--12--12--12--12--12--12--12--|-12--12--12--12--12--12--12--12--|-12--12--12--12--12--12--12--12--|
G#|---------------------------------|---------------------------------|---------------------------------|
C#|---------------------------------|---------------------------------|---------------------------------|


F#|---------------------------------|---------------------------------|---------------------------------|
C#|-12--12--12--12--12--12--12--12--|-12--12--12--12--12--12--12--12--|-12--12--12--12--12--12--12--12--|
G#|---------------------------------|---------------------------------|---------------------------------|
C#|---------------------------------|---------------------------------|---------------------------------|


F#|---------------------------------|---------------------------------|---------------------------------|
C#|-12--12--12--12--12--12--12--12--|-12--12--12--12--12--12--12--12--|-12--12--12--12--12--12--12--12--|
G#|---------------------------------|---------------------------------|---------------------------------|
C#|---------------------------------|---------------------------------|---------------------------------|


F#|---------------------------------|---------------------------------|---------------------------------|
C#|-12--12--12--12--12--12--12--12--|-12--12--12--12--12--12--12--12--|-12--12--12--12--12--12--12--12--|
G#|---------------------------------|---------------------------------|---------------------------------|
C#|---------------------------------|---------------------------------|---------------------------------|


F#|---------------------------------|---------------------------------|---------------------------------|
C#|-12--12--12--12--12--12--12--12--|-12--12--12--12--12--12--12--12--|-12--12--12--12--12--12--12--12--|
G#|---------------------------------|---------------------------------|---------------------------------|
C#|---------------------------------|---------------------------------|---------------------------------|


F#|---------------------------------|---------------------------------|-------------------------------------------------|
C#|---------------------------------|---------------------------------|-------------------------------------------------|
G#|---------------------------------|---------------------------------|-------------------------------------------------|
C#|-5---5---4---5---7---7---5---7---|-8---8---7---8---10--10--10--10--|-12-12-12-12-10-10-10-10-8--8--8--8--7--7--7--7--|


F#|-------------------------------------------------|---------------------------------|
C#|-------------------------------------------------|---------------------------------|
G#|-------------------------------------------------|---------------------------------|
C#|-10-10-10-10-8--8--8--8--7--7--7--7--4--4--4--4--|-5---5---4---5---7---7---5---7---|


F#|---------------------------------|-------------------------------------------------|
C#|---------------------------------|-------------------------------------------------|
G#|---------------------------------|-------------------------------------------------|
C#|-8---8---7---8---10--10--10--10--|-12-12-12-12-10-10-10-10-8--8--8--8--7--7--7--7--|


F#|-----------------------------------------|-----------------------------------------------|
C#|-----------------------------------------|-----------------------------------------------|
G#|-----------------------------3---6---5---|-5---------------------------------------------|
C#|-10-10-10-10-8--8--8--8--7---------------|-----0--0--0--0--0--0--0--0--0--0--0--0--0--0--|


F#|-----------------------------------------|-----------------------------------------------|
C#|-----------------------------------------|-----------------------------------------------|
G#|-----------------------------3---6---5---|-5---------------------------------------------|
C#|-0--0--0--0--0--0--0--0--0---------------|-----0--0--0--0--0--0--0--0--0--0--0--0--0--0--|


F#|-----------------------------------------|-----------------------------------------------|
C#|-----------------------------------------|-----------------------------------------------|
G#|-----------------------------3---6---5---|-5---------------------------------------------|
C#|-0--0--0--0--0--0--0--0--0---------------|-----0--0--0--0--0--0--0--0--0--0--0--0--0--0--|


F#|-----------------------------------------|---------------------------------|------------------------------|
C#|-----------------------------------------|---------------------------------|------------------------------|
G#|-----------------------------3---6---5---|-5---6---9---9---9---9---9---9---|-9---10--9---9-----------6----|
C#|-0--0--0--0--0--0--0--0--0---------------|---------------------------------|-----------------0---0--------|


F#|---------------------------------|---------------------------------|---------------------------------|
C#|---------------------------------|---------------------------------|---------------------------------|
G#|-5---------------5---------------|-----------------3---5---6---5---|-5---------------5---------------|
C#|-----0---0---0-------0---0---0---|-0---0---0---0-------------------|-----0---0---0-------0---0---0---|


F#|---------------------------------|---------------------------------|---------------------------------|
C#|---------------------------------|---------------------------------|---------------------------------|
G#|---------------------3---6---5---|-5---------------5---------------|---------------------3---6---5---|
C#|-0---0---0---0---0---------------|-----0---0---0-------0---0---0---|-0---0---0---0---0---------------|


F#|---------------------------------|---------------------------------|-------------|
C#|---------------------------------|---------------------------------|-------------|
G#|-5---6---9---9---9---9---9---9---|-9---9---9---9---9---9---9---9---|-------------|
C#|---------------------------------|---------------------------------|-4-----4-----|


F#|-------------|-------------|-----------------|-----------------|-----------------|
C#|-------------|-------------|-----------------|-----------------|-----------------|
G#|-------------|-------------|-----------------|-----------------|-----------------|
C#|-4-----4-----|-4-----4-----|-4-----1---1-----|-4-----1---5-----|-4-----1---1-----|


F#|-----------------|------------------------------|----------------------|--------|
C#|-----------------|------------------------------|----------------------|--------|
G#|-----------------|--------------3---5---6---5---|-5--------------------|--------|
C#|-4-----1---5-----|-4----4---4-------------------|-----0--0--0----------|--------|