Menu:

 

Search:

 

system of a down - aerials:

 



Title: Aerials
Artist: 
Album: Toxicity
Author: System of a Down


Track 1: Cello

E|-------------|-------------|-------------|--------|--------|--------|--------|--------|
A|-------------|-------------|-------------|--------|--------|--------|--------|--------|
D|-------------|-------------|-------------|--------|--------|--------|-5------|-10-----|
G|-5----1------|-1----3------|-3----0------|--------|--------|--------|--------|--------|


E|--------|--------|--------|--------|--------|--------|--------|--------|--------|
A|--------|--------|--------|--------|--------|--------|--------|--------|--------|
D|-8------|-1------|-3------|--------|--------|--------|--------|--------|--------|
G|--------|--------|--------|--------|--------|--------|--------|--------|--------|


E|--------|--------|--------|--------|--------|--------|--------|--------|--------|
A|--------|--------|--------|--------|--------|--------|--------|--------|--------|
D|--------|--------|--------|--------|--------|--------|--------|--------|--------|
G|--------|--------|--------|--------|--------|--------|--------|--------|--------|


E|--------|--------|--------|--------|--------|--------|--------|--------|--------|
A|--------|--------|--------|--------|--------|--------|--------|--------|--------|
D|--------|--------|--------|--------|--------|--------|--------|--------|--------|
G|--------|--------|--------|--------|--------|--------|--------|--------|--------|


E|--------|--------|--------|--------|--------|--------|--------|--------|--------|
A|--------|--------|--------|--------|--------|--------|--------|--------|--------|
D|--------|--------|--------|--------|--------|--------|--------|--------|--------|
G|--------|--------|--------|--------|--------|--------|--------|--------|--------|


E|--------|--------|--------|--------|--------|--------|--------|--------|--------|
A|--------|--------|--------|--------|--------|--------|--------|--------|--------|
D|--------|--------|--------|--------|--------|--------|--------|--------|--------|
G|--------|--------|--------|--------|--------|--------|--------|--------|--------|


E|--------|--------|--------|--------|--------|--------|--------|--------|--------|
A|--------|--------|--------|--------|--------|--------|--------|--------|--------|
D|--------|--------|--------|--------|--------|--------|--------|--------|--------|
G|--------|--------|--------|--------|--------|--------|--------|--------|--------|


E|--------|--------|--------|--------|--------|--------|--------|--------|--------|
A|--------|--------|--------|--------|--------|--------|--------|--------|--------|
D|--------|--------|--------|--------|--------|--------|--------|--------|--------|
G|--------|--------|--------|--------|--------|--------|--------|--------|--------|


E|--------|--------|--------|--------|--------|--------|--------|--------|--------|
A|--------|--------|--------|--------|--------|--------|--------|--------|--------|
D|--------|--------|--------|--------|--------|--------|--------|--------|--------|
G|--------|--------|--------|--------|--------|--------|--------|--------|--------|


E|--------|--------|--------|--------|--------|--------|--------|--------|--------|
A|--------|--------|--------|--------|--------|--------|--------|--------|--------|
D|--------|--------|--------|--------|--------|--------|--------|--------|--------|
G|--------|--------|--------|--------|--------|--------|--------|--------|--------|


E|--------|--------|
A|--------|--------|
D|--------|--------|
G|--------|--------|





Track 2: Guitar Clean

D|--------|--------|--------|---------------------------------------|---------------------------------------|
A|--------|--------|--------|---------------------------------------|---------------------------------------|
F|--------|--------|--------|---------------------------------------|---------------------------------------|
C|--------|--------|--------|-------0------0------0------0------0---|-0-----0------0------0------0------0---|
G|--------|--------|--------|----0------0------0------0------0------|----0------0------0------0------0------|
C|--------|--------|--------|---------------------------------------|---------------------------------------|


D|-----------------------------------------|---------------------------------------|
A|-----------------------------------------|---------------------------------------|
F|-----------------------------------------|---------------------------------------|
C|-0-----0------0------0------0---0--------|-------0------0------0------0------0---|
G|----0------0------0------0------------0--|-0--0------0------0------0------0------|
C|-----------------------------------------|---------------------------------------|


D|---------------------------------------|---------------------------------------|
A|---------------------------------------|---------------------------------------|
F|---------------------------------------|---------------------------------------|
C|-------0------0------0------0------0---|-0-----0------0------0------0------0---|
G|----0------0------0------0------0------|----0------0------0------0------0------|
C|---------------------------------------|---------------------------------------|


D|-----------------------------------------|---------------------------------------|
A|-----------------------------------------|---------------------------------------|
F|-----------------------------------------|---------------------------------------|
C|-0-----0------0------0------0---0--------|-------0------0------0------0------0---|
G|----0------0------0------0------------0--|-0--0------0------0------0------0------|
C|-----------------------------------------|---------------------------------------|


D|--------|--------|--------|--------|--------|--------|--------|--------|--------|
A|--------|--------|--------|--------|--------|--------|--------|--------|--------|
F|--------|--------|--------|--------|--------|--------|--------|--------|--------|
C|--------|--------|--------|--------|--------|--------|--------|--------|--------|
G|--------|--------|--------|--------|--------|--------|--------|--------|--------|
C|--------|--------|--------|--------|--------|--------|--------|--------|--------|


D|--------|--------|--------|--------|--------|---------------------------------------|
A|--------|--------|--------|--------|--------|---------------------------------------|
F|--------|--------|--------|--------|--------|---------------------------------------|
C|--------|--------|--------|--------|--------|-------0------0------0------0------0---|
G|--------|--------|--------|--------|--------|----0------0------0------0------0------|
C|--------|--------|--------|--------|--------|---------------------------------------|


D|---------------------------------------|-----------------------------------------|
A|---------------------------------------|-----------------------------------------|
F|---------------------------------------|-----------------------------------------|
C|-0-----0------0------0------0------0---|-0-----0------0------0------0---0--------|
G|----0------0------0------0------0------|----0------0------0------0------------0--|
C|---------------------------------------|-----------------------------------------|


D|---------------------------------------|--------|--------|--------|--------|--------|
A|---------------------------------------|--------|--------|--------|--------|--------|
F|---------------------------------------|--------|--------|--------|--------|--------|
C|-------0------0------0------0------0---|--------|--------|--------|--------|--------|
G|-0--0------0------0------0------0------|--------|--------|--------|--------|--------|
C|---------------------------------------|--------|--------|--------|--------|--------|


D|--------|--------|--------|--------|--------|--------|--------|--------|--------|
A|--------|--------|--------|--------|--------|--------|--------|--------|--------|
F|--------|--------|--------|--------|--------|--------|--------|--------|--------|
C|--------|--------|--------|--------|--------|--------|--------|--------|--------|
G|--------|--------|--------|--------|--------|--------|--------|--------|--------|
C|--------|--------|--------|--------|--------|--------|--------|--------|--------|


D|---------------------------------------|---------------------------------------|
A|---------------------------------------|---------------------------------------|
F|---------------------------------------|---------------------------------------|
C|-------0------0------0------0------0---|-0-----0------0------0------0------0---|
G|----0------0------0------0------0------|----0------0------0------0------0------|
C|---------------------------------------|---------------------------------------|


D|-----------------------------------------|---------------------------------------|
A|-----------------------------------------|---------------------------------------|
F|-----------------------------------------|---------------------------------------|
C|-0-----0------0------0------0---0--------|-------0------0------0------0------0---|
G|----0------0------0------0------------0--|-0--0------0------0------0------0------|
C|-----------------------------------------|---------------------------------------|


D|---------------------------------------|---------------------------------------|
A|---------------------------------------|---------------------------------------|
F|---------------------------------------|---------------------------------------|
C|-0-----0------0------0------0------0---|-0-----0------0------0------0------0---|
G|----0------0------0------0------0------|----0------0------0------0------0------|
C|---------------------------------------|---------------------------------------|


D|-----------------------------------------|---------------------------------------|
A|-----------------------------------------|---------------------------------------|
F|-----------------------------------------|---------------------------------------|
C|-0-----0------0------0------0---0--------|-------0------0------0------0------0---|
G|----0------0------0------0------------0--|-0--0------0------0------0------0------|
C|-----------------------------------------|---------------------------------------|


D|--------|--------|--------|--------|--------|--------|--------|--------|--------|
A|--------|--------|--------|--------|--------|--------|--------|--------|--------|
F|--------|--------|--------|--------|--------|--------|--------|--------|--------|
C|--------|--------|--------|--------|--------|--------|--------|--------|--------|
G|--------|--------|--------|--------|--------|--------|--------|--------|--------|
C|--------|--------|--------|--------|--------|--------|--------|--------|--------|


D|--------|--------|--------|--------|--------|--------|--------|--------|--------|
A|--------|--------|--------|--------|--------|--------|--------|--------|--------|
F|--------|--------|--------|--------|--------|--------|--------|--------|--------|
C|--------|--------|--------|--------|--------|--------|--------|--------|--------|
G|--------|--------|--------|--------|--------|--------|--------|--------|--------|
C|--------|--------|--------|--------|--------|--------|--------|--------|--------|


D|--------|--------|--------|--------|--------|--------|---------------------------------------|
A|--------|--------|--------|--------|--------|--------|---------------------------------------|
F|--------|--------|--------|--------|--------|--------|---------------------------------------|
C|--------|--------|--------|--------|--------|--------|-------0------0------0------0------0---|
G|--------|--------|--------|--------|--------|--------|----0------0------0------0------0------|
C|--------|--------|--------|--------|--------|--------|---------------------------------------|


D|---------------------------------------|-----------------------------------------|
A|---------------------------------------|-----------------------------------------|
F|---------------------------------------|-----------------------------------------|
C|-0-----0------0------0------0------0---|-0-----0------0------0------0---0--------|
G|----0------0------0------0------0------|----0------0------0------0------------0--|
C|---------------------------------------|-----------------------------------------|


D|---------------------------------------|---------------------------------------|
A|---------------------------------------|---------------------------------------|
F|---------------------------------------|---------------------------------------|
C|-------0------0------0------0------0---|-------0------0------0------0------0---|
G|-0--0------0------0------0------0------|----0------0------0------0------0------|
C|---------------------------------------|---------------------------------------|


D|---------------------------------------|-----------------------------------------|
A|---------------------------------------|-----------------------------------------|
F|---------------------------------------|-----------------------------------------|
C|-0-----0------0------0------0------0---|-0-----0------0------0------0---0--------|
G|----0------0------0------0------0------|----0------0------0------0------------0--|
C|---------------------------------------|-----------------------------------------|


D|---------------------------------------|---------------------------------------|
A|---------------------------------------|---------------------------------------|
F|---------------------------------------|---------------------------------------|
C|-------0------0------0------0------0---|-------0------0------0------0------0---|
G|-0--0------0------0------0------0------|----0------0------0------0------0------|
C|---------------------------------------|---------------------------------------|


D|---------------------------------------|-----------------------------------------|
A|---------------------------------------|-----------------------------------------|
F|---------------------------------------|-----------------------------------------|
C|-0-----0------0------0------0------0---|-0-----0------0------0------0---0--------|
G|----0------0------0------0------0------|----0------0------0------0------------0--|
C|---------------------------------------|-----------------------------------------|


D|---------------------------------------|---------------------------------------|
A|---------------------------------------|---------------------------------------|
F|---------------------------------------|---------------------------------------|
C|-------0------0------0------0------0---|-------0------0------0------0------0---|
G|-0--0------0------0------0------0------|----0------0------0------0------0------|
C|---------------------------------------|---------------------------------------|


D|---------------------------------------|-----------------------------------------|
A|---------------------------------------|-----------------------------------------|
F|---------------------------------------|-----------------------------------------|
C|-0-----0------0------0------0------0---|-0-----0------0------0------0---0--------|
G|----0------0------0------0------0------|----0------0------0------0------------0--|
C|---------------------------------------|-----------------------------------------|


D|----------------------------------|
A|----------------------------------|
F|----------------------------------|
C|-0-----0------0------0---0----0---|
G|----0------0------0---------------|
C|----------------------------------|





Track 3: Guitar Distortion

D|--------|--------|--------|--------|--------|--------|--------|--------|--------|
A|--------|--------|--------|--------|--------|--------|--------|--------|--------|
F|--------|--------|--------|--------|--------|--------|--------|--------|--------|
C|--------|--------|--------|--------|--------|--------|--------|--------|--------|
G|--------|--------|--------|--------|--------|--------|--------|--------|--------|
C|--------|--------|--------|--------|--------|--------|--------|--------|--------|


D|--------|--------|---------------------------------------|---------------------------------------|
A|--------|--------|---------------------------------------|---------------------------------------|
F|--------|--------|---------------------------------------|---------------------------------------|
C|--------|--------|-8---8---8---10-10--8--8---8--8--8--8--|-8---8---8---10-10--8--8---8--8--8--8--|
G|--------|--------|-8---8---8---8--8---8--8---8--8--8--8--|-8---8---8---8--8---8--8---8--8--8--8--|
C|--------|--------|-8---8---8---8--8---8--8---8--8--8--8--|-8---8---8---8--8---8--8---8--8--8--8--|


D|-----------------------------------------|-----------------------------------------|
A|-----------------------------------------|-----------------------------------------|
F|-------------12---12-------------10---10-|-------------9----9--------------7----7--|
C|-------------12---12-------------12---12-|-------------12---12-------------12---12-|
G|-0--0--0--0--10---10-0--0--0--0--8----8--|-0--0--0--0--7----7--0--0--0--0--5----5--|
C|-0--0--0--0----------0--0--0--0----------|-0--0--0--0----------0--0--0--0----------|


D|---------------------------------------|---------------------------------------|
A|---------------------------------------|---------------------------------------|
F|---------------------------------------|---------------------------------------|
C|-8---8---8---10-10--8--8---8--8--8--8--|-8---8---8---10-10--8--8---8--8--8--8--|
G|-8---8---8---8--8---8--8---8--8--8--8--|-8---8---8---8--8---8--8---8--8--8--8--|
C|-8---8---8---8--8---8--8---8--8--8--8--|-8---8---8---8--8---8--8---8--8--8--8--|


D|-----------------------------------------|-----------------------------------------|
A|-----------------------------------------|-----------------------------------------|
F|-------------12---12-------------10---10-|-------------9----9--------------7----7--|
C|-------------12---12-------------12---12-|-------------12---12-------------12---12-|
G|-0--0--0--0--10---10-0--0--0--0--8----8--|-0--0--0--0--7----7--0--0--0--0--5----5--|
C|-0--0--0--0----------0--0--0--0----------|-0--0--0--0----------0--0--0--0----------|


D|---------------------------------------|---------------------------------------|
A|---------------------------------------|---------------------------------------|
F|---------------------------------------|---------------------------------------|
C|-8---8---8---10-10--8--8---8--8--8--8--|-8---8---8---10-10--8--8---8--8--8--8--|
G|-8---8---8---8--8---8--8---8--8--8--8--|-8---8---8---8--8---8--8---8--8--8--8--|
C|-8---8---8---8--8---8--8---8--8--8--8--|-8---8---8---8--8---8--8---8--8--8--8--|


D|-----------------------------------------|-----------------------------------------|
A|-----------------------------------------|-----------------------------------------|
F|-------------12---12-------------10---10-|-------------9----9--------------7----7--|
C|-------------12---12-------------12---12-|-------------12---12-------------12---12-|
G|-0--0--0--0--10---10-0--0--0--0--8----8--|-0--0--0--0--7----7--0--0--0--0--5----5--|
C|-0--0--0--0----------0--0--0--0----------|-0--0--0--0----------0--0--0--0----------|


D|---------------------------------------|---------------------------------------|
A|---------------------------------------|---------------------------------------|
F|---------------------------------------|---------------------------------------|
C|-8---8---8---10-10--8--8---8--8--8--8--|-8---8---8---10-10--8--8---8--8--8--8--|
G|-8---8---8---8--8---8--8---8--8--8--8--|-8---8---8---8--8---8--8---8--8--8--8--|
C|-8---8---8---8--8---8--8---8--8--8--8--|-8---8---8---8--8---8--8---8--8--8--8--|


D|--------|--------|--------|--------|---------------------------------------|---------------------------------------|
A|--------|--------|--------|--------|---------------------------------------|---------------------------------------|
F|--------|--------|--------|--------|---------------------------------------|---------------------------------------|
C|--------|--------|--------|--------|-8---8---8---10-10--8--8---8--8--8--8--|-8---8---8---10-10--8--8---8--8--8--8--|
G|--------|--------|--------|--------|-8---8---8---8--8---8--8---8--8--8--8--|-8---8---8---8--8---8--8---8--8--8--8--|
C|--------|--------|--------|--------|-8---8---8---8--8---8--8---8--8--8--8--|-8---8---8---8--8---8--8---8--8--8--8--|


D|-----------------------------------------|-----------------------------------------|
A|-----------------------------------------|-----------------------------------------|
F|-------------12---12-------------10---10-|-------------9----9--------------7----7--|
C|-------------12---12-------------12---12-|-------------12---12-------------12---12-|
G|-0--0--0--0--10---10-0--0--0--0--8----8--|-0--0--0--0--7----7--0--0--0--0--5----5--|
C|-0--0--0--0----------0--0--0--0----------|-0--0--0--0----------0--0--0--0----------|


D|---------------------------------------|---------------------------------------|
A|---------------------------------------|---------------------------------------|
F|---------------------------------------|---------------------------------------|
C|-8---8---8---10-10--8--8---8--8--8--8--|-8---8---8---10-10--8--8---8--8--8--8--|
G|-8---8---8---8--8---8--8---8--8--8--8--|-8---8---8---8--8---8--8---8--8--8--8--|
C|-8---8---8---8--8---8--8---8--8--8--8--|-8---8---8---8--8---8--8---8--8--8--8--|


D|-----------------------------------------|-----------------------------------------|
A|-----------------------------------------|-----------------------------------------|
F|-------------12---12-------------10---10-|-------------9----9--------------7----7--|
C|-------------12---12-------------12---12-|-------------12---12-------------12---12-|
G|-0--0--0--0--10---10-0--0--0--0--8----8--|-0--0--0--0--7----7--0--0--0--0--5----5--|
C|-0--0--0--0----------0--0--0--0----------|-0--0--0--0----------0--0--0--0----------|


D|---------------------------------------|---------------------------------------|
A|---------------------------------------|---------------------------------------|
F|---------------------------------------|---------------------------------------|
C|-8---8---8---10-10--8--8---8--8--8--8--|-8---8---8---10-10--8--8---8--8--8--8--|
G|-8---8---8---8--8---8--8---8--8--8--8--|-8---8---8---8--8---8--8---8--8--8--8--|
C|-8---8---8---8--8---8--8---8--8--8--8--|-8---8---8---8--8---8--8---8--8--8--8--|


D|-----------------------------------------|-----------------------------------------|
A|-----------------------------------------|-----------------------------------------|
F|-------------12---12-------------10---10-|-------------9----9--------------7----7--|
C|-------------12---12-------------12---12-|-------------12---12-------------12---12-|
G|-0--0--0--0--10---10-0--0--0--0--8----8--|-0--0--0--0--7----7--0--0--0--0--5----5--|
C|-0--0--0--0----------0--0--0--0----------|-0--0--0--0----------0--0--0--0----------|


D|---------------------------------------|---------------------------------------|
A|---------------------------------------|---------------------------------------|
F|---------------------------------------|---------------------------------------|
C|-8---8---8---10-10--8--8---8--8--8--8--|-8---8---8---10-10--8--8---8--8--8--8--|
G|-8---8---8---8--8---8--8---8--8--8--8--|-8---8---8---8--8---8--8---8--8--8--8--|
C|-8---8---8---8--8---8--8---8--8--8--8--|-8---8---8---8--8---8--8---8--8--8--8--|


D|--------|--------|--------|--------|--------|--------|--------|--------|---------------------------------------|
A|--------|--------|--------|--------|--------|--------|--------|--------|---------------------------------------|
F|--------|--------|--------|--------|--------|--------|--------|--------|---------------------------------------|
C|--------|--------|--------|--------|--------|--------|--------|--------|-8---8---8---10-10--8--8---8--8--8--8--|
G|--------|--------|--------|--------|--------|--------|--------|--------|-8---8---8---8--8---8--8---8--8--8--8--|
C|--------|--------|--------|--------|--------|--------|--------|--------|-8---8---8---8--8---8--8---8--8--8--8--|


D|---------------------------------------|-----------------------------------------|
A|---------------------------------------|-----------------------------------------|
F|---------------------------------------|-------------12---12-------------10---10-|
C|-8---8---8---10-10--8--8---8--8--8--8--|-------------12---12-------------12---12-|
G|-8---8---8---8--8---8--8---8--8--8--8--|-0--0--0--0--10---10-0--0--0--0--8----8--|
C|-8---8---8---8--8---8--8---8--8--8--8--|-0--0--0--0----------0--0--0--0----------|


D|-----------------------------------------|---------------------------------------|
A|-----------------------------------------|---------------------------------------|
F|-------------9----9--------------7----7--|---------------------------------------|
C|-------------12---12-------------12---12-|-8---8---8---10-10--8--8---8--8--8--8--|
G|-0--0--0--0--7----7--0--0--0--0--5----5--|-8---8---8---8--8---8--8---8--8--8--8--|
C|-0--0--0--0----------0--0--0--0----------|-8---8---8---8--8---8--8---8--8--8--8--|


D|---------------------------------------|-----------------------------------------|
A|---------------------------------------|-----------------------------------------|
F|---------------------------------------|-------------12---12-------------10---10-|
C|-8---8---8---10-10--8--8---8--8--8--8--|-------------12---12-------------12---12-|
G|-8---8---8---8--8---8--8---8--8--8--8--|-0--0--0--0--10---10-0--0--0--0--8----8--|
C|-8---8---8---8--8---8--8---8--8--8--8--|-0--0--0--0----------0--0--0--0----------|


D|-----------------------------------------|---------------------------------------|
A|-----------------------------------------|---------------------------------------|
F|-------------9----9--------------7----7--|---------------------------------------|
C|-------------12---12-------------12---12-|-8---8---8---10-10--8--8---8--8--8--8--|
G|-0--0--0--0--7----7--0--0--0--0--5----5--|-8---8---8---8--8---8--8---8--8--8--8--|
C|-0--0--0--0----------0--0--0--0----------|-8---8---8---8--8---8--8---8--8--8--8--|


D|---------------------------------------|-----------------------------------------|
A|---------------------------------------|-----------------------------------------|
F|---------------------------------------|-------------12---12-------------10---10-|
C|-8---8---8---10-10--8--8---8--8--8--8--|-------------12---12-------------12---12-|
G|-8---8---8---8--8---8--8---8--8--8--8--|-0--0--0--0--10---10-0--0--0--0--8----8--|
C|-8---8---8---8--8---8--8---8--8--8--8--|-0--0--0--0----------0--0--0--0----------|


D|-----------------------------------------|---------------------------------------|
A|-----------------------------------------|---------------------------------------|
F|-------------9----9--------------7----7--|---------------------------------------|
C|-------------12---12-------------12---12-|-8---8---8---10-10--8--8---8--8--8--8--|
G|-0--0--0--0--7----7--0--0--0--0--5----5--|-8---8---8---8--8---8--8---8--8--8--8--|
C|-0--0--0--0----------0--0--0--0----------|-8---8---8---8--8---8--8---8--8--8--8--|


D|---------------------------------------|---------------------------------|---------------------------------|
A|---------------------------------------|---------------------------------|---------------------------------|
F|---------------------------------------|---------------------------------|---------------------------------|
C|-8---8---8---10-10--8--8---8--8--8--8--|-7---7---7---7---7---7---7---7---|-7---7---7---7---7---7---7---7---|
G|-8---8---8---8--8---8--8---8--8--8--8--|-7---7---7---7---7---7---7---7---|-7---7---7---7---7---7---7---7---|
C|-8---8---8---8--8---8--8---8--8--8--8--|-7---7---7---7---7---7---7---7---|-7---7---7---7---7---7---7---7---|


D|---------------------|---------------------|-----------------------------|---------------------|
A|---------------------|---------------------|-----------------------------|---------------------|
F|---------------------|---------------------|-----------------------------|---------------------|
C|-3----2----0---0-----|-5----3----2---2-----|-3----5----7----8----7---5---|-3----2----0---0-----|
G|-3----2----0---0-----|-5----3----2---2-----|-3----5----7----8----7---5---|-3----2----0---0-----|
C|-3----2----0---0-----|-5----3----2---2-----|-3----5----7----8----7---5---|-3----2----0---0-----|


D|---------------------|---------------------|-----------------------------|---------------------|
A|---------------------|---------------------|-----------------------------|---------------------|
F|---------------------|---------------------|-----------------------------|---------------------|
C|-3----2----0---0-----|-5----3----2---2-----|-3----5----7----8----7---5---|-3----2----0---0-----|
G|-3----2----0---0-----|-5----3----2---2-----|-3----5----7----8----7---5---|-3----2----0---0-----|
C|-3----2----0---0-----|-5----3----2---2-----|-3----5----7----8----7---5---|-3----2----0---0-----|


D|--------|--------|--------|--------|--------|--------|--------|--------|--------|
A|--------|--------|--------|--------|--------|--------|--------|--------|--------|
F|--------|--------|--------|--------|--------|--------|--------|--------|--------|
C|--------|--------|--------|--------|--------|--------|--------|--------|--------|
G|--------|--------|--------|--------|--------|--------|--------|--------|--------|
C|--------|--------|--------|--------|--------|--------|--------|--------|--------|


D|--------|--------|--------|--------|--------|--------|--------|
A|--------|--------|--------|--------|--------|--------|--------|
F|--------|--------|--------|--------|--------|--------|--------|
C|--------|--------|--------|--------|--------|--------|--------|
G|--------|--------|--------|--------|--------|--------|--------|
C|--------|--------|--------|--------|--------|--------|--------|





Track 4: Bass

F|--------|--------|--------|-----------------------------|-----------------------------|
C|--------|--------|--------|-----------------------------|-----------------------------|
G|--------|--------|--------|-8----7----5----5----5----5--|-10---8----7----7----7----7--|
C|--------|--------|--------|-----------------------------|-----------------------------|


F|-----------------------------|-----------------------------|-----------------------------|
C|-----------------------------|-----------------------------|-----------------------------|
G|-8----10---12---13---12--10--|-8----7----5----5----5----5--|-5----3----0----0----0----0--|
C|-----------------------------|-----------------------------|-----------------------------|


F|-----------------------------|-----------------------------|-----------------------------|
C|-----------------------------|-----------------------------|-----------------------------|
G|-7----3----0----0----0----0--|-5----7----8----10---8---7---|-5----3----5----5----5-------|
C|-----------------------------|-----------------------------|--------------------------0--|


F|---------------------------------------|---------------------------------------|
C|---------------------------------------|---------------------------------------|
G|---------------------------------------|---------------------------------------|
C|-8---8---8---8--8---8--8---8--8--8--8--|-8---8---8---8--8---8--8---8--8--8--8--|


F|-----------------------------------------|-----------------------------------------|
C|-----------------------------------------|-----------------------------------------|
G|-----------------------------------------|-----------------------------------------|
C|-0--0--0--0--5----5--0--0--0--0--3----3--|-0--0--0--0--2----2--0--0--0--0--0----0--|


F|---------------------------------------|---------------------------------------|
C|---------------------------------------|---------------------------------------|
G|---------------------------------------|---------------------------------------|
C|-8---8---8---8--8---8--8---8--8--8--8--|-8---8---8---8--8---8--8---8--8--8--8--|


F|-----------------------------------------|-----------------------------------------|
C|-----------------------------------------|-----------------------------------------|
G|-----------------------------------------|-----------------------------------------|
C|-0--0--0--0--5----5--0--0--0--0--3----3--|-0--0--0--0--2----2--0--0--0--0--0----0--|


F|---------------------------------------|---------------------------------------|
C|---------------------------------------|---------------------------------------|
G|---------------------------------------|---------------------------------------|
C|-8---8---8---8--8---8--8---8--8--8--8--|-8---8---8---8--8---8--8---8--8--8--8--|


F|-----------------------------------------|-----------------------------------------|
C|-----------------------------------------|-----------------------------------------|
G|-----------------------------------------|-----------------------------------------|
C|-0--0--0--0--5----5--0--0--0--0--3----3--|-0--0--0--0--2----2--0--0--0--0--0----0--|


F|---------------------------------------|---------------------------------------|
C|---------------------------------------|---------------------------------------|
G|---------------------------------------|---------------------------------------|
C|-8---8---8---8--8---8--8---8--8--8--8--|-8---8---8---8--8---8--8---8--8--8--8--|


F|-----------------------------|-----------------------------|-----------------------------|
C|-----------------------------|-----------------------------|-----------------------------|
G|-8----7----5----5----5----5--|-10---8----7----7----7----7--|-8----10---12---13---12--10--|
C|-----------------------------|-----------------------------|-----------------------------|


F|-----------------------------|---------------------------------------|---------------------------------------|
C|-----------------------------|---------------------------------------|---------------------------------------|
G|-8----7----5----5----5----5--|---------------------------------------|---------------------------------------|
C|-----------------------------|-8---8---8---8--8---8--8---8--8--8--8--|-8---8---8---8--8---8--8---8--8--8--8--|


F|-----------------------------------------|-----------------------------------------|
C|-----------------------------------------|-----------------------------------------|
G|-----------------------------------------|-----------------------------------------|
C|-0--0--0--0--5----5--0--0--0--0--3----3--|-0--0--0--0--2----2--0--0--0--0--0----0--|


F|---------------------------------------|---------------------------------------|
C|---------------------------------------|---------------------------------------|
G|---------------------------------------|---------------------------------------|
C|-8---8---8---8--8---8--8---8--8--8--8--|-8---8---8---8--8---8--8---8--8--8--8--|


F|-----------------------------------------|-----------------------------------------|
C|-----------------------------------------|-----------------------------------------|
G|-----------------------------------------|-----------------------------------------|
C|-0--0--0--0--5----5--0--0--0--0--3----3--|-0--0--0--0--2----2--0--0--0--0--0----0--|


F|---------------------------------------|---------------------------------------|
C|---------------------------------------|---------------------------------------|
G|---------------------------------------|---------------------------------------|
C|-8---8---8---8--8---8--8---8--8--8--8--|-8---8---8---8--8---8--8---8--8--8--8--|


F|-----------------------------------------|-----------------------------------------|
C|-----------------------------------------|-----------------------------------------|
G|-----------------------------------------|-----------------------------------------|
C|-0--0--0--0--5----5--0--0--0--0--3----3--|-0--0--0--0--2----2--0--0--0--0--0----0--|


F|---------------------------------------|---------------------------------------|
C|---------------------------------------|---------------------------------------|
G|---------------------------------------|---------------------------------------|
C|-8---8---8---8--8---8--8---8--8--8--8--|-8---8---8---8--8---8--8---8--8--8--8--|


F|-----------------------------|-----------------------------|-----------------------------|
C|-----------------------------|-----------------------------|-----------------------------|
G|-8----7----5----5----5----5--|-10---8----7----7----7----7--|-8----10---12---13---12--10--|
C|-----------------------------|-----------------------------|-----------------------------|


F|-----------------------------|-----------------------------|-----------------------------|
C|-----------------------------|-----------------------------|-----------------------------|
G|-8----7----5----5----5----5--|-8----7----5----5----5----5--|-10---8----7----7----7----7--|
C|-----------------------------|-----------------------------|-----------------------------|


F|-----------------------------|-----------------------------|---------------------------------------|
C|-----------------------------|-----------------------------|---------------------------------------|
G|-8----10---12---13---12--10--|-8----7----5----5----5----5--|---------------------------------------|
C|-----------------------------|-----------------------------|-8---8---8---8--8---8--8---8--8--8--8--|


F|---------------------------------------|-----------------------------------------|
C|---------------------------------------|-----------------------------------------|
G|---------------------------------------|-----------------------------------------|
C|-8---8---8---8--8---8--8---8--8--8--8--|-0--0--0--0--5----5--0--0--0--0--3----3--|


F|-----------------------------------------|---------------------------------------|
C|-----------------------------------------|---------------------------------------|
G|-----------------------------------------|---------------------------------------|
C|-0--0--0--0--2----2--0--0--0--0--0----0--|-8---8---8---8--8---8--8---8--8--8--8--|


F|---------------------------------------|-----------------------------------------|
C|---------------------------------------|-----------------------------------------|
G|---------------------------------------|-----------------------------------------|
C|-8---8---8---8--8---8--8---8--8--8--8--|-0--0--0--0--5----5--0--0--0--0--3----3--|


F|-----------------------------------------|---------------------------------------|
C|-----------------------------------------|---------------------------------------|
G|-----------------------------------------|---------------------------------------|
C|-0--0--0--0--2----2--0--0--0--0--0----0--|-8---8---8---8--8---8--8---8--8--8--8--|


F|---------------------------------------|-----------------------------------------|
C|---------------------------------------|-----------------------------------------|
G|---------------------------------------|-----------------------------------------|
C|-8---8---8---8--8---8--8---8--8--8--8--|-0--0--0--0--5----5--0--0--0--0--3----3--|


F|-----------------------------------------|---------------------------------------|
C|-----------------------------------------|---------------------------------------|
G|-----------------------------------------|---------------------------------------|
C|-0--0--0--0--2----2--0--0--0--0--0----0--|-8---8---8---8--8---8--8---8--8--8--8--|


F|---------------------------------------|---------------------------------|---------------------------------|
C|---------------------------------------|---------------------------------|---------------------------------|
G|---------------------------------------|---------------------------------|---------------------------------|
C|-8---8---8---8--8---8--8---8--8--8--8--|-7---7---7---7---7---7---7---7---|-7---7---7---7---7---7---7---7---|


F|---------------------|---------------------|-----------------------------|---------------------|
C|---------------------|---------------------|-----------------------------|---------------------|
G|---------------------|---------------------|-----------------------------|---------------------|
C|-3----2----0---0-----|-5----3----2---2-----|-3----5----7----8----7---5---|-3----2----0---0-----|


F|---------------------|---------------------|-----------------------------|---------------------|
C|---------------------|---------------------|-----------------------------|---------------------|
G|---------------------|---------------------|-----------------------------|---------------------|
C|-3----2----0---0-----|-5----3----2---2-----|-3----5----7----8----7---5---|-3----2----0---0-----|


F|-----------------------------|-----------------------------|-----------------------------|
C|-----------------------------|-----------------------------|-----------------------------|
G|-8----7----5----5----5----5--|-10---8----7----7----7----7--|-8----10---12---13---12--10--|
C|-----------------------------|-----------------------------|-----------------------------|


F|-----------------------------|-----------------------------|-----------------------------|
C|-----------------------------|-----------------------------|-----------------------------|
G|-8----7----5----5----5----5--|-8----7----5----5----5----5--|-10---8----7----7----7----7--|
C|-----------------------------|-----------------------------|-----------------------------|


F|-----------------------------|-----------------------------|-----------------------------|
C|-----------------------------|-----------------------------|-----------------------------|
G|-8----10---12---13---12--10--|-8----7----5----5----5----5--|-8----7----5----5----5----5--|
C|-----------------------------|-----------------------------|-----------------------------|


F|-----------------------------|-----------------------------|-----------------------------|
C|-----------------------------|-----------------------------|-----------------------------|
G|-10---8----7----7----7----7--|-8----10---12---13---12--10--|-8----7----5----5----5----5--|
C|-----------------------------|-----------------------------|-----------------------------|


F|-----------------------------|-----------------------------|-----------------------------|
C|-----------------------------|-----------------------------|-----------------------------|
G|-8----7----5----5----5----5--|-10---8----7----7----7----7--|-8----10---12---13---12--10--|
C|-----------------------------|-----------------------------|-----------------------------|


F|---------------------|
C|---------------------|
G|-8----7----5---5-----|
C|---------------------|