Menu:

 

Search:

 

supertramp - breakfast in america:

 



Title: Breakfast In America
Artist: 
Album: Breakfast In America
Author: Rich Davies & Roger Hodgson


Track 1: Piano R.H.

E|---------------------------------|---------------------------------|---------------------------------|
B|---------------------------------|---------------------------------|---------------------------------|
G|-0-------0-------0-------0-------|-0-------0-------0-------0-------|-0---0---0---0---0---0---0---0---|
D|-1-------1-------1-------1-------|-1-------1-------1-------1-------|-1---1---1---1---0---0---0---0---|
A|-3-------3-------3-------3-------|-3-------3-------3-------3-------|-3---3---3---3---1---1---1---1---|
E|-----3-------3-------3-------3---|-----3-------3-------3-------3---|---------------------------------|


E|---------------------------------|---------------------------------|---------------------------------|
B|---------------------------------|---------------------------------|---------------------------------|
G|-0---0---0---0---0---0---0---0---|-0---0---0---0---0---0---0---0---|-0---0---0---0---0---0---0---0---|
D|-1---1---1---1---1---1---1---1---|-1---1---1---1---0---0---0---0---|-1---1---1---1---1---1---1---1---|
A|-3---3---3---3---3---3---3---3---|-3---3---3---3---1---1---1---1---|-3---3---3---3---3---3---3---3---|
E|---------------------------------|---------------------------------|---------------------------------|


E|---------------------------------|---------------------------------|---------------------------------|
B|---------------------------------|---------------------------------|---------------------------------|
G|-0---0---0---0---0---0---0---0---|-0---0---0---0---0---0---0---0---|-0---0---0---0---0---0---0---0---|
D|-3---3---3---3---3---3---3---3---|-1---1---1---1---1---1---1---1---|-3---3---3---3---3---3---3---3---|
A|-5---5---5---5---5---5---5---5---|-3---3---3---3---3---3---3---3---|-5---5---5---5---5---5---5---5---|
E|-7---7---7---7---7---7---7---7---|---------------------------------|-7---7---7---7---7---7---7---7---|


E|---------------------|---------------------------|---------------------------------|
B|---------------------|---------------------------|---------------------------------|
G|-0----0----0----0----|-0----0--------------------|-----------------0---0---0---0---|
D|-1----1----3----3----|-1----1----3-------3-------|-3-------3-------1---1---1---1---|
A|-3----3----5----5----|-3----3----5-------5-------|-5-------5-------3---3---3---3---|
E|---------------------|---------------6-------6---|-----6-------8-------------------|


E|---------------------------------|---------------------------------|---------------------------------|
B|---------------------------------|---------------------------------|---------------------------------|
G|-0---0---0---0---0---0---0---0---|-0---0---0---0---0---0---0---0---|-0---0---0---0---0---0---0---0---|
D|-0---0---0---0---1---1---1---1---|-1---1---1---1---1---1---1---1---|-0---0---0---0---1---1---1---1---|
A|-1---1---1---1---3---3---3---3---|-3---3---3---3---3---3---3---3---|-1---1---1---1---3---3---3---3---|
E|---------------------------------|---------------------------------|---------------------------------|


E|---------------------------------|---------------------------------|---------------------------------|
B|---------------------------------|---------------------------------|---------------------------------|
G|-0---0---0---0---0---0---0---0---|-0---0---0---0---0---0---0---0---|-0---0---0---0---0---0---0---0---|
D|-1---1---1---1---3---3---3---3---|-3---3---3---3---1---1---1---1---|-1---1---1---1---3---3---3---3---|
A|-3---3---3---3---5---5---5---5---|-5---5---5---5---3---3---3---3---|-3---3---3---3---5---5---5---5---|
E|-----------------7---7---7---7---|-7---7---7---7-------------------|-----------------7---7---7---7---|


E|---------------------------|---------------------|------------------------------|
B|---------------------------|---------------------|------------------------------|
G|-0---0---0---0---0----0----|-0----0----0----0----|------------------------------|
D|-3---3---3---3---1----1----|-3----3----1----1----|-3-------3-------3-------3----|
A|-5---5---5---5---3----3----|-5----5----3----3----|-5-------5-------5-------5----|
E|-7---7---7---7-------------|---------------------|-----1-------1-------1--------|


E|---------------------------------|---------------------------------|---------------------------------|
B|---------------------------------|---------------------------------|---------------------------------|
G|-0---0---0---0---0---0---0---0---|-0---0---0---0---0---0---0---0---|-0---0---0---0---0---0---0---0---|
D|-3---3---3---3---3---3---3---3---|-1---1---1---1---1---1---1---1---|-3---3---3---3---3---3---3---3---|
A|-5---5---5---5---5---5---5---5---|-3---3---3---3---3---3---3---3---|-5---5---5---5---5---5---5---5---|
E|-7---7---7---7---7---7---7---7---|---------------------------------|-7---7---7---7---7---7---7---7---|


E|---------------------------------|---------------------------------|---------------------------------|
B|---------------------------------|---------------------------------|---------------------------------|
G|-0---0---0---0---0---0---0---0---|-1-------1-------1-------1-------|-1-------1-----------------------|
D|-1---1---1---1---1---1---1---1---|-1-------1-------1-------1-------|-1-------1-------3-------3-------|
A|-3---3---3---3---3---3---3---3---|-----3-------3-------3-------3---|-----3-------3---5-------5-------|
E|---------------------------------|---------------------------------|---------------------6-------6---|


E|---------------------------------|---------------------------------|---------------------------------|
B|---------------------------------|---------------------------------|---------------------------------|
G|-----------------0---0---0---0---|-0---0---0---0---0---0---0---0---|-0---0---0---0---0---0---0---0---|
D|-3---3---3---3---1---1---1---1---|-0---0---0---0---1---1---1---1---|-1---1---1---1---1---1---1---1---|
A|-5---5---5---5---3---3---3---3---|-1---1---1---1---3---3---3---3---|-3---3---3---3---3---3---3---3---|
E|-6---6---6---6-------------------|---------------------------------|---------------------------------|


E|---------------------------------|---------------------------------|---------------------------------|
B|---------------------------------|---------------------------------|---------------------------------|
G|-0---0---0---0---0---0---0---0---|-0---0---0---0---0---0---0---0---|-0---0---0---0---0---0---0---0---|
D|-0---0---0---0---1---1---1---1---|-1---1---1---1---3---3---3---3---|-3---3---3---3---1---1---1---1---|
A|-1---1---1---1---3---3---3---3---|-3---3---3---3---5---5---5---5---|-5---5---5---5---3---3---3---3---|
E|---------------------------------|-----------------7---7---7---7---|-7---7---7---7-------------------|


E|---------------------------------|---------------------------|---------------------|
B|---------------------------------|---------------------------|---------------------|
G|-0---0---0---0---0---0---0---0---|-0---0---0---0---0----0----|-0----0----0----0----|
D|-1---1---1---1---3---3---3---3---|-3---3---3---3---1----1----|-3----3----1----1----|
A|-3---3---3---3---5---5---5---5---|-5---5---5---5---3----3----|-5----5----3----3----|
E|-----------------7---7---7---7---|-7---7---7---7-------------|---------------------|


E|------------------------------|---------------------------------|---------------------------------|
B|------------------------------|---------------------------------|---------------------------------|
G|------------------------------|-0---0---0---0---0---0---0---0---|-0---0---0---0---0---0---0---0---|
D|-3-------3-------3-------3----|-3---3---3---3---3---3---3---3---|-1---1---1---1---1---1---1---1---|
A|-5-------5-------5-------5----|-5---5---5---5---5---5---5---5---|-3---3---3---3---3---3---3---3---|
E|-----1-------1-------1--------|-7---7---7---7---7---7---7---7---|---------------------------------|


E|---------------------------------|---------------------------------|---------------------------------|
B|---------------------------------|---------------------------------|---------------------------------|
G|-0---0---0---0---0---0---0---0---|-0---0---0---0---0---0---0---0---|-0---0---0---0---0---0---0---0---|
D|-3---3---3---3---3---3---3---3---|-1---1---1---1---1---1---1---1---|-3---3---3---3---3---3---3---3---|
A|-5---5---5---5---5---5---5---5---|-3---3---3---3---3---3---3---3---|-5---5---5---5---5---5---5---5---|
E|-7---7---7---7---7---7---7---7---|---------------------------------|-7---7---7---7---7---7---7---7---|


E|---------------------------------|---------------------------------|---------------------------------|
B|---------------------------------|---------------------------------|---------------------------------|
G|-0---0---0---0---0---0---0---0---|-0---0---0---0---0---0---0---0---|-0---0---0---0---0---0---0---0---|
D|-1---1---1---1---1---1---1---1---|-3---3---3---3---3---3---3---3---|-1---1---1---1---1---1---1---1---|
A|-3---3---3---3---3---3---3---3---|-5---5---5---5---5---5---5---5---|-3---3---3---3---3---3---3---3---|
E|---------------------------------|-7---7---7---7---7---7---7---7---|---------------------------------|


E|---------------------------------|-----------------------|-------------|
B|---------------------------------|-----------------------|-------------|
G|-1-------1-------1-------1-------|-1-------1-------------|-------------|
D|-1-------1-------1-------1-------|-1-------1-------3-----|-------3-----|
A|-----3-------3-------3-------3---|-----3-------3---5-----|-------5-----|
E|---------------------------------|-----------------6-----|-------6-----|





Track 2: Piano L.H.

E|--------|--------|---------------------|------------------------|---------------------|
B|--------|--------|---------------------|------------------------|---------------------|
G|--------|--------|-5----5----3----3----|------------------------|-5----5----3----3----|
D|--------|--------|---------------------|-6----6----6----6---8---|---------------------|
A|--------|--------|-3----3----1----1----|------------------------|-3----3----1----1----|
E|--------|--------|---------------------|-4----4----4----4---6---|---------------------|


E|---------------------|-3------------3------------|---------------------------|-3------------3------------|
B|---------------------|----3------------3---------|-1------------1------------|----3------------3---------|
G|---------------------|---------0------------0----|----0------------0---------|---------0------------0----|
D|-6----6----6----6----|---------------------------|---------------------------|---------------------------|
A|---------------------|---------------------------|---------3------------3----|---------------------------|
E|-4----4----4----4----|---------------------------|---------------------------|---------------------------|


E|-------6-----|-------6-----|-6---------------|---------------------|------------------------|
B|-6-----------|-6-----------|-----------------|---------------------|------------------------|
G|-------3-----|-------3-----|-3-----5----5----|-3----3--------------|--------------5----5----|
D|-3-----------|-3-----------|-----------------|-----------6----6----|-6----6---8-------------|
A|-------------|-------------|-------3----3----|-1----1--------------|--------------3----3----|
E|-------------|-------------|-----------------|-----------4----4----|-4----4---6-------------|


E|---------------------|-----------------3------------|-3-------------------------|
B|---------------------|--------------------3---------|----3---------1------------|
G|-3----3--------------|-------------------------0----|---------0-------0---------|
D|-----------6----6----|-6---5---3--------------------|---------------------------|
A|-1----1--------------|-------------6----------------|----------------------3----|
E|-----------4----4----|-4-------1--------------------|---------------------------|


E|--------------3------------|-3------------------|-6-----------|-6-----6-----|-3------------3------------|
B|-1---------------3---------|----3---------6-----|-------6-----|-------------|----3------------3---------|
G|----0-----------------0----|---------0----------|-3-----------|-3-----3-----|---------0------------0----|
D|---------------------------|--------------3-----|-------3-----|-------------|---------------------------|
A|---------3-----------------|--------------------|-------------|-------------|---------------------------|
E|---------------------------|--------------------|-------------|-------------|---------------------------|


E|---------------------------|-3------------3------------|------------------------------|
B|-1------------1------------|----3------------3---------|-1------------1---------------|
G|----0------------0---------|---------0------------0----|----0------------0----5---3---|
D|---------------------------|---------------------------|------------------------------|
A|---------3------------3----|---------------------------|---------3------------3---1---|
E|---------------------------|---------------------------|------------------------------|


E|----------------|-------------|-----------------|---------------------|------------------------|
B|----------------|-------------|-----------------|---------------------|------------------------|
G|----------------|-------3-----|-------5----5----|-3----3--------------|--------------5----5----|
D|-6------6--5----|-3-----------|-----------------|-----------6----6----|-6----6---8-------------|
A|----------------|-------------|-------3----3----|-1----1--------------|--------------3----3----|
E|-4--------------|-------------|-----------------|-----------4----4----|-4----4---6-------------|


E|---------------------|-----------------3------------|-3-------------------------|
B|---------------------|--------------------3---------|----3---------1------------|
G|-3----3--------------|-------------------------0----|---------0-------0---------|
D|-----------6----6----|-6---5---3--------------------|---------------------------|
A|-1----1--------------|-------------6----------------|----------------------3----|
E|-----------4----4----|-4-------1--------------------|---------------------------|


E|--------------3------------|-3------------------|-6-----------|-6-----6-----|-3------------3------------|
B|-1---------------3---------|----3---------6-----|-------6-----|-------------|----3------------3---------|
G|----0-----------------0----|---------0----------|-3-----------|-3-----3-----|---------0------------0----|
D|---------------------------|--------------3-----|-------3-----|-------------|---------------------------|
A|---------3-----------------|--------------------|-------------|-------------|---------------------------|
E|---------------------------|--------------------|-------------|-------------|---------------------------|


E|---------------------------|-3------------3------------|---------------------------|
B|-1------------1------------|----3------------3---------|-1------------1------------|
G|----0------------0---------|---------0------------0----|----0------------0---------|
D|---------------------------|---------------------------|---------------------------|
A|---------3------------3----|---------------------------|---------3------------3----|
E|---------------------------|---------------------------|---------------------------|


E|-3------------3------------|---------------------------|-3------------3------------|
B|----3------------3---------|-1------------1------------|----3------------3---------|
G|---------0------------0----|----0------------0---------|---------0------------0----|
D|---------------------------|---------------------------|---------------------------|
A|---------------------------|---------3------------3----|---------------------------|
E|---------------------------|---------------------------|---------------------------|


E|------------------------------|----------------|-------------|-------------|
B|-1------------1---------------|----------------|-------------|-------------|
G|----0------------0----5---3---|----------------|-------3-----|-------3-----|
D|------------------------------|-6------6--5----|-3-----------|-------------|
A|---------3------------3---1---|----------------|-------------|-------------|
E|------------------------------|-4--------------|-------------|-------------|





Track 3: Electr. Guitar

E|--------|--------|--------|--------|--------|--------|--------|--------|--------|
B|--------|--------|--------|--------|--------|--------|--------|--------|--------|
G|--------|--------|--------|--------|--------|--------|--------|--------|--------|
D|--------|--------|--------|--------|--------|--------|--------|--------|--------|
A|--------|--------|--------|--------|--------|--------|--------|--------|--------|
E|--------|--------|--------|--------|--------|--------|--------|--------|--------|


E|--------|--------|--------|--------|--------|--------|--------|--------|--------|
B|--------|--------|--------|--------|--------|--------|--------|--------|--------|
G|--------|--------|--------|--------|--------|--------|--------|--------|--------|
D|--------|--------|--------|--------|--------|--------|--------|--------|--------|
A|--------|--------|--------|--------|--------|--------|--------|--------|--------|
E|--------|--------|--------|--------|--------|--------|--------|--------|--------|


E|---------------4----|---------1------------4----|---------6-------10------13------|
B|-----------4--------|-----3------------4--------|-----6-------6-------11------15--|
G|-------5------------|-3------------5------------|-7-------------------------------|
D|--------------------|---------------------------|---------------------------------|
A|--------------------|---------------------------|---------------------------------|
E|--------------------|---------------------------|---------------------------------|


E|-------15----------------15----------|----------15------------------15---------|
B|----15------15--------15------15-----|----16-18-----16--------16-18-----16-----|
G|-16------------16--16------------16--|-17--------------17--17--------------17--|
D|-------------------------------------|-----------------------------------------|
A|-------------------------------------|-----------------------------------------|
E|-------------------------------------|-----------------------------------------|


E|-------15----------------15----------|----------15------------------15------|--------|
B|----15------15--------15------15-----|----16-18-----16--------16-18---------|--------|
G|-16------------16--16------------16--|-17--------------17--17----------17---|--------|
D|-------------------------------------|--------------------------------------|--------|
A|-------------------------------------|--------------------------------------|--------|
E|-------------------------------------|--------------------------------------|--------|


E|--------|--------|--------|--------|--------|--------|--------|--------|---------------4----|
B|--------|--------|--------|--------|--------|--------|--------|--------|-----------4--------|
G|--------|--------|--------|--------|--------|--------|--------|--------|-------5------------|
D|--------|--------|--------|--------|--------|--------|--------|--------|--------------------|
A|--------|--------|--------|--------|--------|--------|--------|--------|--------------------|
E|--------|--------|--------|--------|--------|--------|--------|--------|--------------------|


E|---------1------------4----|---------6-------10------13------|-------15----------------15----------|
B|-----3------------4--------|-----6-------6-------11------15--|----15------15--------15------15-----|
G|-3------------5------------|-7-------------------------------|-16------------16--16------------16--|
D|---------------------------|---------------------------------|-------------------------------------|
A|---------------------------|---------------------------------|-------------------------------------|
E|---------------------------|---------------------------------|-------------------------------------|


E|----------15------------------15---------|-------15----------------15----------|
B|----16-18-----16--------16-18-----16-----|----15------15--------15------15-----|
G|-17--------------17--17--------------17--|-16------------16--16------------16--|
D|-----------------------------------------|-------------------------------------|
A|-----------------------------------------|-------------------------------------|
E|-----------------------------------------|-------------------------------------|


E|----------15------------------15---------|-------15----------------15----------|
B|----16-18-----16--------16-18-----16-----|----15------15--------15------15-----|
G|-17--------------17--17--------------17--|-16------------16--16------------16--|
D|-----------------------------------------|-------------------------------------|
A|-----------------------------------------|-------------------------------------|
E|-----------------------------------------|-------------------------------------|


E|----------15------------------15---------|-------15----------------15----------|
B|----16-18-----16--------16-18-----16-----|----15------15--------15------15-----|
G|-17--------------17--17--------------17--|-16------------16--16------------16--|
D|-----------------------------------------|-------------------------------------|
A|-----------------------------------------|-------------------------------------|
E|-----------------------------------------|-------------------------------------|


E|----------15------------------15------|--------|--------|--------|
B|----16-18-----16--------16-18---------|--------|--------|--------|
G|-17--------------17--17----------17---|--------|--------|--------|
D|--------------------------------------|--------|--------|--------|
A|--------------------------------------|--------|--------|--------|
E|--------------------------------------|--------|--------|--------|





Track 4: Bass

G|--------|--------|---------------------|---------------------------|---------------------|
D|--------|--------|---------------------|---------------------------|---------------------|
A|--------|--------|-3----3----1----1----|---------------------------|-3----3----1----1----|
E|--------|--------|---------------------|-4----4-------4----4---6---|---------------------|
B|--------|--------|---------------------|----------4----------------|---------------------|


G|------------------------|---------------------------|-5------------5------------|
D|------------------------|-5------------5------------|----5------------5---------|
A|------------------------|----5------------5---------|---------3------------3----|
E|-4----4-------4----4----|---------3------------3----|---------------------------|
B|----------4-------------|---------------------------|---------------------------|


G|---------------------------|--------------------|--------------------|-----------------|
D|-5------------5------------|--------------------|--------------------|-----------------|
A|----5------------5---------|--------------------|--------------------|-------3----3----|
E|---------3------------3----|-1----1----1--6-----|-1----1----1--6-----|-----------------|
B|---------------------------|--------------------|--------------------|-----------------|


G|------------------------|------------------------|------------------------|------------------------------|
D|------------------------|------------------------|------------------------|-6---5---3-------5------------|
A|-1----1-----------------|--------------3----3----|-1----1-------------6---|-------------6------5---------|
E|-----------4----4-------|-4----4---6-------------|-----------4----4-------|-------------------------3----|
B|--------------------4---|------------------------|------------------------|------------------------------|


G|--------------5------------|-5-------------------------|---------------------------|
D|-5---------------5---------|----5---------5------------|-5-------------------------|
A|----5-----------------3----|---------3-------5---------|----5----------------------|
E|---------3-----------------|----------------------3----|---------3----1----1---1---|
B|---------------------------|---------------------------|---------------------------|


G|--------------------|--------12---|---------------------------|-5------------5------------|
D|--------------------|-------------|-5------------5------------|----5------------5---------|
A|--------------------|-------------|----5------------5---------|---------3------------3----|
E|-6-----1----1----1--|-6-----------|---------3------------3----|---------------------------|
B|--------------------|-------------|---------------------------|---------------------------|


G|---------------------------|-5------------5---------------|----------------|--------------------|
D|-5------------5------------|----5------------5------------|----------------|--------------------|
A|----5------------5---------|---------3------------3---1---|----------------|--------------------|
E|---------3------------3----|------------------------------|-4------4--3----|-1----1----1--6-----|
B|---------------------------|------------------------------|----------------|--------------------|


G|-----------------|------------------------|------------------------|------------------------|
D|-----------------|------------------------|------------------------|------------------------|
A|-------3----3----|-1----1-----------------|--------------3----3----|-1----1-------------6---|
E|-----------------|-----------4----4-------|-4----4---6-------------|-----------4----4-------|
B|-----------------|--------------------4---|------------------------|------------------------|


G|------------------------------|--------------5------------|-5-------------------------|
D|-6---5---3-------5------------|-5---------------5---------|----5---------5------------|
A|-------------6------5---------|----5-----------------3----|---------3-------5---------|
E|-------------------------3----|---------3-----------------|----------------------3----|
B|------------------------------|---------------------------|---------------------------|


G|---------------------------|--------------------|--------12---|---------------------------|
D|-5-------------------------|--------------------|-------------|-5------------5------------|
A|----5----------------------|--------------------|-------------|----5------------5---------|
E|---------3----1----1---1---|-6-----1----1----1--|-6-----------|---------3------------3----|
B|---------------------------|--------------------|-------------|---------------------------|


G|-5------------5------------|---------------------------|-5------------5------------|
D|----5------------5---------|-5------------5------------|----5------------5---------|
A|---------3------------3----|----5------------5---------|---------3------------3----|
E|---------------------------|---------3------------3----|---------------------------|
B|---------------------------|---------------------------|---------------------------|


G|---------------------------|-5------------5------------|---------------------------|
D|-5------------5------------|----5------------5---------|-5------------5------------|
A|----5------------5---------|---------3------------3----|----5------------5---------|
E|---------3------------3----|---------------------------|---------3------------3----|
B|---------------------------|---------------------------|---------------------------|


G|-5------------5---------------|----------------|--------------------|-------------|
D|----5------------5------------|----------------|--------------------|-------------|
A|---------3------------3---1---|----------------|--------------------|-------------|
E|------------------------------|-4------4--3----|-1----1----1--6-----|-------6-----|
B|------------------------------|----------------|--------------------|-------------|





Track 5: Tuba

G|--------|--------|--------|--------|--------|--------|--------|--------|--------|
D|--------|--------|--------|--------|--------|--------|--------|--------|--------|
A|--------|--------|--------|--------|--------|--------|--------|--------|--------|
E|--------|--------|--------|--------|--------|--------|--------|--------|--------|


G|--------|--------|-------5----5----|-3----3-----------------|----------3---5----5----|
D|--------|--------|-----------------|-----------6----6-------|-6----6-----------------|
A|--------|--------|-----------------|--------------------6---|------------------------|
E|--------|--------|-----------------|------------------------|------------------------|


G|-3----3--------------|---------------------------|---------------------|---------------------|
D|-----------6----6----|-6---5---3------------5----|------5--------------|----------------5----|
A|---------------------|-------------6-------------|----------------3----|------3--------------|
E|---------------------|---------------------------|---------------------|---------------------|


G|-----------------|--------|--------|--------|--------|--------|--------|--------|
D|------5----------|--------|--------|--------|--------|--------|--------|--------|
A|-----------------|--------|--------|--------|--------|--------|--------|--------|
E|-----------------|--------|--------|--------|--------|--------|--------|--------|


G|--------|-------5----5----|-3----3-----------------|----------3---5----5----|-3----3--------------|
D|--------|-----------------|-----------6----6-------|-6----6-----------------|-----------6----6----|
A|--------|-----------------|--------------------6---|------------------------|---------------------|
E|--------|-----------------|------------------------|------------------------|---------------------|


G|-----------------12-----------|-12-----------5------------|-5------------12-----------|
D|-6---5---3----------12--------|----12-----------5---------|----5------------12--------|
A|-------------6-----------10---|---------10-----------3----|---------3------------10---|
E|------------------------------|---------------------------|---------------------------|


G|-12-----------------|--------|--------|--------|--------|--------|--------|--------|
D|----12--------------|--------|--------|--------|--------|--------|--------|--------|
A|---------10---------|--------|--------|--------|--------|--------|--------|--------|
E|--------------------|--------|--------|--------|--------|--------|--------|--------|


G|--------|--------|--------|--------|--------|--------|
D|--------|--------|--------|--------|--------|--------|
A|--------|--------|--------|--------|--------|--------|
E|--------|--------|--------|--------|--------|--------|





Track 6: Glockenspiel

E|--------|--------|--------|--------|--------|--------|--------|--------|--------|
B|--------|--------|--------|--------|--------|--------|--------|--------|--------|
G|--------|--------|--------|--------|--------|--------|--------|--------|--------|
D|--------|--------|--------|--------|--------|--------|--------|--------|--------|
A|--------|--------|--------|--------|--------|--------|--------|--------|--------|
E|--------|--------|--------|--------|--------|--------|--------|--------|--------|


E|--------|--------|--------|--------|--------|--------|--------|--------|--------|
B|--------|--------|--------|--------|--------|--------|--------|--------|--------|
G|--------|--------|--------|--------|--------|--------|--------|--------|--------|
D|--------|--------|--------|--------|--------|--------|--------|--------|--------|
A|--------|--------|--------|--------|--------|--------|--------|--------|--------|
E|--------|--------|--------|--------|--------|--------|--------|--------|--------|


E|--------|--------|--------|-3--2---1--------------3--2---1--------------|-3--2---1--------------3--2---1--------------|
B|--------|--------|--------|--------------5--4--3---------------5--4--3--|--------------5--4--3---------------5--4--3--|
G|--------|--------|--------|---------------------------------------------|---------------------------------------------|
D|--------|--------|--------|---------------------------------------------|---------------------------------------------|
A|--------|--------|--------|---------------------------------------------|---------------------------------------------|
E|--------|--------|--------|---------------------------------------------|---------------------------------------------|


E|-3--2---1--------------3--2---1--------------|-3--2---1--------------3--2---1-------|
B|--------------5--4--3---------------5--4--3--|--------------5--4--3------------4----|
G|---------------------------------------------|--------------------------------------|
D|---------------------------------------------|--------------------------------------|
A|---------------------------------------------|--------------------------------------|
E|---------------------------------------------|--------------------------------------|


E|--------|--------|--------|--------|--------|--------|--------|--------|--------|
B|--------|--------|--------|--------|--------|--------|--------|--------|--------|
G|--------|--------|--------|--------|--------|--------|--------|--------|--------|
D|--------|--------|--------|--------|--------|--------|--------|--------|--------|
A|--------|--------|--------|--------|--------|--------|--------|--------|--------|
E|--------|--------|--------|--------|--------|--------|--------|--------|--------|


E|--------|--------|--------|-3--2---1--------------3--2---1--------------|-3--2---1--------------3--2---1--------------|
B|--------|--------|--------|--------------5--4--3---------------5--4--3--|--------------5--4--3---------------5--4--3--|
G|--------|--------|--------|---------------------------------------------|---------------------------------------------|
D|--------|--------|--------|---------------------------------------------|---------------------------------------------|
A|--------|--------|--------|---------------------------------------------|---------------------------------------------|
E|--------|--------|--------|---------------------------------------------|---------------------------------------------|


E|-3--2---1--------------3--2---1--------------|-3--2---1--------------3--2---1--------------|
B|--------------5--4--3---------------5--4--3--|--------------5--4--3---------------5--4--3--|
G|---------------------------------------------|---------------------------------------------|
D|---------------------------------------------|---------------------------------------------|
A|---------------------------------------------|---------------------------------------------|
E|---------------------------------------------|---------------------------------------------|


E|-3--2---1--------------3--2---1--------------|-3--2---1--------------3--2---1--------------|
B|--------------5--4--3---------------5--4--3--|--------------5--4--3---------------5--4--3--|
G|---------------------------------------------|---------------------------------------------|
D|---------------------------------------------|---------------------------------------------|
A|---------------------------------------------|---------------------------------------------|
E|---------------------------------------------|---------------------------------------------|


E|-3--2---1--------------3--2---1--------------|-3--2---1--------------3--2---1-------|
B|--------------5--4--3---------------5--4--3--|--------------5--4--3------------4----|
G|---------------------------------------------|--------------------------------------|
D|---------------------------------------------|--------------------------------------|
A|---------------------------------------------|--------------------------------------|
E|---------------------------------------------|--------------------------------------|


E|--------|--------|--------|
B|--------|--------|--------|
G|--------|--------|--------|
D|--------|--------|--------|
A|--------|--------|--------|
E|--------|--------|--------|





Track 7: Clarinet

E|--------|--------|--------|--------|--------|--------|--------|--------|--------|
B|--------|--------|--------|--------|--------|--------|--------|--------|--------|
G|--------|--------|--------|--------|--------|--------|--------|--------|--------|
D|--------|--------|--------|--------|--------|--------|--------|--------|--------|
A|--------|--------|--------|--------|--------|--------|--------|--------|--------|
E|--------|--------|--------|--------|--------|--------|--------|--------|--------|


E|--------|--------|--------|--------|--------|--------|--------|--------|--------|
B|--------|--------|--------|--------|--------|--------|--------|--------|--------|
G|--------|--------|--------|--------|--------|--------|--------|--------|--------|
D|--------|--------|--------|--------|--------|--------|--------|--------|--------|
A|--------|--------|--------|--------|--------|--------|--------|--------|--------|
E|--------|--------|--------|--------|--------|--------|--------|--------|--------|


E|--------|--------|--------|---------10----------------------|--------------------------------------|
B|--------|--------|--------|------------10-10-10-------------|--------------------------------------|
G|--------|--------|--------|----------------------10-10-10---|---------12-11-10---------------------|
D|--------|--------|--------|---------------------------------|------------------13--12-13-10--9--10-|
A|--------|--------|--------|---------------------------------|--------------------------------------|
E|--------|--------|--------|---------------------------------|--------------------------------------|


E|---------------------------------|-----------------------------------------------|
B|---------------------------------|-----------------------------------------------|
G|------------------12--11-12-10---|-----121312-121312-121312-121312-10-8----------|
D|-9----------4--5-----------------|---------------------------------------10--8---|
A|---------------------------------|-----------------------------------------------|
E|---------3-----------------------|-----------------------------------------------|


E|-------------|-------------|--------|--------|--------|--------|--------|--------|
B|-------------|-------------|--------|--------|--------|--------|--------|--------|
G|-------------|-------------|--------|--------|--------|--------|--------|--------|
D|-------------|-------------|--------|--------|--------|--------|--------|--------|
A|-11----------|-------------|--------|--------|--------|--------|--------|--------|
E|-------------|-------------|--------|--------|--------|--------|--------|--------|


E|--------|--------|--------|--------|-------------------------------|---------------------------------------------|
B|--------|--------|--------|--------|-------------------------------|---------------------------------------------|
G|--------|--------|--------|--------|-------------------------------|-------------12--10-9--8---------------------|
D|--------|--------|--------|--------|----------12-13-12--11-12-9----|----13-12-13---------------12-10-9--10-------|
A|--------|--------|--------|--------|-------------------------------|---------------------------------------10----|
E|--------|--------|--------|--------|-------------------------------|------------------------------------------11-|


E|----------------------------|-------------------------------------------|------------------------|
B|------------------15--------|----15-14-13-------------------------------|------------------------|
G|---------12-10-12-----------|-------------12-11-10-8--101210------------|------------------------|
D|----------------------------|--------------------------------10----10---|-12---12-13-14-15-15----|
A|----------------------------|-----------------------------------10------|------------------------|
E|-10-------------------------|-------------------------------------------|------------------------|


E|-----------------------------------|----------------------------------|---------------------------------------------|
B|-----------------------------------|-15---10-10---10------------------|-------15-15-13------------------------------|
G|---------10-11-12-12------12-11-12-|-----------------12-11-10---12----|----12----------12-11-10----------10---------|
D|-13---13---------------------------|----------------------------------|-------------------------13-10-13----10--8---|
A|-----------------------------------|----------------------------------|---------------------------------------------|
E|-----------------------------------|----------------------------------|---------------------------------------------|


E|-------------|-------------|-------------|
B|-------------|-------------|-------------|
G|-------------|-------------|-------------|
D|-------------|-------------|-------------|
A|-11----------|-------------|-------------|
E|-------------|-------------|-------------|