Menu:

 

Search:

 

suffocation - ornaments of decrepancy:

 



/---------------------------------------------------------------------------
/ The following is the author's own interpretation of the song, to be used -
/ for studying or private use only, removal of any part of this ten line   -
/ header is illegal!!!  Removal of the transcribers name or anything       -
/ relevant to the transcriber is also illegal, as so is the removal of the -
/ place inwhich the tab was downloaded. Publishing as well as printing of  -
/ the tab is illegal without permission of the transcriber and copyright   -
/ owner of the song. Failure to apply to these laws result will in legal   -
/ action from the appropriate parties.                                     -
/---------------------------------------------------------------------------

downloaded from Displacer's Tablature Site at
        http://www.dsrmusic.com/metaltab
join the death/black tab emailing list by filling out the free
subscription form at http://www.dsrmusic.com/metaltab/join.htm


#----------------------------------PLEASE NOTE---------------------------------#
#This file is the author's own work and represents their interpretation of the #
#song. You may only use this file for private study, scholarship, or research. #
#------------------------------------------------------------------------------#

  Visit MetalTabs.com for more metal tablature
  
=========================================================================================
Song: Ornaments of Decrepancy
Artist: Suffocation
Album: Breeding the Spawn (1993)

Tabbed by Chris Rezendes (dudemcrude@yahoo.com)
Date started tab: 2/27/02
Date finished tab: 2/27/02

Tuning: Db Gb B E Ab Db
Copy: Final (unless you show me an error)

Notation Key
~: vibrato
^: bend
.: palm mute
r: release
t: trill
p: pull-off
h: hammer-on
x: ghost note
/: slide up
\: slide down

Comments: This is probably my favorite song on this album.  Indeed, it is quite a
marvelous song.  It's funny how people who know nothing about music talk shit about death
metal, saying that death metal bands have no musical talent.  I've heard people say that
they "can't play their guitars".  People who say that have no right to talk about music
in any form, and I don't mean they shouldn't talk trash about musicians, I just mean they
should NEVER talk about music period, because they KNOW nothing about music.  Assholes.
This tab came out great, and if you feel otherwise, show me where I messed up and I will
fix it.  Later.

If you have any requests visit- http://groups.yahoo.com/group/realmetalmusicians/
=========================================================================================

Riff 1A x3
e|-------------------|-------------------|-------------------|-------------------|
B|-------------------|-------------------|-------------------|-------------------|
G|-------------------|-------------------|-------------------|-------------------|
D|-------------------|-------------------|-------------------|--5-4-----4-3------|
A|----------3--------|----------3--------|----------3--------|------3-2-----2-1--|
E|--2-3-4-5---5-4-3--|--2-3-4-5---5-4-3--|--2-3-4-5---5-4-3--|-------------------|

Riff 1B x1
e|-------------------|-------------------|-------------------|--------------|
B|-------------------|-------------------|-------------------|--------------|
G|-------------------|-------------------|-------------------|-----------3--|
D|-------------------|-------------------|-------------------|--4--3--4--1--|
A|----------3--------|----------3--------|----------3--------|--4--3--4--1--|
E|--2-3-4-5---5-4-3--|--2-3-4-5---5-4-3--|--2-3-4-5---5-4-3--|--2--1--2-----|

Riff 2 x1
e|---------------------------------|---------------------------------|
B|---------------------------------|---------------------------------|
G|---------------------------------|---------------------------------|
D|---------------------------------|---------------------------------|
A|--------------------------2---1--|--------------------------5---4--|
E|--222222-111111-333333--3---2----|--222222-111111-333333--6---5----|

e|---------------------------------|---------------------------------|
B|---------------------------------|---------------------------------|
G|---------------------------------|---------------------------------|
D|---------------------------------|---------------------------------|
A|--------------------------2---1--|------------------------5---4----|
E|--222222-111111-333333--3---2----|--222222-111111-333333----6---5--|

e|---------------------------------|---------------------------------|
B|---------------------------------|---------------------------------|
G|---------------------------------|---------------------------------|
D|---------------------------------|---------------------------------|
A|--------------------------2---1--|--------------------------5---4--|
E|--222222-111111-333333--3---2----|--222222-111111-333333--6---5----|

e|---------------------------------|-----------------|
B|---------------------------------|-----------------|
G|---------------------------------|-----------------|
D|---------------------------------|-----------------|
A|--------------------------2---1--|-----------------|
E|--222222-111111-333333--3---2----|--222222-111111--|

Fill 1 x1
e|-----------|-----------|-----------|-----------|-----|------------------|
B|-----------|-----------|-----------|-----------|-----|------------------|
G|-----------|-----------|-----------|-----------|-----|------------------|
D|-----------|-----------|--4---3----|-----------|--4--|------------------|
A|--2---1----|--5---4----|----2---2--|--4---3----|--4--|------------------|
E|----0---0--|----3---3--|-----------|----2---2--|--2--|--2-0-1-0-3-2-6~--|

Riff 2 x2
e|------------------------------|----------------|----------------|
B|------------------------------|----------------|----------------|
G|------------------------------|----------------|----------------|
D|----5-4----5-4----5-4----5-4--|----4-3----4-3--|----------------|
A|--2------2------2------2------|--2------2------|----5-4----2-1--|
E|------------------------------|----------------|--2------2------|

e|------------------------------|----------------|----------------|
B|------------------------------|----------------|----------------|
G|------------------------------|----------------|----------------|
D|----5-4----5-4----5-4----4-3--|----4-3---------|----------------|
A|--2------2------2------2------|--2--------4-5--|----5-4----2-1--|
E|------------------------------|---------2------|--2------2------|

Riff 3A x1 (Death is more severe for those vulnerable and weak...)
e|-------------------|-------------------|-------------------|-------------------|
B|-------------------|-------------------|-------------------|-------------------|
G|-------------------|-------------------|-------------------|-------------------|
D|------555-444------|------444-333------|------333-222------|------555-444------|
A|--222---------222--|--333---------333--|--555---------555--|--333---------333--|
E|-------------------|-------------------|-------------------|-------------------|

e|-------------------|-------------------|-------------------|-------------------|
B|-------------------|-------------------|-------------------|-------------------|
G|-------------------|-------------------|-------------------|-------------------|
D|------555-444------|------444-333------|------333-222------|-------------------|
A|--222---------222--|--333---------333--|--555---------555--|-------------------|
E|-------------------|-------------------|-------------------|--3-2-0-2-6-5-3-5--|
                                                                . . . . . . . .

Riff 3B x1
e|-------------------|-------------------|-------------------|-------------------|
B|-------------------|-------------------|-------------------|-------------------|
G|-------------------|-------------------|-------------------|-------------------|
D|-------------------|-------------------|-------------------|-------------------|
A|-------------------|-------------------|-------------------|-------------------|
E|--222-666-555-222--|--333-555-444-111--|--222-555-444-222--|--333-666-555-333--|

e|-------------------|-------------------|-------------------|--------------|
B|-------------------|-------------------|-------------------|--------------|
G|-------------------|-------------------|-------------------|-----------6--|
D|-------------------|-------------------|-------------------|--4--5--4--6--|
A|-------------------|-------------------|-------------------|--4--5--4--4--|
E|--222-666-555-222--|--333-555-444-111--|--222-555-444-222--|--2--3--2-----|

Riff 4 x1 (I know to kill once will lead to killing again...)
e|------------------|-------------------|------------------|-----------------|
B|------------------|-------------------|------------------|--------------4--|
G|------------------|-------------------|------------------|------------2----|
D|------------------|------------3---2--|------------------|--4-2-1-2-3------|
A|------------------|-------------------|------------------|-----------------|
E|--1-0-1-2-333333--|--1-0-1-2-3---0----|--1-0-1-2-333333--|-----------------|

e|------------------|-------------------|------------------|-------------------|
B|------------------|-------------------|------------------|-------------------|
G|------------------|-------------------|------------------|--6-------5--------|
D|------------------|------------3---2--|------------------|----5---4---4---3--|
A|------------------|-------------------|------------------|------4-------3----|
E|--1-0-1-2-333333--|--1-0-1-2-3---0----|--1-0-1-2-333333--|-------------------|

e|------------------|-------------------|------------------|-----------------|
B|------------------|-------------------|------------------|--------------4--|
G|------------------|-------------------|------------------|------------2----|
D|------------------|------------3---2--|------------------|--4-2-1-2-3------|
A|------------------|-------------------|------------------|-----------------|
E|--1-0-1-2-333333--|--1-0-1-2-3---0----|--1-0-1-2-333333--|-----------------|

e|------------------|-------------------|------------------|-------------------|
B|------------------|-------------------|------------------|-------------------|
G|------------------|-------------------|------------------|--6----------------|
D|------------------|------------3---2--|------------------|----5---5---4---3--|
A|------------------|-------------------|------------------|------4---5---4----|
E|--1-0-1-2-333333--|--1-0-1-2-3---0----|--1-0-1-2-333333--|-------------------|

e|-------------------|-------------------|-----|
B|-------------------|-------------------|-----|
G|--5----------------|-------------------|--3--|
D|----4---4---3---2--|----3---2-4--------|--3--|
A|------3---4---3----|--4---3-----3---3--|--1--|
E|-------------------|--------------4----|-----|

Fig. 1 x1
e|--------------------------|-------------------------|--------------|
B|--------------------------|-------------------------|--------------|
G|--------------------------|-------------------------|--------------|
D|--3-2-------3-2-----------|--5--4--3--2/1-1---------|----------7~--|
A|--3-2----3--3-2----3---2--|--5--4--3-----------3-2--|--4-4-4-4-----|
E|--1-0--4----1-0--4---3----|--3--2--1---------3------|--2-2-2-2-----|

e|--------------------------|-------------|----------------------------------|
B|--------------------------|-------------|----------------------------------|
G|--------------------------|-------------|----------------------------------|
D|--3-2-------3-2-----------|--5--4----3--|----------------------------------|
A|--3-2----3--3-2----3---2--|--5----3--3--|--------6/11--11\10--10\8---10-9--|
E|--1-0--4----1-0--4---3----|--3-------1--|--6/7-7-------------------7-------|

e|------------------|--------------------------|-------------------------|--------------|
B|------------------|--------------------------|-------------------------|--------------|
G|------------------|--------------------------|-------------------------|--------------|
D|----------7~---6~-|--3-2-------3-2-----------|--5--4--3--2/1-1---------|----------7~--|
A|--6-6-6-6----5----|--3-2----3--3-2----3---2--|--5--4--3-----------3-2--|--4-4-4-4-----|
E|--4-4-4-4----3----|--1-0--4----1-0--4---3----|--3--2--1---------3------|--2-2-2-2-----|

e|--------------------------|-------------|-------------------------------------|
B|--------------------------|-------------|-------------------------------------|
G|--------------------------|-------------|-------------------------------------|
D|--3-2-------3-2-----------|--5--4----3--|-------------------------------------|
A|--3-2----3--3-2----3---2--|--5----3--3--|--------6/11--11\10--10\8---10-9--8--|
E|--1-0--4----1-0--4---3----|--3-------1--|--6/7-7-------------------7----------|

Riff 5A x1 (...for unsuspecting wanderers to reveal...)
e|-------------------------|-----------------------------------|
B|-------------------------|-----------------------------------|
G|-------------------------|-----------------------------------|
D|-------------------------|-----------------------------------|
A|--666666-555555-----7t8--|--555-444---------444-333----------|
E|----------------5-6------|----------333-222---------222-111--|

e|--------------------------|-----------------------------------|
B|--------------------------|-----------------------------------|
G|--------------------------|-----------------------------------|
D|--------------------------|--------------222-111-----111-000--|
A|--444444-333333------5t6--|--333-222-333---------222----------|
E|----------------3-4-------|-----------------------------------|

e|-------------------------|-----------------------------------|
B|-------------------------|-----------------------------------|
G|-------------------------|-----------------------------------|
D|-------------------------|--------------------------333-222--|
A|--666666-555555-----7t8--|--555-444---------444-333----------|
E|----------------5-6------|----------333-222------------------|

e|-----------------------|-----------------------------------|-------------------------|
B|-----------------------|-----------------------------------|-------------------------|
G|-----------------------|--------------------------444-333--|-------------------------|
D|-----------------------|----------------------222----------|-------------------------|
A|--44444-33333-----6-5--|--222-111-666-555-333--------------|--666666-555555-----7t8--|
E|--------------3-4------|-----------------------------------|----------------5-6------|
                . . . .

e|-----------------------------------|--------------------------|
B|-----------------------------------|--------------------------|
G|-----------------------------------|--------------------------|
D|-----------------------------------|--------------------------|
A|--555-444---------444-333----------|--444444-333333------5t6--|
E|----------333-222---------222-111--|----------------3-4-------|

e|-----------------------------------|-------------------------|
B|-----------------------------------|-------------------------|
G|-----------------------------------|-------------------------|
D|--------------222-111-----111-000--|-------------------------|
A|--333-222-333---------222----------|--666666-555555-----7t8--|
E|-----------------------------------|----------------5-6------|

e|-----------------------------------|--------------------------|
B|-----------------------------------|--------------------------|
G|-----------------------------------|--------------------------|
D|--------------------------333-222--|--------------------------|
A|--555-444---------444-333----------|--444444-333333-----6-5---|
E|----------333-222------------------|----------------3-4-------|
                                                      . . . .

e|-------------------------------|
B|-------------------------------|
G|-------------------------------|
D|-------------------7--6--5--6--|
A|--222-111-666-555--7--6--5--6--|
E|-------------------5--4--3--4--|
                     .  .  .  .

Riff 6 x4
e|---------------|---------------|-------------------------|
B|---------------|---------------|-------------------------|
G|---------------|---------------|-------------------------|
D|------3---4----|------3---4----|------4---5---6---6------|
A|---------------|---------------|-------------------------|
E|--1-1---1---2--|--1-1---1---2--|--2-2---2---3---4---4-3--|

Riff 7A x1 (under solo)
e|---------------------------|
B|---------------------------|
G|---------------------------|
D|---------------------------|
A|----------------------4-4--|
E|--111111-2-111111-2-1-2-2--|

Riff 7B x3
e|-------------------------------------|------------------|
B|-------------------------------------|------------------|
G|-------------------------------------|------------------|
D|-------------------------------------|------------------|
A|-------------------------------------|-------------4-4--|
E|--111111-3-2-000-1-0-111111-3-2-1-2--|--111111-2-1-2-2--|

Riff 7C x1
e|------------------------|
B|------------------------|
G|------------------------|
D|-------------2-----1----|
A|---------------3-----3--|
E|--111111-3-2-----4------|

Riff 6 x4 (I often thought of dismemberment...)
e|---------------|---------------|-------------------------|
B|---------------|---------------|-------------------------|
G|---------------|---------------|-------------------------|
D|------3---4----|------3---4----|------4---5---6---6------|
A|---------------|---------------|-------------------------|
E|--1-1---1---2--|--1-1---1---2--|--2-2---2---3---4---4-3--|

Fig. 2 x2
e|--------------------------------|-----------------------------------------|
B|--------------------------------|-----------------------------------------|
G|--------------------------------|----------------4-5-4-3-4-3--------------|
D|--3-4-4--3-4-4--3-4-4--6-5--3~--|--3-4-4--3-4-4--------------6-7-6-4-6-5--|
A|--3-4-4--3-4-4--3-4-4--6-5------|--3-4-4--3-4-4---------------------------|
E|--1-2-2--1-2-2--1-2-2--4-3------|--1-2-2--1-2-2---------------------------|

e|--------------------------------|------------------------------------|
B|--------------------------------|------------------------------------|
G|--------------------------------|------------------------------------|
D|--3-4-4--3-4-4--3-4-4--6-5--3~--|--3-4-4--3-4-4--6-5t6--6-5--3t4--5--|
A|--3-4-4--3-4-4--3-4-4--6-5------|--3-4-4--3-4-4--6------6-5-------5--|
E|--1-2-2--1-2-2--1-2-2--4-3------|--1-2-2--1-2-2--4------4-3-------3--|

Riff 5B x1
e|-------------------------|-----------------------------------|
B|-------------------------|-----------------------------------|
G|-------------------------|-----------------------------------|
D|-------------------------|-----------------------------------|
A|--666666-555555-----7t8--|--555-444---------444-333----------|
E|----------------5-6------|----------333-222---------222-111--|

e|--------------------------|-----------------------------------|
B|--------------------------|-----------------------------------|
G|--------------------------|-----------------------------------|
D|--------------------------|--------------222-111-----111-000--|
A|--444444-333333------6t7--|--333-222-333---------222----------|
E|----------------4-5-------|-----------------------------------|

e|-------------------------|-----------------------------------|
B|-------------------------|-----------------------------------|
G|-------------------------|-----------------------------------|
D|-------------------------|--------------------------333-222--|
A|--666666-555555-----8t9--|--555-444---------444-333----------|
E|----------------6-7------|----------333-222------------------|

e|-----------------------------------|-------------------------|
B|-----------------------------------|-------------------------|
G|-----------------------------------|-------------------------|
D|--------------------------333-222--|-------------------------|
A|--555-444---------444-333----------|--444444-333333-----7-6--|
E|----------333-222------------------|----------------4-5------|
                                                      . . . .

Riff 7 x1 (It's only getting worse...)
e|------------------------------------------------------------------|
B|------------------------------------------------------------------|
G|-------------------------------------------------------------666--|
D|--777777-------------------------888-777-----777---------777------|
A|---------777-888---------777-888---------888-----777-888----------|
E|-----------------555-666------------------------------------------|

e|------------------------------------------------------------------|
B|------------------------------------------------------------------|
G|-------------------------------------------------------------111--|
D|--444444-------------------------555-444-----444---------333------|
A|---------444-555---------444-555---------555-----444-555----------|
E|-----------------222-333------------------------------------------|

e|------------------------------------------------------------------|
B|-------------------------------------------------------------555--|
G|---------------------------------------------------------666------|
D|--777777-------------------------888-777-----777-----777----------|
A|---------777-888---------777-888---------888-----888--------------|
E|-----------------555-666------------------------------------------|

e|----------------------------------------------------------------|
B|----------------------------------------------------------------|
G|----------------------------------------------------------------|
D|--444444-------------------------555-444-----444-333------3--2--|
A|---------444-555---------444-555---------555---------444--3--2--|
E|-----------------222-333----------------------------------1--0--|

  Visit MetalTabs.com for more metal tablature