Menu:

 

Search:

 

stone temple pilots - wicked garden:

 



Title: Wicked Garden
Artist: 
Album: Core
Author: 


Track 1: Guitar 1

E|-3----2--2---3---3-----|-3----2--2---0---0-----|-3----2--2---3---3-----|-3----2--2---0---0-----|
B|-3----3--3---3---3-----|-3----3--3---2---2-----|-3----3--3---3---3-----|-3----3--3---2---2-----|
G|-0----2--2---2---2-----|-0----2--2---2---2-----|-0----2--2---2---2-----|-0----2--2---2---2-----|
D|-0----0--0---2---2-----|-0----0--0---2---2-----|-0----0--0---2---2-----|-0----0--0---2---2-----|
A|-2-----------0---0-----|-2-----------0---0-----|-2-----------0---0-----|-2-----------0---0-----|
E|-3---------------------|-3---------------------|-3---------------------|-3---------------------|


E|-----------------------------------------------|-----------------------------------------------|
B|-----------------------------------------------|-----------------------------------------------|
G|-----------------------------------------------|-----------------------------------------------|
D|-5--7--------7--------7-----7--------7--5--5---|-5--7--------7--------7-----7--------7--5--5---|
A|-5--7--------7--------7-----7--------7--5--5---|-5--7--------7--------7-----7--------7--5--5---|
E|-3--5--5--5--5--5--5--5--5--5--5--5--5--3--3---|-3--5--5--5--5--5--5--5--5--5--5--5--5--3--3---|


E|-----------------------------------------------|-----------------------------------------------|
B|-----------------------------------------------|-----------------------------------------------|
G|-----------------------------------------------|-----------------------------------------------|
D|-5--7--------7--------7-----7--------7--5--5---|-5--7--------7--------7-----7--------7--5--5---|
A|-5--7--------7--------7-----7--------7--5--5---|-5--7--------7--------7-----7--------7--5--5---|
E|-3--5--5--5--5--5--5--5--5--5--5--5--5--3--3---|-3--5--5--5--5--5--5--5--5--5--5--5--5--3--3---|


E|---------------------------------------------|---------------------------------------------|
B|---------------------------------------------|---------------------------------------------|
G|-------------------------------------7---6---|-------------------------------------7---6---|
D|-5--7--7--7--7--7--7--7--7--7--7--7--7---7---|-5--7--7--7--7--7--7--7--7--7--7--7--7---7---|
A|-0--0--0--0--0--0--0--0--0--0--0--0--0---0---|-0--0--0--0--0--0--0--0--0--0--0--0--0---0---|
E|---------------------------------------------|---------------------------------------------|


E|---------------------------------------------|-----------------------------------------------|
B|---------------------------------------------|-----------------------------------------------|
G|-------------------------------------7---6---|-----------------------------------------------|
D|-5--7--7--7--7--7--7--7--7--7--7--7--7---7---|-5--7--7--7--7--7--7--7--7--7--7-----7--5--5---|
A|-0--0--0--0--0--0--0--0--0--0--0--0--0---0---|-0--0--0--0--0--0--0--0--0--0--0--0--7--5--5---|
E|---------------------------------------------|-------------------------------------5--3--3---|


E|-----------------------------------------------|-----------------------------------------------|
B|-----------------------------------------------|-----------------------------------------------|
G|-----------------------------------------------|-----------------------------------------------|
D|-5--7--------7--------7-----7--------7--5--5---|-5--7--------7--------7-----7--------7--5--5---|
A|-5--7--------7--------7-----7--------7--5--5---|-5--7--------7--------7-----7--------7--5--5---|
E|-3--5--5--5--5--5--5--5--5--5--5--5--5--3--3---|-3--5--5--5--5--5--5--5--5--5--5--5--5--3--3---|


E|-----------------------------------------------|-----------------------------------------------|
B|-----------------------------------------------|-----------------------------------------------|
G|-----------------------------------------------|-----------------------------------------------|
D|-5--7--------7--------7-----7--------7--5--5---|-5--7--------7--------7-----7--------7--5--5---|
A|-5--7--------7--------7-----7--------7--5--5---|-5--7--------7--------7-----7--------7--5--5---|
E|-3--5--5--5--5--5--5--5--5--5--5--5--5--3--3---|-3--5--5--5--5--5--5--5--5--5--5--5--5--3--3---|


E|---------------------------------------------|---------------------------------------------|
B|---------------------------------------------|---------------------------------------------|
G|-------------------------------------7---6---|-------------------------------------7---6---|
D|-5--7--7--7--7--7--7--7--7--7--7--7--7---7---|-5--7--7--7--7--7--7--7--7--7--7--7--7---7---|
A|-0--0--0--0--0--0--0--0--0--0--0--0--0---0---|-0--0--0--0--0--0--0--0--0--0--0--0--0---0---|
E|---------------------------------------------|---------------------------------------------|


E|---------------------------------------------|-----------------------------------------------|
B|---------------------------------------------|-----------------------------------------------|
G|-------------------------------------7---6---|-----------------------------------------------|
D|-5--7--7--7--7--7--7--7--7--7--7--7--7---7---|-5--7--7--7--7--7--7--7--7--7--7-----7--5--5---|
A|-0--0--0--0--0--0--0--0--0--0--0--0--0---0---|-0--0--0--0--0--0--0--0--0--0--0--0--7--5--5---|
E|---------------------------------------------|-------------------------------------5--3--3---|


E|-----------------------------------------------|-----------------------------------------------|
B|-----------------------------------------------|-----------------------------------------------|
G|-----------------------------------------------|-----------------------------------------------|
D|-5--7--------7--------7-----7--------7--5--5---|-5--7--------7--------7-----7--------7--5--5---|
A|-5--7--------7--------7-----7--------7--5--5---|-5--7--------7--------7-----7--------7--5--5---|
E|-3--5--5--5--5--5--5--5--5--5--5--5--5--3--3---|-3--5--5--5--5--5--5--5--5--5--5--5--5--3--3---|


E|-----------------------------------------------|-------------------------------------------------|
B|-----------------------------------------------|-------------------------------------------------|
G|-----------------------------------------------|-------------------------------------------------|
D|-5--7--------7--------7-----7--------7--5--5---|-5--7--------7--------7-----7--------7--5--5--4--|
A|-5--7--------7--------7-----7--------7--5--5---|-5--7--------7--------7-----7--------7--5--5--4--|
E|-3--5--5--5--5--5--5--5--5--5--5--5--5--3--3---|-3--5--5--5--5--5--5--5--5--5--5--5--5--3--3--2--|


E|----------------------------------------|-------------------------------------------|
B|--------------------3--3----3--3--------|-------------------------------------------|
G|--------------------2--2----2--2-----4--|-4-----4---4--4---4--4--4--4---4--4--4-----|
D|-4-----4------4-----0--0----0--0-----4--|-4-----4---4--4---4--4--4--4---4--4--4--4--|
A|-4-----4------4-------------------0--2--|-2--0--2---0--2---2--2--0--2---0--2--0--4--|
E|-2--0--2---0--2--0----------------------|----------------------------------------2--|


E|----------------------------------------|-------------------------------------------|
B|--------------------3--3----3--3--------|-------------------------------------------|
G|--------------------2--2----2--2-----4--|-4-----4---4--4---4--4--4--4---4--4--4-----|
D|-4-----4------4-----0--0----0--0-----4--|-4-----4---4--4---4--4--4--4---4--4--4--4--|
A|-4-----4------4-------------------0--2--|-2--0--2---0--2---2--2--0--2---0--2--0--4--|
E|-2--0--2---0--2--0----------------------|----------------------------------------2--|


E|----------------------------------------|-------------------------------------------|
B|--------------------3--3----3--3--------|-------------------------------------------|
G|--------------------2--2----2--2-----4--|-4-----4---4--4---4--4--4--4---4--4--4-----|
D|-4-----4------4-----0--0----0--0-----4--|-4-----4---4--4---4--4--4--4---4--4--4--4--|
A|-4-----4------4-------------------0--2--|-2--0--2---0--2---2--2--0--2---0--2--0--4--|
E|-2--0--2---0--2--0----------------------|----------------------------------------2--|


E|----------------------------------|-------------------------------------|---------------------------------------|
B|------------------3--3----3----9--|-----9---9--9---9--9--9--9---9--9----|-9---9---9--9---9--9-------------------|
G|------------------2--2----2----7--|-----7---7--7---7--7--7--7---7--7----|-7---7---7--7---7--7-------------------|
D|-4-----4------4---0--0----0----6--|-----6---6--6---6--6--6--6---6--6----|-6---6---6--6---6--6----------------5--|
A|-4-----4------4----------------7--|-----7---7--7---7--7--7--7---7--7----|-7---7---7--7---7--7----------------5--|
E|-2--0--2---0--2-------------------|-0-----------------------------------|------------------------------------3--|


E|---------------------------------------------|---------------------------------------------|
B|---------------------------------------------|---------------------------------------------|
G|---------------------------------------------|---------------------------------------------|
D|-5--5--4---5---4--5-----7-----7--------4--5--|-5--5--4---5---4--5-----7-----7-----4--4--5--|
A|-5--5--4---5---4--5-----7-----7--------4--5--|-5--5--4---5---4--5-----7-----7-----4--4--5--|
E|-3--3--2---3---2--3-----5-----5-----0--2--3--|-3--3--2---3---2--3-----5-----5-----2--2--3--|


E|---------------------------------------------|---------------------------------------------|
B|---------------------------------------------|---------------------------------------------|
G|---------------------------------------------|---------------------------------------------|
D|-5--5--4---5---4--5-----7-----7--------4--5--|-5--5--4---5---4--5-----7-----7-----4--4--5--|
A|-5--5--4---5---4--5-----7-----7--------4--5--|-5--5--4---5---4--5-----7-----7-----4--4--5--|
E|-3--3--2---3---2--3-----5-----5-----0--2--3--|-3--3--2---3---2--3-----5-----5-----2--2--3--|


E|---------------------------------------------|---------------------------------------------|
B|---------------------------------------------|---------------------------------------------|
G|---------------------------------------------|---------------------------------------------|
D|-5--5--4---5---4--5-----7-----7--------4--5--|-5--5--4---5---4--5-----7-----7-----4--4--5--|
A|-5--5--4---5---4--5-----7-----7--------4--5--|-5--5--4---5---4--5-----7-----7-----4--4--5--|
E|-3--3--2---3---2--3-----5-----5-----0--2--3--|-3--3--2---3---2--3-----5-----5-----2--2--3--|


E|---------------------------------------------|-----------------------------------------|
B|---------------------------------------------|-----------------------------------------|
G|---------------------------------------------|-----------------------------------------|
D|-5--5--4---5---4--5-----7-----7--------4--5--|-5--5--4---5-----4--7--7--------------5--|
A|-5--5--4---5---4--5-----7-----7--------4--5--|-5--5--4---5-----4--7--7--------------5--|
E|-3--3--2---3---2--3-----5-----5-----0--2--3--|-3--3--2---3-----2--5--5--------------3--|


E|-----------------------------------------------|-----------------------------------------------|
B|-----------------------------------------------|-----------------------------------------------|
G|-----------------------------------------------|-----------------------------------------------|
D|-5--7--------7--------7-----7--------7--5--5---|-5--7--------7--------7-----7--------7--5--5---|
A|-5--7--------7--------7-----7--------7--5--5---|-5--7--------7--------7-----7--------7--5--5---|
E|-3--5--5--5--5--5--5--5--5--5--5--5--5--3--3---|-3--5--5--5--5--5--5--5--5--5--5--5--5--3--3---|


E|-----------------------------------------------|-----------------------------------------------|
B|-----------------------------------------------|-----------------------------------------------|
G|-----------------------------------------------|-----------------------------------------------|
D|-5--7--------7--------7-----7--------7--5--5---|-5--7--------7--------7-----7--------7--5--5---|
A|-5--7--------7--------7-----7--------7--5--5---|-5--7--------7--------7-----7--------7--5--5---|
E|-3--5--5--5--5--5--5--5--5--5--5--5--5--3--3---|-3--5--5--5--5--5--5--5--5--5--5--5--5--3--3---|


E|---------------------------------------------|---------------------------------------------|
B|---------------------------------------------|---------------------------------------------|
G|-------------------------------------7---6---|-------------------------------------7---6---|
D|-5--7--7--7--7--7--7--7--7--7--7--7--7---7---|-5--7--7--7--7--7--7--7--7--7--7--7--7---7---|
A|-0--0--0--0--0--0--0--0--0--0--0--0--0---0---|-0--0--0--0--0--0--0--0--0--0--0--0--0---0---|
E|---------------------------------------------|---------------------------------------------|


E|---------------------------------------------|-----------------------------------------------|
B|---------------------------------------------|-----------------------------------------------|
G|-------------------------------------7---6---|-----------------------------------------------|
D|-5--7--7--7--7--7--7--7--7--7--7--7--7---7---|-5--7--7--7--7--7--7--7--7--7--7-----7--5--5---|
A|-0--0--0--0--0--0--0--0--0--0--0--0--0---0---|-0--0--0--0--0--0--0--0--0--0--0--0--7--5--5---|
E|---------------------------------------------|-------------------------------------5--3--3---|


E|-----------------------------------------------|-----------------------------------------------|
B|-----------------------------------------------|-----------------------------------------------|
G|-----------------------------------------------|-----------------------------------------------|
D|-5--7--------7--------7-----7--------7--5--5---|-5--7--------7--------7-----7--------7--5--5---|
A|-5--7--------7--------7-----7--------7--5--5---|-5--7--------7--------7-----7--------7--5--5---|
E|-3--5--5--5--5--5--5--5--5--5--5--5--5--3--3---|-3--5--5--5--5--5--5--5--5--5--5--5--5--3--3---|


E|-----------------------------------------------|-------------------------------------------------|
B|-----------------------------------------------|-------------------------------------------------|
G|-----------------------------------------------|-------------------------------------------------|
D|-5--7--------7--------7-----7--------7--5--5---|-5--7--------7--------7-----7--------7--5--5--4--|
A|-5--7--------7--------7-----7--------7--5--5---|-5--7--------7--------7-----7--------7--5--5--4--|
E|-3--5--5--5--5--5--5--5--5--5--5--5--5--3--3---|-3--5--5--5--5--5--5--5--5--5--5--5--5--3--3--2--|


E|----------------------------------------|-------------------------------------------|
B|--------------------3--3----3--3--------|-------------------------------------------|
G|--------------------2--2----2--2-----4--|-4-----4---4--4---4--4--4--4---4--4--4-----|
D|-4-----4------4-----0--0----0--0-----4--|-4-----4---4--4---4--4--4--4---4--4--4--4--|
A|-4-----4------4-------------------0--2--|-2--0--2---0--2---2--2--0--2---0--2--0--4--|
E|-2--0--2---0--2--0----------------------|----------------------------------------2--|


E|----------------------------------------|-------------------------------------------|
B|--------------------3--3----3--3--------|-------------------------------------------|
G|--------------------2--2----2--2-----4--|-4-----4---4--4---4--4--4--4---4--4--4-----|
D|-4-----4------4-----0--0----0--0-----4--|-4-----4---4--4---4--4--4--4---4--4--4--4--|
A|-4-----4------4-------------------0--2--|-2--0--2---0--2---2--2--0--2---0--2--0--4--|
E|-2--0--2---0--2--0----------------------|----------------------------------------2--|


E|----------------------------------------|-------------------------------------------|
B|--------------------3--3----3--3--------|-------------------------------------------|
G|--------------------2--2----2--2-----4--|-4-----4---4--4---4--4--4--4---4--4--4-----|
D|-4-----4------4-----0--0----0--0-----4--|-4-----4---4--4---4--4--4--4---4--4--4--4--|
A|-4-----4------4-------------------0--2--|-2--0--2---0--2---2--2--0--2---0--2--0--4--|
E|-2--0--2---0--2--0----------------------|----------------------------------------2--|


E|----------------------------------|-------------------------------------|-----------------------------------------|
B|------------------3--3----3----9--|-----9---9--9---9--9--9--9---9--9----|-9---9---9--9--9--9--9---9---9--9--9--9--|
G|------------------2--2----2----7--|-----7---7--7---7--7--7--7---7--7----|-7---7---7--7--7--7--7---7---7--7--7--7--|
D|-4-----4------4---0--0----0----6--|-----6---6--6---6--6--6--6---6--6----|-6---6---6--6--6--6--6---6---6--6--6--6--|
A|-4-----4------4----------------7--|-----7---7--7---7--7--7--7---7--7----|-7---7---7--7--7--7--7---7---7--7--7--7--|
E|-2--0--2---0--2-------------------|-0-----------------------------------|-----------------------------------------|


E|-----------------------------------------|----------------------------------|---------------------------------------------|
B|-9---9---9--9--9--9--9---9---9--9--9--9--|-9---9---9--9--9--9--9----9-------|---------------------------------------------|
G|-7---7---7--7--7--7--7---7---7--7--7--7--|-7---7---7--7--7--7--7----7-------|---------------------------------------------|
D|-6---6---6--6--6--6--6---6---6--6--6--6--|-6---6---6--6--6--6--6----6----5--|-5--5--4---5---4--5-----7-----7--------4--5--|
A|-7---7---7--7--7--7--7---7---7--7--7--7--|-7---7---7--7--7--7--7----7----5--|-5--5--4---5---4--5-----7-----7--------4--5--|
E|-----------------------------------------|-------------------------------3--|-3--3--2---3---2--3-----5-----5-----0--2--3--|


E|---------------------------------------------|---------------------------------------------|
B|---------------------------------------------|---------------------------------------------|
G|---------------------------------------------|---------------------------------------------|
D|-5--5--4---5---4--5-----7-----7-----4--4--5--|-5--5--4---5---4--5-----7-----7--------4--5--|
A|-5--5--4---5---4--5-----7-----7-----4--4--5--|-5--5--4---5---4--5-----7-----7--------4--5--|
E|-3--3--2---3---2--3-----5-----5-----2--2--3--|-3--3--2---3---2--3-----5-----5-----0--2--3--|


E|---------------------------------------------|---------------------------------------------|
B|---------------------------------------------|---------------------------------------------|
G|---------------------------------------------|---------------------------------------------|
D|-5--5--4---5---4--5-----7-----7-----4--4--5--|-5--5--4---5---4--5-----7-----7--------4--5--|
A|-5--5--4---5---4--5-----7-----7-----4--4--5--|-5--5--4---5---4--5-----7-----7--------4--5--|
E|-3--3--2---3---2--3-----5-----5-----2--2--3--|-3--3--2---3---2--3-----5-----5-----0--2--3--|


E|---------------------------------------------|---------------------------------------------|
B|---------------------------------------------|---------------------------------------------|
G|---------------------------------------------|---------------------------------------------|
D|-5--5--4---5---4--5-----7-----7-----4--4--5--|-5--5--4---5---4--5-----7-----7--------4--5--|
A|-5--5--4---5---4--5-----7-----7-----4--4--5--|-5--5--4---5---4--5-----7-----7--------4--5--|
E|-3--3--2---3---2--3-----5-----5-----2--2--3--|-3--3--2---3---2--3-----5-----5-----0--2--3--|


E|---------------------------------------------|-3----2--2---3---3-----|-3----2--2---0---0-----|
B|---------------------------------------------|-3----3--3---3---3-----|-3----3--3---2---2-----|
G|---------------------------------------------|-0----2--2---2---2-----|-0----2--2---2---2-----|
D|-5--5--4---5---4--5-----7-----7--------4-----|-0----0--0---2---2-----|-0----0--0---2---2-----|
A|-5--5--4---5---4--5-----7-----7--------4-----|-2-----------0---0-----|-2-----------0---0-----|
E|-3--3--2---3---2--3-----5-----5-----0--2--0--|-3---------------------|-3---------------------|


E|-3----2--2---3---3-----|-3----2--2---0---0-----|-0------|-0------|-------------|
B|-3----3--3---3---3-----|-3----3--3---2---2-----|-2------|-2------|-------------|
G|-0----2--2---2---2-----|-0----2--2---2---2-----|-2------|-2------|-------------|
D|-0----0--0---2---2-----|-0----0--0---2---2-----|-2------|-2------|-------------|
A|-2-----------0---0-----|-2-----------0---0-----|-0------|-0------|-------------|
E|-3---------------------|-3---------------------|--------|--------|-------------|





Track 2: Guitar 2

E|-3---------------------|-3---------------------|-3---------------------|-3---------------------|
B|-3----3--3-------------|-3----3--3-------------|-3----3--3-------------|-3----3--3-------------|
G|-0----2--2---2---2-----|-0----2--2---2---2-----|-0----2--2---2---2-----|-0----2--2---2---2-----|
D|-0----0--0---2---2-----|-0----0--0---2---2-----|-0----0--0---2---2-----|-0----0--0---2---2-----|
A|-2-----------0---0-----|-2-----------0---0-----|-2-----------0---0-----|-2-----------0---0-----|
E|-3---------------------|-3---------------------|-3---------------------|-3---------------------|


E|--------|--------|--------|--------|--------|--------|--------|-----------------------|
B|--------|--------|--------|--------|--------|--------|--------|-----------------------|
G|--------|--------|--------|--------|--------|--------|--------|----------2--2--0--0---|
D|--------|--------|--------|--------|--------|--------|--------|----------2--2--0--0---|
A|--------|--------|--------|--------|--------|--------|--------|-----------------------|
E|--------|--------|--------|--------|--------|--------|--------|-----------------------|


E|--------|--------|--------|-----------------------|--------|--------|--------|-----------------------|
B|--------|--------|--------|-----------------------|--------|--------|--------|-----------------------|
G|--------|--------|--------|----------2--2--0--0---|--------|--------|--------|----------2--2--0--0---|
D|--------|--------|--------|----------2--2--0--0---|--------|--------|--------|----------2--2--0--0---|
A|--------|--------|--------|-----------------------|--------|--------|--------|-----------------------|
E|--------|--------|--------|-----------------------|--------|--------|--------|-----------------------|


E|--------|--------|--------|--------|--------|--------|--------|--------|--------|
B|--------|--------|--------|--------|--------|--------|--------|--------|--------|
G|--------|--------|--------|--------|--------|--------|--------|--------|--------|
D|--------|--------|--------|--------|--------|--------|--------|--------|--------|
A|--------|--------|--------|--------|--------|--------|--------|--------|--------|
E|--------|--------|--------|--------|--------|--------|--------|--------|--------|


E|--------|--------|--------|--------|--------|--------|--------|--------|--------|
B|--------|--------|--------|--------|--------|--------|--------|--------|--------|
G|--------|--------|--------|--------|--------|--------|--------|--------|--------|
D|--------|--------|--------|--------|--------|--------|--------|--------|--------|
A|--------|--------|--------|--------|--------|--------|--------|--------|--------|
E|--------|--------|--------|--------|--------|--------|--------|--------|--------|


E|--------|--------|--------|--------|--------|--------|--------|--------|--------|
B|--------|--------|--------|--------|--------|--------|--------|--------|--------|
G|--------|--------|--------|--------|--------|--------|--------|--------|--------|
D|--------|--------|--------|--------|--------|--------|--------|--------|--------|
A|--------|--------|--------|--------|--------|--------|--------|--------|--------|
E|--------|--------|--------|--------|--------|--------|--------|--------|--------|


E|--------|--------|--------|--------|--------|--------|--------|--------|--------|
B|--------|--------|--------|--------|--------|--------|--------|--------|--------|
G|--------|--------|--------|--------|--------|--------|--------|--------|--------|
D|--------|--------|--------|--------|--------|--------|--------|--------|--------|
A|--------|--------|--------|--------|--------|--------|--------|--------|--------|
E|--------|--------|--------|--------|--------|--------|--------|--------|--------|


E|--------|--------|--------|--------|--------|--------|--------|--------|--------|
B|--------|--------|--------|--------|--------|--------|--------|--------|--------|
G|--------|--------|--------|--------|--------|--------|--------|--------|--------|
D|--------|--------|--------|--------|--------|--------|--------|--------|--------|
A|--------|--------|--------|--------|--------|--------|--------|--------|--------|
E|--------|--------|--------|--------|--------|--------|--------|--------|--------|


E|--------|--------|--------|--------|--------|--------|--------|-3---------------------|
B|--------|--------|--------|--------|--------|--------|--------|-3----3--3-------------|
G|--------|--------|--------|--------|--------|--------|--------|-0----2--2---2---2-----|
D|--------|--------|--------|--------|--------|--------|--------|-0----0--0---2---2-----|
A|--------|--------|--------|--------|--------|--------|--------|-2-----------0---0-----|
E|--------|--------|--------|--------|--------|--------|--------|-3---------------------|


E|-3---------------------|-3---------------------|-3---------------------|--------|
B|-3----3--3-------------|-3----3--3-------------|-3----3--3-------------|--------|
G|-0----2--2---2---2-----|-0----2--2---2---2-----|-0----2--2---2---2-----|-2------|
D|-0----0--0---2---2-----|-0----0--0---2---2-----|-0----0--0---2---2-----|-2------|
A|-2-----------0---0-----|-2-----------0---0-----|-2-----------0---0-----|-0------|
E|-3---------------------|-3---------------------|-3---------------------|--------|


E|--------|-------------|
B|--------|-------------|
G|-2------|-------------|
D|-2------|-------------|
A|-0------|-------------|
E|--------|-------------|





Track 3: Guitar 3

E|--------|--------|--------|--------------------|--------|--------|--------|-----------------------|
B|--------|--------|--------|--------------------|--------|--------|--------|-----------------------|
G|--------|--------|--------|----------9---14----|--------|--------|--------|-----------------------|
D|--------|--------|--------|----------9---14----|--------|--------|--------|-----------5---12---0--|
A|--------|--------|--------|--------------------|--------|--------|--------|-----------------------|
E|--------|--------|--------|--------------------|--------|--------|--------|-----------------------|


E|--------|--------|--------|-----------------|--------|--------|--------|-----------------|
B|--------|--------|--------|-----------------|--------|--------|--------|-----------------|
G|--------|--------|--------|-----------------|--------|--------|--------|-----------------|
D|--------|--------|--------|-----------------|--------|--------|--------|-----------------|
A|--------|--------|--------|-----------------|--------|--------|--------|-------0---------|
E|--------|--------|--------|-----------------|--------|--------|--------|-----------------|


E|--------|--------|--------|--------|--------|--------|--------|--------|--------|
B|--------|--------|--------|--------|--------|--------|--------|--------|--------|
G|--------|--------|--------|--------|--------|--------|--------|--------|--------|
D|--------|--------|--------|--------|--------|--------|--------|--------|--------|
A|--------|--------|--------|--------|--------|--------|--------|--------|--------|
E|--------|--------|--------|--------|--------|--------|--------|--------|--------|


E|--------|--------|--------|--------|--------|--------|--------|--------|--------|
B|--------|--------|--------|--------|--------|--------|--------|--------|--------|
G|--------|--------|--------|--------|--------|--------|--------|--------|--------|
D|--------|--------|--------|--------|--------|--------|--------|--------|--------|
A|--------|--------|--------|--------|--------|--------|--------|--------|--------|
E|--------|--------|--------|--------|--------|--------|--------|--------|--------|


E|--------|--------|--------|--------|--------|--------|--------|--------|--------|
B|--------|--------|--------|--------|--------|--------|--------|--------|--------|
G|--------|--------|--------|--------|--------|--------|--------|--------|--------|
D|--------|--------|--------|--------|--------|--------|--------|--------|--------|
A|--------|--------|--------|--------|--------|--------|--------|--------|--------|
E|--------|--------|--------|--------|--------|--------|--------|--------|--------|


E|--------|---------------------|--------|--------|--------|-----------------|--------|
B|--------|---------------------|--------|--------|--------|-----------------|--------|
G|--------|---------------------|--------|--------|--------|------------26---|--------|
D|--------|-----------5----12---|--------|--------|--------|------------26---|--------|
A|--------|---------------------|--------|--------|--------|------------24---|--------|
E|--------|---------------------|--------|--------|--------|-----------------|--------|


E|--------|--------|--------|--------|--------|--------|--------|--------|--------|
B|--------|--------|--------|--------|--------|--------|--------|--------|--------|
G|--------|--------|--------|--------|--------|--------|--------|--------|--------|
D|--------|--------|--------|--------|--------|--------|--------|--------|--------|
A|--------|--------|--------|--------|--------|--------|--------|--------|--------|
E|--------|--------|--------|--------|--------|--------|--------|--------|--------|


E|--------|--------|--------|--------|--------|--------|--------|--------|--------|
B|--------|--------|--------|--------|--------|--------|--------|--------|--------|
G|--------|--------|--------|--------|--------|--------|--------|--------|--------|
D|--------|--------|--------|--------|--------|--------|--------|--------|--------|
A|--------|--------|--------|--------|--------|--------|--------|--------|--------|
E|--------|--------|--------|--------|--------|--------|--------|--------|--------|


E|--------|--------|--------|--------|--------|--------|--------|--------------------|
B|--------|--------|--------|--------|--------|--------|--------|--------------------|
G|--------|--------|--------|--------|--------|--------|--------|----------9---14----|
D|--------|--------|--------|--------|--------|--------|--------|----------9---14----|
A|--------|--------|--------|--------|--------|--------|--------|--------------------|
E|--------|--------|--------|--------|--------|--------|--------|--------------------|


E|--------|--------|---------------------|
B|--------|--------|---------------------|
G|-14-----|-14-----|-14---7----2---------|
D|-14-----|-14-----|-14---7----2---------|
A|--------|--------|---------------------|
E|--------|--------|---------------------|





Track 4: Guitar 4

E|--------|--------|--------|--------|----------------------|------------------|----------------------|
B|--------|--------|--------|--------|----------------------|------------------|----------------------|
G|--------|--------|--------|--------|------------2--0--0---|-0------2--0--0---|-0-----0----2--0--0---|
D|--------|--------|--------|--------|----------------------|------------------|----------------------|
A|--------|--------|--------|--------|----------------------|------------------|----------------------|
E|--------|--------|--------|--------|----------------------|------------------|----------------------|


E|-------------|--------------------|-------------|----------------|--------------------|
B|-------------|--------------------|-------------|----------------|--------------------|
G|-0-----------|------------7---6---|-6------6----|-6------7---6---|-6-----6------------|
D|-------------|--------------------|-------------|----------------|--------------------|
A|-------------|--------------------|-------------|----------------|--------------------|
E|-------------|--------------------|-------------|----------------|--------------------|


E|------------------|------------------|------------------|--------------------|----------------|
B|------------------|------------------|------------------|--------------------|----------------|
G|-0------2--0--0---|-0------2--0--0---|-0------2--0--0---|-0-----0------------|-0------7---6---|
D|-0----------------|------------------|------------------|--------------------|-0--------------|
A|------------------|------------------|------------------|--------------------|----------------|
E|------------------|------------------|------------------|--------------------|----------------|


E|-------------|----------------|--------------------|------------------|------------------|
B|-------------|----------------|--------------------|------------------|------------------|
G|-6------6----|-6------7---6---|-6-----6------------|-0------2--0--0---|-0------2--0--0---|
D|-------------|----------------|--------------------|-0----------------|------------------|
A|-------------|----------------|--------------------|------------------|------------------|
E|-------------|----------------|--------------------|------------------|------------------|


E|------------------|-------------|--------|--------|--------|--------|--------|--------|
B|------------------|-------2-----|--------|--------|--------|--------|--------|--------|
G|-0------2--0--0---|-0-----------|--------|--------|--------|--------|--------|--------|
D|------------------|-------------|--------|--------|--------|--------|--------|--------|
A|------------------|-------------|--------|--------|--------|--------|--------|--------|
E|------------------|-------------|--------|--------|--------|--------|--------|--------|


E|--------|--------|--------|--------|--------|--------|--------|--------|--------|
B|--------|--------|--------|--------|--------|--------|--------|--------|--------|
G|--------|--------|--------|--------|--------|--------|--------|--------|--------|
D|--------|--------|--------|--------|--------|--------|--------|--------|--------|
A|--------|--------|--------|--------|--------|--------|--------|--------|--------|
E|--------|--------|--------|--------|--------|--------|--------|--------|--------|


E|--------|--------|----------------------|------------------|------------------|------------------|
B|--------|--------|----------------------|------------------|------------------|------------------|
G|--------|--------|------------2--0--0---|-0------2--0--0---|-0------2--0--0---|-0------2--0--0---|
D|--------|--------|----------------------|------------------|------------------|------------------|
A|--------|--------|----------------------|------------------|------------------|------------------|
E|--------|--------|----------------------|------------------|------------------|------------------|


E|--------|--------|----------------|------------------|------------------|------------------|
B|--------|--------|----------------|------------------|------------------|------------------|
G|--------|--------|-6------7---6---|-6------2--0--0---|-0------2--0--0---|-0------2--0--0---|
D|--------|--------|----------------|------------------|------------------|------------------|
A|--------|--------|----------------|------------------|------------------|------------------|
E|--------|--------|----------------|------------------|------------------|------------------|


E|------------------|-------------|--------|--------|--------|--------|--------|--------|
B|------------------|-------------|--------|--------|--------|--------|--------|--------|
G|-0------2--0--0---|-0-----------|--------|--------|--------|--------|--------|--------|
D|------------------|-------------|--------|--------|--------|--------|--------|--------|
A|------------------|-------------|--------|--------|--------|--------|--------|--------|
E|------------------|-------------|--------|--------|--------|--------|--------|--------|


E|--------|--------|--------|--------|--------|--------|--------|--------|--------|
B|--------|--------|--------|--------|--------|--------|--------|--------|--------|
G|--------|--------|--------|--------|--------|--------|--------|--------|--------|
D|--------|--------|--------|--------|--------|--------|--------|--------|--------|
A|--------|--------|--------|--------|--------|--------|--------|--------|--------|
E|--------|--------|--------|--------|--------|--------|--------|--------|--------|


E|--------|--------|--------|--------|--------|--------|--------|--------|--------|
B|--------|--------|--------|--------|--------|--------|--------|--------|--------|
G|--------|--------|--------|--------|--------|--------|--------|--------|--------|
D|--------|--------|--------|--------|--------|--------|--------|--------|--------|
A|--------|--------|--------|--------|--------|--------|--------|--------|--------|
E|--------|--------|--------|--------|--------|--------|--------|--------|--------|


E|--------|--------|
B|--------|--------|
G|--------|--------|
D|--------|--------|
A|--------|--------|
E|--------|--------|





Track 5: Guitar 1

E|--------|--------|--------|--------|--------|--------|--------|--------|--------|
B|--------|--------|--------|--------|--------|--------|--------|--------|--------|
G|--------|--------|--------|--------|--------|--------|--------|--------|--------|
D|--------|--------|--------|--------|--------|--------|--------|--------|--------|
A|--------|--------|--------|--------|--------|--------|--------|--------|--------|
E|--------|--------|--------|--------|--------|--------|--------|--------|--------|


E|--------|--------|------------------|--------|--------|--------|--------|--------|
B|--------|--------|------------------|--------|--------|--------|--------|--------|
G|--------|--------|--------2---------|--------|--------|--------|--------|--------|
D|--------|--------|--------2---5--5--|--------|--------|--------|--------|--------|
A|--------|--------|------------5--5--|--------|--------|--------|--------|--------|
E|--------|--------|------------3--3--|--------|--------|--------|--------|--------|


E|--------|--------|--------|--------|--------|--------|--------|--------|--------|
B|--------|--------|--------|--------|--------|--------|--------|--------|--------|
G|--------|--------|--------|--------|--------|--------|--------|--------|--------|
D|--------|--------|--------|--------|--------|--------|--------|--------|--------|
A|--------|--------|--------|--------|--------|--------|--------|--------|--------|
E|--------|--------|--------|--------|--------|--------|--------|--------|--------|


E|--------|--------|--------|--------|--------|--------|--------|--------|--------|
B|--------|--------|--------|--------|--------|--------|--------|--------|--------|
G|--------|--------|--------|--------|--------|--------|--------|--------|--------|
D|--------|--------|--------|--------|--------|--------|--------|--------|--------|
A|--------|--------|--------|--------|--------|--------|--------|--------|--------|
E|--------|--------|--------|--------|--------|--------|--------|--------|--------|


E|--------|--------|--------|--------|--------|--------|--------|--------|--------|
B|--------|--------|--------|--------|--------|--------|--------|--------|--------|
G|--------|--------|--------|--------|--------|--------|--------|--------|--------|
D|--------|--------|--------|--------|--------|--------|--------|--------|--------|
A|--------|--------|--------|--------|--------|--------|--------|--------|--------|
E|--------|--------|--------|--------|--------|--------|--------|--------|--------|


E|--------|--------|--------|--------|--------|--------|--------|--------|--------|
B|--------|--------|--------|--------|--------|--------|--------|--------|--------|
G|--------|--------|--------|--------|--------|--------|--------|--------|--------|
D|--------|--------|--------|--------|--------|--------|--------|--------|--------|
A|--------|--------|--------|--------|--------|--------|--------|--------|--------|
E|--------|--------|--------|--------|--------|--------|--------|--------|--------|


E|--------|--------|--------|--------|--------|--------|--------|--------|--------|
B|--------|--------|--------|--------|--------|--------|--------|--------|--------|
G|--------|--------|--------|--------|--------|--------|--------|--------|--------|
D|--------|--------|--------|--------|--------|--------|--------|--------|--------|
A|--------|--------|--------|--------|--------|--------|--------|--------|--------|
E|--------|--------|--------|--------|--------|--------|--------|--------|--------|


E|--------|--------|--------|--------|--------|--------|--------|--------|--------|
B|--------|--------|--------|--------|--------|--------|--------|--------|--------|
G|--------|--------|--------|--------|--------|--------|--------|--------|--------|
D|--------|--------|--------|--------|--------|--------|--------|--------|--------|
A|--------|--------|--------|--------|--------|--------|--------|--------|--------|
E|--------|--------|--------|--------|--------|--------|--------|--------|--------|


E|--------|--------|--------|--------|--------|--------|--------|--------|
B|--------|--------|--------|--------|--------|--------|--------|--------|
G|--------|--------|--------|--------|--------|--------|--------|--------|
D|--------|--------|--------|--------|--------|--------|--------|--------|
A|--------|--------|--------|--------|--------|--------|--------|--------|
E|--------|--------|--------|--------|--------|--------|--------|--------|





Track 6: Guitar 1

E|--------|--------|--------|--------|--------|--------|--------|--------|--------|
B|--------|--------|--------|--------|--------|--------|--------|--------|--------|
G|--------|--------|--------|--------|--------|--------|--------|--------|--------|
D|--------|--------|--------|--------|--------|--------|--------|--------|--------|
A|--------|--------|--------|--------|--------|--------|--------|--------|--------|
E|--------|--------|--------|--------|--------|--------|--------|--------|--------|


E|--------|--------|--------|--------|--------|--------|----------------|--------|
B|--------|--------|--------|--------|--------|--------|----------------|--------|
G|--------|--------|--------|--------|--------|--------|----------------|--------|
D|--------|--------|--------|--------|--------|--------|----------------|--------|
A|--------|--------|--------|--------|--------|--------|--------9----0--|--------|
E|--------|--------|--------|--------|--------|--------|----------------|--------|


E|--------|--------|--------|--------|--------|--------|--------|--------|--------|
B|--------|--------|--------|--------|--------|--------|--------|--------|--------|
G|--------|--------|--------|--------|--------|--------|--------|--------|--------|
D|--------|--------|--------|--------|--------|--------|--------|--------|--------|
A|--------|--------|--------|--------|--------|--------|--------|--------|--------|
E|--------|--------|--------|--------|--------|--------|--------|--------|--------|


E|--------|--------|--------|--------|--------|--------|--------|--------|--------|
B|--------|--------|--------|--------|--------|--------|--------|--------|--------|
G|--------|--------|--------|--------|--------|--------|--------|--------|--------|
D|--------|--------|--------|--------|--------|--------|--------|--------|--------|
A|--------|--------|--------|--------|--------|--------|--------|--------|--------|
E|--------|--------|--------|--------|--------|--------|--------|--------|--------|


E|--------|--------|--------|--------|--------|--------|--------|--------|--------|
B|--------|--------|--------|--------|--------|--------|--------|--------|--------|
G|--------|--------|--------|--------|--------|--------|--------|--------|--------|
D|--------|--------|--------|--------|--------|--------|--------|--------|--------|
A|--------|--------|--------|--------|--------|--------|--------|--------|--------|
E|--------|--------|--------|--------|--------|--------|--------|--------|--------|


E|--------|--------|--------|--------|--------|--------|--------|--------|--------|
B|--------|--------|--------|--------|--------|--------|--------|--------|--------|
G|--------|--------|--------|--------|--------|--------|--------|--------|--------|
D|--------|--------|--------|--------|--------|--------|--------|--------|--------|
A|--------|--------|--------|--------|--------|--------|--------|--------|--------|
E|--------|--------|--------|--------|--------|--------|--------|--------|--------|


E|--------|--------|--------|--------|--------|--------|--------|--------|--------|
B|--------|--------|--------|--------|--------|--------|--------|--------|--------|
G|--------|--------|--------|--------|--------|--------|--------|--------|--------|
D|--------|--------|--------|--------|--------|--------|--------|--------|--------|
A|--------|--------|--------|--------|--------|--------|--------|--------|--------|
E|--------|--------|--------|--------|--------|--------|--------|--------|--------|


E|--------|--------|--------|--------|--------|--------|--------|--------|--------|
B|--------|--------|--------|--------|--------|--------|--------|--------|--------|
G|--------|--------|--------|--------|--------|--------|--------|--------|--------|
D|--------|--------|--------|--------|--------|--------|--------|--------|--------|
A|--------|--------|--------|--------|--------|--------|--------|--------|--------|
E|--------|--------|--------|--------|--------|--------|--------|--------|--------|


E|--------|--------|--------|--------|--------|--------|--------|--------|
B|--------|--------|--------|--------|--------|--------|--------|--------|
G|--------|--------|--------|--------|--------|--------|--------|--------|
D|--------|--------|--------|--------|--------|--------|--------|--------|
A|--------|--------|--------|--------|--------|--------|--------|--------|
E|--------|--------|--------|--------|--------|--------|--------|--------|





Track 7: Guitar 1

E|--------|--------|--------|--------|--------|--------|--------|--------|--------|
B|--------|--------|--------|--------|--------|--------|--------|--------|--------|
G|--------|--------|--------|--------|--------|--------|--------|--------|--------|
D|--------|--------|--------|--------|--------|--------|--------|--------|--------|
A|--------|--------|--------|--------|--------|--------|--------|--------|--------|
E|--------|--------|--------|--------|--------|--------|--------|--------|--------|


E|--------|--------|--------|--------|--------|--------|--------|--------|--------|
B|--------|--------|--------|--------|--------|--------|--------|--------|--------|
G|--------|--------|--------|--------|--------|--------|--------|--------|--------|
D|--------|--------|--------|--------|--------|--------|--------|--------|--------|
A|--------|--------|--------|--------|--------|--------|--------|--------|--------|
E|--------|--------|--------|--------|--------|--------|--------|--------|--------|


E|--------|--------|--------|--------|--------|--------|--------|--------|--------|
B|--------|--------|--------|--------|--------|--------|--------|--------|--------|
G|--------|--------|--------|--------|--------|--------|--------|--------|--------|
D|--------|--------|--------|--------|--------|--------|--------|--------|--------|
A|--------|--------|--------|--------|--------|--------|--------|--------|--------|
E|--------|--------|--------|--------|--------|--------|--------|--------|--------|


E|--------|--------|--------|--------|--------|--------|--------|--------|--------|
B|--------|--------|--------|--------|--------|--------|--------|--------|--------|
G|--------|--------|--------|--------|--------|--------|--------|--------|--------|
D|--------|--------|--------|--------|--------|--------|--------|--------|--------|
A|--------|--------|--------|--------|--------|--------|--------|--------|--------|
E|--------|--------|--------|--------|--------|--------|--------|--------|--------|


E|--------|--------|--------|--------|--------|--------|--------|--------|--------|
B|--------|--------|--------|--------|--------|--------|--------|--------|--------|
G|--------|--------|--------|--------|--------|--------|--------|--------|--------|
D|--------|--------|--------|--------|--------|--------|--------|--------|--------|
A|--------|--------|--------|--------|--------|--------|--------|--------|--------|
E|--------|--------|--------|--------|--------|--------|--------|--------|--------|


E|----------------|-------------|--------|--------|--------|--------|--------|--------|
B|----------------|-------------|--------|--------|--------|--------|--------|--------|
G|-0------7---6---|-6------6----|--------|--------|--------|--------|--------|--------|
D|----------------|-------------|--------|--------|--------|--------|--------|--------|
A|----------------|-------------|--------|--------|--------|--------|--------|--------|
E|----------------|-------------|--------|--------|--------|--------|--------|--------|


E|--------|--------|--------|--------|--------|--------|--------|--------|--------|
B|--------|--------|--------|--------|--------|--------|--------|--------|--------|
G|--------|--------|--------|--------|--------|--------|--------|--------|--------|
D|--------|--------|--------|--------|--------|--------|--------|--------|--------|
A|--------|--------|--------|--------|--------|--------|--------|--------|--------|
E|--------|--------|--------|--------|--------|--------|--------|--------|--------|


E|--------|--------|--------|--------|--------|--------|--------|--------|--------|
B|--------|--------|--------|--------|--------|--------|--------|--------|--------|
G|--------|--------|--------|--------|--------|--------|--------|--------|--------|
D|--------|--------|--------|--------|--------|--------|--------|--------|--------|
A|--------|--------|--------|--------|--------|--------|--------|--------|--------|
E|--------|--------|--------|--------|--------|--------|--------|--------|--------|


E|--------|--------|--------|--------|--------|--------|--------|--------|
B|--------|--------|--------|--------|--------|--------|--------|--------|
G|--------|--------|--------|--------|--------|--------|--------|--------|
D|--------|--------|--------|--------|--------|--------|--------|--------|
A|--------|--------|--------|--------|--------|--------|--------|--------|
E|--------|--------|--------|--------|--------|--------|--------|--------|





Track 8: Bass

G|---------------------|---------------------|---------------------|---------------------|
D|---------------------|---------------------|---------------------|-----------7---7-----|
A|-10------------------|------5--------------|-10------------------|------5----0---0-----|
E|------10---5---5-----|-3---------5---5-----|------10---5---5-----|-3-------------------|


G|---------------------------------------------|---------------------------------------------|
D|---------------------------------------------|---------------------------------------------|
A|-------------------------------------5---4---|---------------------------------------------|
E|-3--5--5--5--3--5--5--5--5--5--5--3----------|-3--5--5--5--3--5--5--5--5--5--5--3--0---2---|


G|---------------------------------------------|---------------------------------------------|
D|---------------------------------------------|---------------------------------------------|
A|-------------------------------------5---4---|---------------------------------------------|
E|-3--5--5--5--3--5--5--5--5--5--5--3----------|-3--5--5--5--3--5--5--5--5--5--5--3--0---2---|


G|-------------------------------------------|---------------------------------------------|
D|-------------------------------------------|---------------------------------------------|
A|-5--4--------------------------------------|-5--4---------------------------5--2---------|
E|-------5---0--3--5--5--5--5--5--0--2---3---|-------5---0--3--5--5--5--5--5--------3--3---|


G|-------------------------------------------|---------------------------------------------|
D|-------------------------------------------|---------------------------------------------|
A|-5--4--------------------------------------|-5--4---------------------------5--2---------|
E|-------5---0--3--5--5--5--5--5--0--2---3---|-------5---0--3--5--5--5--5--5--------3--3---|


G|---------------------------------------------|---------------------------------------------|
D|---------------------------------------------|---------------------------------------------|
A|-------------------------------------5---4---|---------------------------------------------|
E|-3--5--5--5--3--5--5--5--5--5--5--3----------|-3--5--5--5--3--5--5--5--5--5--5--3--0---2---|


G|---------------------------------------------|---------------------------------------------|
D|---------------------------------------------|---------------------------------------------|
A|-------------------------------------5---4---|---------------------------------------------|
E|-3--5--5--5--3--5--5--5--5--5--5--3----------|-3--5--5--5--3--5--5--5--5--5--5--3--0---2---|


G|-------------------------------------------|---------------------------------------------|
D|-------------------------------------------|---------------------------------------------|
A|-5--4--------------------------------------|-5--4---------------------------5--2---------|
E|-------5---0--3--5--5--5--5--5--0--2---3---|-------5---0--3--5--5--5--5--5--------3--3---|


G|-------------------------------------------|---------------------------------------------|
D|-------------------------------------------|---------------------------------------------|
A|-5--4--------------------------------------|-5--4---------------------------5--2---------|
E|-------5---0--3--5--5--5--5--5--0--2---3---|-------5---0--3--5--5--5--5--5--------3--3---|


G|---------------------------------------------|---------------------------------------------|
D|---------------------------------------------|---------------------------------------------|
A|-------------------------------------5---4---|---------------------------------------------|
E|-3--5--5--5--3--5--5--5--5--5--5--3----------|-3--5--5--5--3--5--5--5--5--5--5--3--0---2---|


G|---------------------------------------------|-------------------------------------------------|
D|---------------------------------------------|-------------------------------------------------|
A|-------------------------------------5---4---|-------------------------------------------------|
E|-3--5--5--5--3--5--5--5--5--5--5--3----------|-3--5--5--5--3--5--5--5--5--5--5--3--5--5--3--2--|


G|-------------------------------------------------|-------------------------------------------------|
D|-------------------------------------------------|-------------------------------------------------|
A|----------------------5--5--5--5--5--5--5--0--2--|-2--2--2--2--2--2--2--2--2--2--2--2--2--0--------|
E|-2--0--2--2--0--2--0-----------------------------|-------------------------------------------3--2--|


G|-------------------------------------------------|-------------------------------------------------|
D|-------------------------------------------------|-------------------------------------------------|
A|----------------------5--5--5--5--5--5--5--0--2--|-2--2--2--2--2--2--2--2--2--2--2--2--2--0--------|
E|-2--0--2--2--0--2--0-----------------------------|-------------------------------------------3--2--|


G|-------------------------------------------------|-------------------------------------------------|
D|-------------------------------------------------|-------------------------------------------------|
A|----------------------5--5--5--5--5--5--5--0--2--|-2--2--2--2--2--2--2--2--2--2--2--2--2--0--------|
E|-2--0--2--2--0--2--0-----------------------------|-------------------------------------------3--2--|


G|-------------------------------------------------|-------------------------------------------------|
D|-------------------------------------------------|-------------5--7--5-----------------5--7--5-----|
A|----------------------5--5--5--5--5--5--5--5--7--|-7--7--5--7-----------5--5--7--5--7-----------5--|
E|-2--0--2--2--0--2--0-----------------------------|-------------------------------------------------|


G|-----------------------------------------|---------------------------------------|
D|-------------5--7--5---------------------|---------------------------------------|
A|-5--7--5--7-----------7--7---------------|---------------------------------------|
E|--------------------------------------3--|-3--3--2---3---2--3---5---5---0--2--3--|


G|---------------------------------------|---------------------------------------|
D|---------------------------------------|---------------------------------------|
A|------------------3--------------------|---------------------------------------|
E|-3--3--2---3---2------5---5---0--2--3--|-3--3--2---3---2--3---5---5---0--2--3--|


G|---------------------------------------|---------------------------------------|
D|---------------------------------------|---------------------------------------|
A|------------------3--------------------|---------------------------------------|
E|-3--3--2---3---2------5---5---0--2--3--|-3--3--2---3---2--3---5---5---0--2--3--|


G|---------------------------------------|---------------------------------------|
D|---------------------------------------|---------------------------------------|
A|------------------3--------------------|---------------------------------------|
E|-3--3--2---3---2------5---5---0--2--3--|-3--3--2---3---2--3---5---5---0--2--3--|


G|-----------------------------------|---------------------------------------------|
D|-----------------------------------|---------------------------------------------|
A|-----------------------------------|-------------------------------------5---4---|
E|-3--3--2---3---2--5-------------3--|-3--5--5--5--3--5--5--5--5--5--5--3----------|


G|---------------------------------------------|---------------------------------------------|
D|---------------------------------------------|---------------------------------------------|
A|---------------------------------------------|-------------------------------------5---4---|
E|-3--5--5--5--3--5--5--5--5--5--5--3--0---2---|-3--5--5--5--3--5--5--5--5--5--5--3----------|


G|---------------------------------------------|-------------------------------------------|
D|---------------------------------------------|-------------------------------------------|
A|---------------------------------------------|-5--4--------------------------------------|
E|-3--5--5--5--3--5--5--5--5--5--5--3--0---2---|-------5---0--3--5--5--5--5--5--0--2---3---|


G|---------------------------------------------|-------------------------------------------|
D|---------------------------------------------|-------------------------------------------|
A|-5--4---------------------------5--2---------|-5--4--------------------------------------|
E|-------5---0--3--5--5--5--5--5--------3--3---|-------5---0--3--5--5--5--5--5--0--2---3---|


G|---------------------------------------------|---------------------------------------------|
D|---------------------------------------------|---------------------------------------------|
A|-5--4---------------------------5--2---------|-------------------------------------5---4---|
E|-------5---0--3--5--5--5--5--5--------3--3---|-3--5--5--5--3--5--5--5--5--5--5--3----------|


G|---------------------------------------------|---------------------------------------------|
D|---------------------------------------------|---------------------------------------------|
A|---------------------------------------------|-------------------------------------5---4---|
E|-3--5--5--5--3--5--5--5--5--5--5--3--0---2---|-3--5--5--5--3--5--5--5--5--5--5--3----------|


G|-------------------------------------------------|-------------------------------------------------|
D|-------------------------------------------------|-------------------------------------------------|
A|-------------------------------------------------|----------------------5--5--5--5--5--5--5--0--2--|
E|-3--5--5--5--3--5--5--5--5--5--5--3--5--5--3--2--|-2--0--2--2--0--2--0-----------------------------|


G|-------------------------------------------------|-------------------------------------------------|
D|-------------------------------------------------|-------------------------------------------------|
A|-2--2--2--2--2--2--2--2--2--2--2--2--2--0--------|----------------------5--5--5--5--5--5--5--0--2--|
E|-------------------------------------------3--2--|-2--0--2--2--0--2--0-----------------------------|


G|-------------------------------------------------|-------------------------------------------------|
D|-------------------------------------------------|-------------------------------------------------|
A|-2--2--2--2--2--2--2--2--2--2--2--2--2--0--------|----------------------5--5--5--5--5--5--5--0--2--|
E|-------------------------------------------3--2--|-2--0--2--2--0--2--0-----------------------------|


G|-------------------------------------------------|-------------------------------------------------|
D|-------------------------------------------------|-------------------------------------------------|
A|-2--2--2--2--2--2--2--2--2--2--2--2--2--0--------|----------------------5--5--5--5--5--5--5--5--5--|
E|-------------------------------------------3--2--|-2--0--2--2--0--2--0-----------------------------|


G|-------------------------------------------------|-------------------------------------------------|
D|-------------5--7--5-----------------5--7--5-----|-------------5--7--5-----------------5--7--5-----|
A|-5--7--5--7-----------5--5--7--5--7-----------5--|-5--7--5--7-----------5--5--7--5--7-----------5--|
E|-------------------------------------------------|-------------------------------------------------|


G|-------------------------------------------------|-------------------------------------|
D|-------------5--7--5-----------------5--7--5-----|-------------5--7--5-----------------|
A|-5--7--5--7-----------5--5--7--5--7-----------5--|-5--7--5--7-----------7--7-----7-----|
E|-------------------------------------------------|----------------------------------3--|


G|---------------------------------------|---------------------------------------|
D|---------------------------------------|---------------------------------------|
A|---------------------------------------|------------------3--------------------|
E|-3--3--2---3---2--3---5---5---0--2--3--|-3--3--2---3---2------5---5---0--2--3--|


G|---------------------------------------|---------------------------------------|
D|---------------------------------------|---------------------------------------|
A|---------------------------------------|------------------3--------------------|
E|-3--3--2---3---2--3---5---5---0--2--3--|-3--3--2---3---2------5---5---0--2--3--|


G|---------------------------------------|---------------------------------------|
D|---------------------------------------|---------------------------------------|
A|---------------------------------------|------------------3--------------------|
E|-3--3--2---3---2--3---5---5---0--2--3--|-3--3--2---3---2------5---5---0--2--3--|


G|---------------------------------------|---------------------------------------|
D|---------------------------------------|---------------------------------------|
A|---------------------------------------|------------------3--------------------|
E|-3--3--2---3---2--3---5---5---0--2--3--|-3--3--2---3---2------5---5---0--2--0--|


G|---------------------|---------------------|---------------------|---------------------|
D|---------------------|---------------------|---------------------|-----------7---7-----|
A|-10------------------|------5--------------|-10------------------|------5----0---0-----|
E|------10---5---5-----|-3---------5---5-----|------10---5---5-----|-3-------------------|


G|--------|--------|--------|
D|-7------|-7------|--------|
A|-0------|-0------|--------|
E|--------|--------|--------|