Menu:

 

Search:

 

stone temple pilots - vasoline:

 



Title: Vasoline
Artist: 
Album: Purple
Author: 


Track 1: Guitar 1

E|--------|--------|--------|--------|--------|--------|--------|--------|--------|
B|--------|--------|--------|--------|--------|--------|--------|--------|--------|
G|--------|--------|--------|--------|--------|--------|--------|--------|--------|
D|--------|--------|--------|--------|--------|--------|--------|--------|--------|
A|-1------|-1------|-1------|-1------|-1------|-1------|-1------|-1------|-1------|
E|--------|--------|--------|--------|--------|--------|--------|--------|--------|


E|--------|--------|-------------------------------------------------|---------------------------------------------|
B|--------|--------|-------------------------------------------------|---------------------------------------------|
G|--------|--------|-------------------------------------------------|---------------------------------------------|
D|--------|--------|-------------------------------------------------|---------------------------------------------|
A|-1------|-1------|-1--1--1--1--1--1--1--1--1--1--1--1--1--1--1--1--|---------------------------------------------|
E|--------|--------|-------------------------------------------------|-1--3--3--1--3---1--3--3--1--3---1--3--3--1--|


E|-------------------------------------------|-------------------------------------------|
B|-------------------------------------------|-------------------------------------------|
G|-------------------------------------------|-------------------------------------------|
D|-------------------------------------------|-------------------------------------------|
A|-------------------------------------------|-------------------------------------------|
E|-3---1--3--3--1--3---1--3--3--1--3---1--3--|-3--1--3---1--3--3--1--3---1--3--3--1--3---|


E|-------------------------------|---------------------------------------------|-------------------------------------------|
B|-------------------------------|---------------------------------------------|-------------------------------------------|
G|-------------------------------|---------------------------------------------|-------------------------------------------|
D|-------------------0--0--0--0--|---------------------------------------------|-------------------------------------------|
A|-------------------0--0--0--0--|---------------------------------------------|-------------------------------------------|
E|-3----3----1--1----0--0--0--0--|-1--3--3--1--3---1--3--3--1--3---1--3--3--1--|-3---1--3--3--1--3---1--3--3--1--3---1--3--|


E|-------------------------------------------|-------------------------------------------|
B|-------------------------------------------|-------------------------------------------|
G|-------------------------------------------|-------------------------------------------|
D|-------------------------------------------|-------------------------------------------|
A|-------------------------------------------|-------------------------------------------|
E|-3--1--3---1--3--3--1--3---1--3--3--1--3---|-1--3--3--1--3---1--3--3--1--3---3--3--3---|


E|-------------------------------------------------|-------------------------------------------------|
B|-------------------------------------------------|----------------------------------------------5--|
G|-8--8--8--8--8--8--8--8--8--8--8--8--8--8--8--8--|-8--8--8--8--8--8--8--8--8--8--8--8--8--7--6--5--|
D|-8--8--8--8--8--8--8--8--8--8--8--8--8--8--8--8--|-8--8--8--8--8--8--8--8--8--8--8--8--8--7--6--5--|
A|-6--6--6--6--6--6--6--6--6--6--6--6--6--6--6--6--|-6--6--6--6--6--6--6--6--6--6--6--6--6--5--4--3--|
E|-------------------------------------------------|-------------------------------------------------|


E|-------------------------------------------------|---------------------------------------------|
B|-5--5--5--5--5--5--5--5--5--5--5--5--5--5--5--5--|-5--5--5--5--5--5--5--5--5--5--5--5--5-------|
G|-5--5--5--5--5--5--5--5--5--5--5--5--5--5--5--5--|-5--5--5--5--5--5--5--5--5--5--5--5--5--2----|
D|-5--5--5--5--5--5--5--5--5--5--5--5--5--5--5--5--|-5--5--5--5--5--5--5--5--5--5--5--5--5--3----|
A|-3--3--3--3--3--3--3--3--3--3--3--3--3--3--3--3--|-3--3--3--3--3--3--3--3--3--3--3--3--3--3----|
E|-------------------------------------------------|----------------------------------------1----|


E|---------------------------------------------|-------------------------------------------|
B|---------------------------------------------|-------------------------------------------|
G|---------------------------------------------|-------------------------------------------|
D|---------------------------------------------|-------------------------------------------|
A|---------------------------------------------|-------------------------------------------|
E|-1--3--3--1--3---1--3--3--1--3---1--3--3--1--|-3---1--3--3--1--3---1--3--3--1--3---1--3--|


E|-------------------------------------------|-----------------------------------------------|
B|-------------------------------------------|-----------------------------------------------|
G|-------------------------------------------|-----------------------------------------------|
D|-------------------------------------------|--------------------------0--0--0--0--0--0--0--|
A|-------------------------------------------|--------------------------0--0--0--0--0--0--0--|
E|-3--1--3---1--3--3--1--3---1--3--3--1--3---|-1--3--3--1--3---1--3--3--0--0--0--0--0--0--0--|


E|---------------------------------------------|-------------------------------------------|
B|---------------------------------------------|-------------------------------------------|
G|---------------------------------------------|-------------------------------------------|
D|---------------------------------------------|-------------------------------------------|
A|---------------------------------------------|-------------------------------------------|
E|-1--3--3--1--3---1--3--3--1--3---1--3--3--1--|-3---1--3--3--1--3---1--3--3--1--3---1--3--|


E|-------------------------------------------|-------------------------------------------|
B|-------------------------------------------|-------------------------------------------|
G|-------------------------------------------|-------------------------------------------|
D|-------------------------------------------|-------------------------------------------|
A|-------------------------------------------|-------------------------------------------|
E|-3--1--3---1--3--3--1--3---1--3--3--1--3---|-1--3--3--1--3---1--3--3--1--3---3--3--3---|


E|-------------------------------------------------|-------------------------------------------------|
B|-------------------------------------------------|----------------------------------------------5--|
G|-8--8--8--8--8--8--8--8--8--8--8--8--8--8--8--8--|-8--8--8--8--8--8--8--8--8--8--8--8--8--7--6--5--|
D|-8--8--8--8--8--8--8--8--8--8--8--8--8--8--8--8--|-8--8--8--8--8--8--8--8--8--8--8--8--8--7--6--5--|
A|-6--6--6--6--6--6--6--6--6--6--6--6--6--6--6--6--|-6--6--6--6--6--6--6--6--6--6--6--6--6--5--4--3--|
E|-------------------------------------------------|-------------------------------------------------|


E|-------------------------------------------------|---------------------------------------------|
B|-5--5--5--5--5--5--5--5--5--5--5--5--5--5--5--5--|-5--5--5--5--5--5--5--5--5--5--5--5--5-------|
G|-5--5--5--5--5--5--5--5--5--5--5--5--5--5--5--5--|-5--5--5--5--5--5--5--5--5--5--5--5--5--2----|
D|-5--5--5--5--5--5--5--5--5--5--5--5--5--5--5--5--|-5--5--5--5--5--5--5--5--5--5--5--5--5--3----|
A|-3--3--3--3--3--3--3--3--3--3--3--3--3--3--3--3--|-3--3--3--3--3--3--3--3--3--3--3--3--3--3----|
E|-------------------------------------------------|----------------------------------------1----|


E|---------------------------------------------|-------------------------------------------|
B|---------------------------------------------|-------------------------------------------|
G|-2--4--4-------------------------------------|-------------------------------------------|
D|-3--5--5-------------------------------------|-------------------------------------------|
A|-3--5--5-------------------------------------|-------------------------------------------|
E|-1--3--3--1--3---1--3--3--1--3---1--3--3--1--|-3---1--3--3--1--3---1--3--3--1--3---1--3--|


E|-------------------------------------------|---------------------------------------------|
B|-------------------------------------------|---------------------------------------------|
G|-------------------------------------------|---------------------------------------------|
D|-------------------------------------------|---------------------------------------------|
A|-------------------------------------------|---------------------------------------------|
E|-3--1--3---1--3--3--1--3---1--3--3--1--3---|-1--3--3--1--3---1--3--3--1--3---1--3--3--1--|


E|-----------------------------------------------|-----------------------------------------------|
B|-----------------------------------------------|-----------------------------------------------|
G|-----------------------------------------------|-----------------------------------------------|
D|-----------------------------------------------|-----------------------------------------------|
A|-1---1--1--1--1--1--1--1--1--1--1--1--1--1--1--|-1---1--1--1--1--1--1--1--1--1--1--1--1--1--1--|
E|-----------------------------------------------|-----------------------------------------------|


E|-----------------------------------------------|-------------------------------------------------|
B|-----------------------------------------------|-------------------------------------------------|
G|--------------------------------------------3--|-3--3--3--3--3--3--3--3--3--3--3--3--3--3--3--3--|
D|--------------------------------------------3--|-3--3--3--3--3--3--3--3--3--3--3--3--3--3--3--3--|
A|-1---1--1--1--1--1--1--1--1--1--1--1--1--1--1--|-1--1--1--1--1--1--1--1--1--1--1--1--1--1--1--1--|
E|-----------------------------------------------|-------------------------------------------------|


E|---------------------------------------------|-------------------------------------------|
B|---------------------------------------------|-------------------------------------------|
G|---------------------------------------------|-------------------------------------------|
D|---------------------------------------------|-------------------------------------------|
A|---------------------------------------------|-------------------------------------------|
E|-1--3--3--1--3---1--3--3--1--3---1--3--3--1--|-3---1--3--3--1--3---1--3--3--1--3---1--3--|


E|-------------------------------------------|-----------------------------------|
B|-------------------------------------------|-----------------------------------|
G|-------------------------------------------|-----------------------------------|
D|-------------------------------------------|-----------------------------0--0--|
A|-------------------------------------------|-----------------------------0--0--|
E|-3--1--3---1--3--3--1--3---1--3--3--1--3---|-1--3--3--1--3---1--3--3-----0--0--|


E|---------------------------------------------|-------------------------------------------|
B|---------------------------------------------|-------------------------------------------|
G|---------------------------------------------|-------------------------------------------|
D|---------------------------------------------|-------------------------------------------|
A|---------------------------------------------|-------------------------------------------|
E|-1--3--3--1--3---1--3--3--1--3---1--3--3--1--|-3---1--3--3--1--3---1--3--3--1--3---1--3--|


E|-------------------------------------------|-------------------------------------------|
B|-------------------------------------------|-------------------------------------------|
G|-------------------------------------------|-------------------------------------------|
D|-------------------------------------------|-------------------------------------------|
A|-------------------------------------------|-------------------------------------------|
E|-3--1--3---1--3--3--1--3---1--3--3--1--3---|-1--3--3--1--3---1--3--3--1--3---3--3--3---|


E|-------------------------------------------------|-------------------------------------------------|
B|-------------------------------------------------|----------------------------------------------5--|
G|-8--8--8--8--8--8--8--8--8--8--8--8--8--8--8--8--|-8--8--8--8--8--8--8--8--8--8--8--8--8--7--6--5--|
D|-8--8--8--8--8--8--8--8--8--8--8--8--8--8--8--8--|-8--8--8--8--8--8--8--8--8--8--8--8--8--7--6--5--|
A|-6--6--6--6--6--6--6--6--6--6--6--6--6--6--6--6--|-6--6--6--6--6--6--6--6--6--6--6--6--6--5--4--3--|
E|-------------------------------------------------|-------------------------------------------------|


E|-------------------------------------------------|---------------------------------------------|
B|-5--5--5--5--5--5--5--5--5--5--5--5--5--5--5--5--|-5--5--5--5--5--5--5--5--5--5--5--5--5-------|
G|-5--5--5--5--5--5--5--5--5--5--5--5--5--5--5--5--|-5--5--5--5--5--5--5--5--5--5--5--5--5--2----|
D|-5--5--5--5--5--5--5--5--5--5--5--5--5--5--5--5--|-5--5--5--5--5--5--5--5--5--5--5--5--5--3----|
A|-3--3--3--3--3--3--3--3--3--3--3--3--3--3--3--3--|-3--3--3--3--3--3--3--3--3--3--3--3--3--3----|
E|-------------------------------------------------|----------------------------------------1----|


E|---------------------------------------------|-------------------------------------------|
B|---------------------------------------------|-------------------------------------------|
G|---------------------------------------------|-------------------------------------------|
D|---------------------------------------------|-------------------------------------------|
A|---------------------------------------------|-------------------------------------------|
E|-1--3--3--1--3---1--3--3--1--3---1--3--3--1--|-3---1--3--3--1--3---1--3--3--1--3---1--3--|


E|-------------------------------------------|---------------------------------------------|
B|-------------------------------------------|---------------------------------------------|
G|-------------------------------------------|---------------------------------------------|
D|-------------------------------------------|---------------------------------------------|
A|-------------------------------------------|---------------------------------------------|
E|-3--1--3---1--3--3--1--3---1--3--3--1--3---|-1--3--3--1--3---1--3--3--1--3---1--3--3--3--|


E|--------|--------|
B|--------|--------|
G|--------|--------|
D|--------|--------|
A|--------|--------|
E|--------|--------|





Track 2: Guitar 2

E|--------|--------|--------|--------|--------|--------|-------------------------------------------------|
B|--------|--------|--------|--------|--------|--------|-------------------------------------------------|
G|--------|--------|--------|--------|--------|--------|-------------------------------------------------|
D|--------|--------|--------|--------|--------|--------|-------------------------------------------------|
A|--------|--------|--------|--------|--------|--------|-0--1--1--0--1--1--0--1--1--0--1--1--0--1--1--1--|
E|--------|--------|--------|--------|--------|--------|-------------------------------------------------|


E|-------------------------------------------------|-------------------------------------------------|
B|-------------------------------------------------|-------------------------------------------------|
G|-------------------------------------------------|-------------------------------------------------|
D|-------------------------------------------------|-------------------------------------------------|
A|-0--1--1--0--1--1--0--1--1--0--1--1--0--1--1--1--|-0--1--1--0--1--1--0--1--1--0--1--1--0--1--1--1--|
E|-------------------------------------------------|-------------------------------------------------|


E|-------------------------------------------------|-------------------------------------------------|
B|-------------------------------------------------|-------------------------------------------------|
G|-------------------------------------------------|-------------------------------------------------|
D|-------------------------------------------------|-------------------------------------------------|
A|-0--1--1--0--1--1--0--1--1--0--1--1--0--1--1--1--|-0--1--1--0--1--1--0--1--1--0--1--1--0--1--1--1--|
E|-------------------------------------------------|-------------------------------------------------|


E|-------------------------------------------------|--------|--------|--------|--------|
B|-------------------------------------------------|--------|--------|--------|--------|
G|-------------------------------------------------|--------|--------|--------|--------|
D|-------------------------------------------------|--------|--------|--------|--------|
A|-0--1--1--0--1--1--0--1--1--1--13-12-10-9--7--5--|--------|--------|--------|--------|
E|-------------------------------13-12-10-7--5--3--|--------|--------|--------|--------|


E|--------|--------|--------|--------|--------|--------|--------|--------|--------|
B|--------|--------|--------|--------|--------|--------|--------|--------|--------|
G|--------|--------|--------|--------|--------|--------|--------|--------|--------|
D|--------|--------|--------|--------|--------|--------|--------|--------|--------|
A|--------|--------|--------|--------|--------|--------|--------|--------|--------|
E|--------|--------|--------|--------|--------|--------|--------|--------|--------|


E|--------|--------|--------|--------|--------|--------|--------|--------|--------|
B|--------|--------|--------|--------|--------|--------|--------|--------|--------|
G|--------|--------|--------|--------|--------|--------|--------|--------|--------|
D|--------|--------|--------|--------|--------|--------|--------|--------|--------|
A|--------|--------|--------|--------|--------|--------|--------|--------|--------|
E|--------|--------|--------|--------|--------|--------|--------|--------|--------|


E|--------|--------|--------|--------|--------|--------|-------------------------------------------------|
B|--------|--------|--------|--------|--------|--------|-------------------------------------------------|
G|--------|--------|--------|--------|--------|--------|-------------------------------------------------|
D|--------|--------|--------|--------|--------|--------|-------------------------------------------------|
A|--------|--------|--------|--------|--------|--------|-0--1--1--0--1--1--0--1--1--0--1--1--0--1--1--1--|
E|--------|--------|--------|--------|--------|--------|-------------------------------------------------|


E|-------------------------------------------------|-------------------------------------------------|
B|-------------------------------------------------|-------------------------------------------------|
G|-------------------------------------------------|-------------------------------------------------|
D|-------------------------------------------------|-------------------------------------------------|
A|-0--1--1--0--1--1--0--1--1--0--1--1--0--1--1--1--|-0--1--1--0--1--1--0--1--1--0--1--1--0--1--1--1--|
E|-------------------------------------------------|-------------------------------------------------|


E|-------------------------------------------------|--------|--------|--------|--------|
B|-------------------------------------------------|--------|--------|--------|--------|
G|-------------------------------------------------|--------|--------|--------|--------|
D|-------------------------------------------------|--------|--------|--------|--------|
A|-0--1--1--0--1--1--0--1--1--1--13-12-10-9--7--5--|--------|--------|--------|--------|
E|-------------------------------13-12-10-7--5--3--|--------|--------|--------|--------|


E|--------|--------|--------|--------|--------|--------|--------|--------|--------|
B|--------|--------|--------|--------|--------|--------|--------|--------|--------|
G|--------|--------|--------|--------|--------|--------|--------|--------|--------|
D|--------|--------|--------|--------|--------|--------|--------|--------|--------|
A|--------|--------|--------|--------|--------|--------|--------|--------|--------|
E|--------|--------|--------|--------|--------|--------|--------|--------|--------|


E|--------|--------|--------|--------|--------|
B|--------|--------|--------|--------|--------|
G|--------|--------|--------|--------|--------|
D|--------|--------|--------|--------|--------|
A|--------|--------|--------|--------|--------|
E|--------|--------|--------|--------|--------|





Track 3: Guitar 3

E|--------|--------|--------|--------|--------|--------|--------|-0------0--0--|-0------0--0--0--0--|
B|--------|--------|--------|--------|--------|--------|--------|-8------8--8--|-8------8--8--8--8--|
G|--------|--------|--------|--------|--------|--------|--------|-7------7--7--|-7------7--7--7--7--|
D|--------|--------|--------|--------|--------|--------|--------|-7------7--7--|-7------7--7--7--7--|
A|--------|--------|--------|--------|--------|--------|--------|-6------6--6--|-7---------7--7--7--|
E|--------|--------|--------|--------|--------|--------|--------|-6------6--6--|-6------6--6--6--6--|


E|-0------0--0--0--0--|-0------0--0--0--0--|-0--0--0--0--0--0--0--0--0--0--0--0--0--0--0--0--|
B|-8------8--8--8--8--|-8------8--8--8--8--|-8--8--8--8--8--8--8--8--8--8--8--8--8--8--8--8--|
G|-7------7--7--7--7--|-7------7--7--7--7--|-7--7--7--7--7--7--7--7--7--7--7--7--7--7--7--7--|
D|-7------7--7--7--7--|-7------7--7--7--7--|-7--7--7--7--7--7--7--7--7--7--7--7--7--7--7--7--|
A|-7---------7--7--7--|-7---------7--7--7--|-6--6--6--6--6--6--6--6--6--6--6--6--6--6--6--6--|
E|-6------6--6--6--6--|-6------6--6--6--6--|-6--6--6--6--6--6--6--6--6--6--6--6--6--6--6--6--|


E|--------|--------|--------|--------|--------|--------|--------|--------|--------|
B|--------|--------|--------|--------|--------|--------|--------|--------|--------|
G|--------|--------|--------|--------|--------|--------|--------|--------|--------|
D|--------|--------|--------|--------|--------|--------|--------|--------|--------|
A|--------|--------|--------|--------|--------|--------|--------|--------|--------|
E|--------|--------|--------|--------|--------|--------|--------|--------|--------|


E|--------|--------|--------|--------|--------|--------|--------|--------|--------|
B|--------|--------|--------|--------|--------|--------|--------|--------|--------|
G|--------|--------|--------|--------|--------|--------|--------|--------|--------|
D|--------|--------|--------|--------|--------|--------|--------|--------|--------|
A|--------|--------|--------|--------|--------|--------|--------|--------|--------|
E|--------|--------|--------|--------|--------|--------|--------|--------|--------|


E|--------|--------|--------|--------|--------|--------|--------|--------|--------|
B|--------|--------|--------|--------|--------|--------|--------|--------|--------|
G|--------|--------|--------|--------|--------|--------|--------|--------|--------|
D|--------|--------|--------|--------|--------|--------|--------|--------|--------|
A|--------|--------|--------|--------|--------|--------|--------|--------|--------|
E|--------|--------|--------|--------|--------|--------|--------|--------|--------|


E|-------------0--|-0------0----0--|-0------0----0--|-0------0----0--|-0--0--0--0--0--0--0--0--0--0--0--0--0--0--0--0--|
B|-------------8--|-8------8----8--|-8------8----8--|-8------8----8--|-8--8--8--8--8--8--8--8--8--8--8--8--8--8--8--8--|
G|-------------7--|-7------7----7--|-7------7----7--|-7------7----7--|-7--7--7--7--7--7--7--7--7--7--7--7--7--7--7--7--|
D|-------------7--|-7------7----7--|-7------7----7--|-7------7----7--|-7--7--7--7--7--7--7--7--7--7--7--7--7--7--7--7--|
A|-------------6--|-6-----------6--|-6-----------6--|-6-----------6--|-6--6--6--6--6--6--6--6--6--6--6--6--6--6--6--6--|
E|-------------6--|-6------6----6--|-6------6----6--|-6------6----6--|-6--6--6--6--6--6--6--6--6--6--6--6--6--6--6--6--|


E|--------|--------|--------|--------|--------|--------|--------|--------|--------|
B|--------|--------|--------|--------|--------|--------|--------|--------|--------|
G|--------|--------|--------|--------|--------|--------|--------|--------|--------|
D|--------|--------|--------|--------|--------|--------|--------|--------|--------|
A|--------|--------|--------|--------|--------|--------|--------|--------|--------|
E|--------|--------|--------|--------|--------|--------|--------|--------|--------|


E|--------|--------|--------|--------|--------|--------|--------|-0------|-0------|
B|--------|--------|--------|--------|--------|--------|--------|-8------|-8------|
G|--------|--------|--------|--------|--------|--------|--------|-7------|-7------|
D|--------|--------|--------|--------|--------|--------|--------|-7------|-7------|
A|--------|--------|--------|--------|--------|--------|--------|-5------|--------|
E|--------|--------|--------|--------|--------|--------|--------|-6------|-6------|





Track 4: Guitar 4

E|--------|--------|--------|--------|--------|--------|--------|--------|--------|
B|--------|--------|--------|--------|--------|--------|--------|--------|--------|
G|--------|--------|--------|--------|--------|--------|--------|--------|--------|
D|--------|--------|--------|--------|--------|--------|--------|--------|--------|
A|--------|--------|--------|--------|--------|--------|--------|--------|--------|
E|--------|--------|--------|--------|--------|--------|--------|--------|--------|


E|--------|--------|--------|--------|--------|--------|--------|--------|--------|
B|--------|--------|--------|--------|--------|--------|--------|--------|--------|
G|--------|--------|--------|--------|--------|--------|--------|--------|--------|
D|--------|--------|--------|--------|--------|--------|--------|--------|--------|
A|--------|--------|--------|--------|--------|--------|--------|--------|--------|
E|--------|--------|--------|--------|--------|--------|--------|--------|--------|


E|--------|--------|--------|--------|--------|--------|--------|--------|--------|
B|--------|--------|--------|--------|--------|--------|--------|--------|--------|
G|--------|--------|--------|--------|--------|--------|--------|--------|--------|
D|--------|--------|--------|--------|--------|--------|--------|--------|--------|
A|--------|--------|--------|--------|--------|--------|--------|--------|--------|
E|--------|--------|--------|--------|--------|--------|--------|--------|--------|


E|--------|--------|--------|--------|--------|--------|--------|--------|--------|
B|--------|--------|--------|--------|--------|--------|--------|--------|--------|
G|--------|--------|--------|--------|--------|--------|--------|--------|--------|
D|--------|--------|--------|--------|--------|--------|--------|--------|--------|
A|--------|--------|--------|--------|--------|--------|--------|--------|--------|
E|--------|--------|--------|--------|--------|--------|--------|--------|--------|


E|--------|--------|--------|--------|--------|--------|--------|--------|-------------------------------------------------------|
B|--------|--------|--------|--------|--------|--------|--------|--------|-131212-12-131212-12-131212-12-131212-12-131212-12-1312|
G|--------|--------|--------|--------|--------|--------|--------|--------|-----10-10-----10-10-----10-10-----10-10-----10-10-----|
D|--------|--------|--------|--------|--------|--------|--------|--------|-------------------------------------------------------|
A|--------|--------|--------|--------|--------|--------|--------|--------|-------------------------------------------------------|
E|--------|--------|--------|--------|--------|--------|--------|--------|-------------------------------------------------------|


E|----------------------------------------|-----------------------------------------------|
B|-12-12-131212-12-131212-12--------------|-----------------------------------------------|
G|-10-10-----10-10-----10-10-10--10---10--|-4--4--4-----------------4--4--4--------5--5---|
D|----------------------------------------|----------0-----0-----------------0------------|
A|----------------------------------------|-------------3-----2--2--------------3---------|
E|----------------------------------------|-----------------------------------------------|


E|---------------------------------------------------|--------|--------|--------|--------|
B|------------------------------------------------0--|--------|--------|--------|--------|
G|-4-0-4-0-4-----0-----------4--4--0-----5--0--0--0--|--------|--------|--------|--------|
D|------------0-----0-----------------0--------------|--------|--------|--------|--------|
A|---------------------2--2--------------------------|--------|--------|--------|--------|
E|---------------------------------------------------|--------|--------|--------|--------|


E|--------|--------|--------|--------|--------|--------|--------|--------|--------|
B|--------|--------|--------|--------|--------|--------|--------|--------|--------|
G|--------|--------|--------|--------|--------|--------|--------|--------|--------|
D|--------|--------|--------|--------|--------|--------|--------|--------|--------|
A|--------|--------|--------|--------|--------|--------|--------|--------|--------|
E|--------|--------|--------|--------|--------|--------|--------|--------|--------|


E|--------|
B|--------|
G|--------|
D|--------|
A|--------|
E|--------|





Track 5: Gtr. 1 Feedback

G|--------|-3------7----|-7-----3---3----7----|-3------7----|-3------|-7-----3-----|
D|--------|-------------|---------------------|-------------|--------|-------------|
A|--------|-------------|---------------------|-------------|--------|-------------|
E|--------|-------------|---------------------|-------------|--------|-------------|


G|-3----7------|-3------|-3------7----|-7-----3---3----7----|-3------7----|--------|
D|-------------|--------|-------------|---------------------|-------------|--------|
A|-------------|--------|-------------|---------------------|-------------|--------|
E|-------------|--------|-------------|---------------------|-------------|--------|


G|--------|--------|--------|--------|--------|--------|--------|--------|--------|
D|--------|--------|--------|--------|--------|--------|--------|--------|--------|
A|--------|--------|--------|--------|--------|--------|--------|--------|--------|
E|--------|--------|--------|--------|--------|--------|--------|--------|--------|


G|--------|--------|--------|--------|--------|--------|--------|--------|--------|
D|--------|--------|--------|--------|--------|--------|--------|--------|--------|
A|--------|--------|--------|--------|--------|--------|--------|--------|--------|
E|--------|--------|--------|--------|--------|--------|--------|--------|--------|


G|--------|--------|--------|--------|--------|--------|--------|--------|--------|
D|--------|--------|--------|--------|--------|--------|--------|--------|--------|
A|--------|--------|--------|--------|--------|--------|--------|--------|--------|
E|--------|--------|--------|--------|--------|--------|--------|--------|--------|


G|--------|--------|--------|--------|--------|--------|--------|--------|--------|
D|--------|--------|--------|--------|--------|--------|--------|--------|--------|
A|--------|--------|--------|--------|--------|--------|--------|--------|--------|
E|--------|--------|--------|--------|--------|--------|--------|--------|--------|


G|--------|--------|--------|--------|--------|--------|--------|--------|--------|
D|--------|--------|--------|--------|--------|--------|--------|--------|--------|
A|--------|--------|--------|--------|--------|--------|--------|--------|--------|
E|--------|--------|--------|--------|--------|--------|--------|--------|--------|


G|--------|--------|--------|--------|--------|
D|--------|--------|--------|--------|--------|
A|--------|--------|--------|--------|--------|
E|--------|--------|--------|--------|--------|





Track 6: Untitled

G|--------|--------|--------|--------|--------|--------|-------------------------------------------------|
D|--------|--------|--------|--------|--------|--------|-------------------------------------------------|
A|--------|--------|--------|--------|--------|--------|-0--1--1--0--1--1--0--1--1--0--1--1--0--1--1--1--|
E|--------|--------|--------|--------|--------|--------|-------------------------------------------------|


G|-------------------------------------------------|-------------------------------------------------|
D|-------------------------------------------------|-------------------------------------------------|
A|-0--1--1--0--1--1--0--1--1--0--1--1--0--1--1--1--|-0--1--1--0--1--1--0--1--1--0--1--1--0--1--1--1--|
E|-------------------------------------------------|-------------------------------------------------|


G|-------------------------------------------------|-------------------------------------------------|
D|-------------------------------------------------|-------------------------------------------------|
A|-0--1--1--0--1--1--0--1--1--0--1--1--0--1--1--1--|-0--1--1--0--1--1--0--1--1--0--1--1--0--1--1--1--|
E|-------------------------------------------------|-------------------------------------------------|


G|-------------------------------------------------|---------------------------------------------|
D|-------------------------------------------------|---------------------------------------------|
A|-0--1--1--0--1--1--0--1--1--1--1--1--1--1--1--1--|---------------------------------------------|
E|-------------------------------------------------|-1--3--3--1--3---1--3--3--1--3---1--3--3--1--|


G|-------------------------------------------|-------------------------------------------|
D|-------------------------------------------|-------------------------------------------|
A|-------------------------------------------|-------------------------------------------|
E|-3---1--3--3--1--3---1--3--3--1--3---1--3--|-3--1--3---1--3--3--1--3---1--3--3--1--3---|


G|---------------------------------------------|---------------------------------------------|
D|---------------------------------------------|---------------------------------------------|
A|---------------------------------------------|---------------------------------------------|
E|-1--3--3--1--3---1--3--3--1--3---1--3--3--1--|-1--3--3--1--3---1--3--3--1--3---1--3--3--1--|


G|-------------------------------------------|-------------------------------------------|
D|-------------------------------------------|-------------------------------------------|
A|-------------------------------------------|-------------------------------------------|
E|-3---1--3--3--1--3---1--3--3--1--3---1--3--|-3--1--3---1--3--3--1--3---1--3--3--1--3---|


G|-------------------------------------------|-------------------------------------------------|
D|-------------------------------------------|-------------------------------------------------|
A|-------------------------------------------|-6--6--6--6--6--6--6--6--6--6--6--6--6--6--6--6--|
E|-1--3--3--1--3---1--3--3--1--3---3--3--3---|-------------------------------------------------|


G|-------------------------------------------------|-------------------------------------------------|
D|-------------------------------------------------|-------------------------------------------------|
A|-6--6--6--6--6--6--6--6--6--6--6--6--6--5--4--3--|-3--3--3--3--3--3--3--3--3--3--3--3--3--3--3--3--|
E|-------------------------------------------------|-------------------------------------------------|


G|---------------------------------------------|---------------------------------------------|
D|---------------------------------------------|---------------------------------------------|
A|-3--3--3--3--3--3--3--3--3--3--3--3--3-------|---------------------------------------------|
E|----------------------------------------1----|-1--3--3--1--3---1--3--3--1--3---1--3--3--1--|


G|-------------------------------------------|-------------------------------------------|
D|-------------------------------------------|-------------------------------------------|
A|-------------------------------------------|-------------------------------------------|
E|-3---1--3--3--1--3---1--3--3--1--3---1--3--|-3--1--3---1--3--3--1--3---1--3--3--1--3---|


G|---------------------------------------------|---------------------------------------------|
D|---------------------------------------------|---------------------------------------------|
A|---------------------------------------------|---------------------------------------------|
E|-1--3--3--1--3---1--3--3--1--3---1--3--3--3--|-1--3--3--1--3---1--3--3--1--3---1--3--3--1--|


G|-------------------------------------------|-------------------------------------------|
D|-------------------------------------------|-------------------------------------------|
A|-------------------------------------------|-------------------------------------------|
E|-3---1--3--3--1--3---1--3--3--1--3---1--3--|-3--1--3---1--3--3--1--3---1--3--3--1--3---|


G|-------------------------------------------|-------------------------------------------------|
D|-------------------------------------------|-------------------------------------------------|
A|-------------------------------------------|-6--6--6--6--6--6--6--6--6--6--6--6--6--6--6--6--|
E|-1--3--3--1--3---1--3--3--1--3---3--3--3---|-------------------------------------------------|


G|-------------------------------------------------|-------------------------------------------------|
D|-------------------------------------------------|-------------------------------------------------|
A|-6--6--6--6--6--6--6--6--6--6--6--6--6--5--4--3--|-3--3--3--3--3--3--3--3--3--3--3--3--3--3--3--3--|
E|-------------------------------------------------|-------------------------------------------------|


G|---------------------------------------------|---------------------------------------------|
D|---------------------------------------------|---------------------------------------------|
A|-3--3--3--3--3--3--3--3--3--3--3--3--3-------|---------------------------------------------|
E|----------------------------------------1----|-1--3--3--1--3---1--3--3--1--3---1--3--3--1--|


G|-------------------------------------------|-------------------------------------------|
D|-------------------------------------------|-------------------------------------------|
A|-------------------------------------------|-------------------------------------------|
E|-3---1--3--3--1--3---1--3--3--1--3---1--3--|-3--1--3---1--3--3--1--3---1--3--3--1--3---|


G|---------------------------------------------|-------------------------------------------------|
D|---------------------------------------------|-------------------------------------------------|
A|---------------------------------------------|-0--1--1--0--1--1--0--1--1--0--1--1--0--1--1--1--|
E|-1--3--3--1--3---1--3--3--1--3---1--3--3--1--|-------------------------------------------------|


G|-------------------------------------------------|-------------------------------------------------|
D|-------------------------------------------------|-------------------------------------------------|
A|-0--1--1--0--1--1--0--1--1--0--1--1--0--1--1--1--|-0--1--1--0--1--1--0--1--1--0--1--1--0--1--1--1--|
E|-------------------------------------------------|-------------------------------------------------|


G|-------------------------------------------------|---------------------------------------------|
D|-------------------------------------------------|---------------------------------------------|
A|-0--1--1--0--1--1--0--1--1--0--1--1--0--1--1--1--|---------------------------------------------|
E|-------------------------------------------------|-1--3--3--1--3---1--3--3--1--3---1--3--3--1--|


G|-------------------------------------------|-------------------------------------------|
D|-------------------------------------------|-------------------------------------------|
A|-------------------------------------------|-------------------------------------------|
E|-3---1--3--3--1--3---1--3--3--1--3---1--3--|-3--1--3---1--3--3--1--3---1--3--3--1--3---|


G|---------------------------------------------|---------------------------------------------|
D|---------------------------------------------|---------------------------------------------|
A|---------------------------------------------|---------------------------------------------|
E|-1--3--3--1--3---1--3--3--1--3---1--3--3--1--|-1--3--3--1--3---1--3--3--1--3---1--3--3--1--|


G|-------------------------------------------|-------------------------------------------|
D|-------------------------------------------|-------------------------------------------|
A|-------------------------------------------|-------------------------------------------|
E|-3---1--3--3--1--3---1--3--3--1--3---1--3--|-3--1--3---1--3--3--1--3---1--3--3--1--3---|


G|-------------------------------------------|-------------------------------------------------|
D|-------------------------------------------|-------------------------------------------------|
A|-------------------------------------------|-6--6--6--6--6--6--6--6--6--6--6--6--6--6--6--6--|
E|-1--3--3--1--3---1--3--3--1--3---3--3--3---|-------------------------------------------------|


G|-------------------------------------------------|-------------------------------------------------|
D|-------------------------------------------------|-------------------------------------------------|
A|-6--6--6--6--6--6--6--6--6--6--6--6--6--5--4--3--|-3--3--3--3--3--3--3--3--3--3--3--3--3--3--3--3--|
E|-------------------------------------------------|-------------------------------------------------|


G|---------------------------------------------|---------------------------------------------|
D|---------------------------------------------|---------------------------------------------|
A|-3--3--3--3--3--3--3--3--3--3--3--3--3-------|---------------------------------------------|
E|----------------------------------------1----|-1--3--3--1--3---1--3--3--1--3---1--3--3--1--|


G|-------------------------------------------|-------------------------------------------|
D|-------------------------------------------|-------------------------------------------|
A|-------------------------------------------|-------------------------------------------|
E|-3---1--3--3--1--3---1--3--3--1--3---1--3--|-3--1--3---1--3--3--1--3---1--3--3--1--3---|


G|---------------------------------------------|--------|--------|
D|---------------------------------------------|--------|--------|
A|---------------------------------------------|-1------|-1------|
E|-1--3--3--1--3---1--3--3--1--3---1--3--3--3--|--------|--------|