Menu:

 

Search:

 

stone temple pilots - unglued:

 



Title: Unglued
Artist: 
Album: Purple
Author: 


Track 1: Guitar 1

E|---------------------------------|---------------------------------|---------------------------------|
B|---------------------------------|---------------------------------|---------------------------------|
G|---------------------------------|---------------------------------|---------------------------------|
D|---------------------------------|---------------------------------|---------------------------------|
A|---------------------------------|---------------------------------|---------------------------------|
E|-0---0---0---0---0---0---10--10--|-0---0---0---0---0---0---10--10--|-0---0---0---0---0---0---10--10--|


E|---------------------------------|---------------------------------|---------------------------------|
B|---------------------------------|---------------------------------|---------------------------------|
G|---------------------------------|---------------------------------|---------------------------------|
D|---------------------------------|---------------------------------|---------------------------------|
A|---------------------------------|---------------------------------|---------------------------------|
E|-0---0---0---0---0---0---10--10--|-0---0---0---0---0---0---10--10--|-0---0---0---0---0---0---10--10--|


E|---------------------------------|---------------------------------|---------------------------|
B|---------------------------------|---------------------------------|---------------------------|
G|---------------------------------|---------------------------------|---------------------------|
D|---------------------------------|---------------------------------|---------------------------|
A|---------------------------------|---------------------------------|-2---2---2---2---2---------|
E|-0---0---0---0---0---0---10--10--|-0---0---0---0---0---0---10--10--|-0---0---0---0---0---------|


E|---------------------------|---------------------------|---------------------------------|
B|---------------------------|---------------------------|---------------------------------|
G|---------------------------|---------------------------|---------------------------------|
D|---------------------------|---------------------------|---------------------------------|
A|-2---2---2---2---2---------|-2---2---2---2---2---------|-2---2---2---2---2---2---2---2---|
E|-0---0---0---0---0---------|-0---0---0---0---0---------|-0---0---0---0---0---0---0---0---|


E|---------------------------|---------------------------|---------------------------|
B|---------------------------|---------------------------|---------------------------|
G|---------------------------|---------------------------|---------------------------|
D|---------------------------|---------------------------|---------------------------|
A|-2---2---2---2---2---------|-2---2---2---2---2---------|-2---2---2---2---2---------|
E|-0---0---0---0---0---------|-0---0---0---0---0---------|-0---0---0---0---0---------|


E|---------------------------------|-0-----0---0---0---0---0---|-0----0---0---0---0---0---0---|
B|---------------------------------|-0-----1---1---1---1---1---|-2----2---1---1---1---1---1---|
G|---------------------------------|-1-----0---0---0---0---0---|-2----2---0---0---0---0---0---|
D|---------------------------------|-2-----2---2---2---2---2---|-2----2---2---2---2---2---2---|
A|-2---2---2---2---2---2---2---2---|-2-----3---3---3---3---3---|-0----0---3---3---3---3---3---|
E|-0---0---0---0---0---0---0---0---|-0-----3---3---3---3---3---|----------3---3---3---3---3---|


E|-0-----0---0---0---0---0---|-0----0----0---0---0---0---|-0-----0---0---0---0---0---|
B|-0-----1---1---1---1---1---|-2----2----2---2---2---2---|-0-----1---1---1---1---1---|
G|-1-----0---0---0---0---0---|-2----2----2---2---2---2---|-1-----0---0---0---0---0---|
D|-2-----2---2---2---2---2---|-2----2----2---2---2---2---|-2-----2---2---2---2---2---|
A|-2-----3---3---3---3---3---|-0----0----0---0---0---0---|-2-----3---3---3---3---3---|
E|-0-----3---3---3---3---3---|---------------------------|-0-----3---3---3---3---3---|


E|-0----0---0---0---0---0---0---|-0-----0---0---0---0---0---|-0----0----0---0---0---0---|
B|-2----2---1---1---1---1---1---|-0-----1---1---1---1---1---|-2----2----2---2---2---2---|
G|-2----2---0---0---0---0---0---|-1-----0---0---0---0---0---|-2----2----2---2---2---2---|
D|-2----2---2---2---2---2---2---|-2-----2---2---2---2---2---|-2----2----2---2---2---2---|
A|-0----0---3---3---3---3---3---|-2-----3---3---3---3---3---|-0----0----0---0---0---0---|
E|----------3---3---3---3---3---|-0-----3---3---3---3---3---|---------------------------|


E|-----------------------2---|-2---2---2----2---2---2-------|-0------|-0------|---------------------------------|
B|-3----3----3---3---3---2---|-2---2---2----2---2---2-------|-1------|-1------|---------------------------------|
G|-2----2----2---2---2---2---|-2---2---2----2---2---2---0---|-0------|-0------|---------------------------------|
D|-0----0----0---0---0---4---|-----4---4----4---4---4---0---|-2------|-2------|---------------------------------|
A|-0----0----0---0---0---4---|-4---4---4----4---4---4---0---|-3------|-3------|---------------------------------|
E|---------------------------|--------------------------0---|-3------|-3------|-0---0---0---0---0---0---10--10--|


E|---------------------------------|---------------------------------|---------------------------------|
B|---------------------------------|---------------------------------|---------------------------------|
G|---------------------------------|---------------------------------|---------------------------------|
D|---------------------------------|---------------------------------|---------------------------------|
A|---------------------------------|---------------------------------|---------------------------------|
E|-0---0---0---0---0---0---10--10--|-0---0---0---0---0---0---10--10--|-0---0---0---0---0---0---10--10--|


E|---------------------------|---------------------------|---------------------------|
B|---------------------------|---------------------------|---------------------------|
G|---------------------------|---------------------------|---------------------------|
D|---------------------------|---------------------------|---------------------------|
A|-2---2---2---2---2---------|-2---2---2---2---2---------|-2---2---2---2---2---------|
E|-0---0---0---0---0---------|-0---0---0---0---0---------|-0---0---0---0---0---------|


E|---------------------------------|---------------------------|---------------------------|
B|---------------------------------|---------------------------|---------------------------|
G|---------------------------------|---------------------------|---------------------------|
D|---------------------------------|---------------------------|---------------------------|
A|-2---2---2---2---2---2---2---2---|-2---2---2---2---2---------|-2---2---2---2---2---------|
E|-0---0---0---0---0---0---0---0---|-0---0---0---0---0---------|-0---0---0---0---0---------|


E|---------------------------|---------------------------------|-0-----0---0---0---0---0---|
B|---------------------------|---------------------------------|-0-----1---1---1---1---1---|
G|---------------------------|---------------------------------|-1-----0---0---0---0---0---|
D|---------------------------|---------------------------------|-2-----2---2---2---2---2---|
A|-2---2---2---2---2---------|-2---2---2---2---2---2---2---2---|-2-----3---3---3---3---3---|
E|-0---0---0---0---0---------|-0---0---0---0---0---0---0---0---|-0-----3---3---3---3---3---|


E|-0----0---0---0---0---0---0---|-0-----0---0---0---0---0---|-0----0----0---0---0---0---|
B|-2----2---1---1---1---1---1---|-0-----1---1---1---1---1---|-2----2----2---2---2---2---|
G|-2----2---0---0---0---0---0---|-1-----0---0---0---0---0---|-2----2----2---2---2---2---|
D|-2----2---2---2---2---2---2---|-2-----2---2---2---2---2---|-2----2----2---2---2---2---|
A|-0----0---3---3---3---3---3---|-2-----3---3---3---3---3---|-0----0----0---0---0---0---|
E|----------3---3---3---3---3---|-0-----3---3---3---3---3---|---------------------------|


E|-0-----0---0---0---0---0---|-0----0---0---0---0---0---0---|-0-----0---0---0---0---0---|
B|-0-----1---1---1---1---1---|-2----2---1---1---1---1---1---|-0-----1---1---1---1---1---|
G|-1-----0---0---0---0---0---|-2----2---0---0---0---0---0---|-1-----0---0---0---0---0---|
D|-2-----2---2---2---2---2---|-2----2---2---2---2---2---2---|-2-----2---2---2---2---2---|
A|-2-----3---3---3---3---3---|-0----0---3---3---3---3---3---|-2-----3---3---3---3---3---|
E|-0-----3---3---3---3---3---|----------3---3---3---3---3---|-0-----3---3---3---3---3---|


E|-0----0----0---0---0---0---|------15-----|------15---15----|-15-----|-15----------|
B|-2----2----2---2---2---2---|-------------|-----------------|--------|-------------|
G|-2----2----2---2---2---2---|-------------|-----------------|--------|------15-----|
D|-2----2----2---2---2---2---|-------------|-----------------|--------|-------------|
A|-0----0----0---0---0---0---|-------------|-----------------|--------|-------------|
E|---------------------------|-------------|-----------------|--------|-------------|


E|---------------------------------|---------------------------------|---------------------------------|
B|-15--15--15--15----------15------|-----15----------15----------15--|---------15----------15----------|
G|-14----------14--14--14------14--|-14------14--14------14--14------|-14--14------14--14--14--14------|
D|---------------------------------|---------------------------------|-------------------------14--12--|
A|---------------------------------|---------------------------------|---------------------------------|
E|---------------------------------|---------------------------------|---------------------------------|


E|-----------------------|--------------------------12--|-12------------------------|
B|-------------------14--|-14--16-------------------15--|-15------------------------|
G|---------------13--13--|-13-------------------13------|-------------------13--14--|
D|-12----12--12----------|---------12---12--12----------|------12---12--12----------|
A|-----------------------|------------------------------|---------------------------|
E|-----------------------|------------------------------|---------------------------|


E|-----------------------------------------|---------------------|---------------------------|
B|---------------------------------14------|---------------------|---------------------------|
G|---------------------14--12--13------13--|-12---12---12---12---|---------------------------|
D|---------14------13----------------------|---------------------|---------------------------|
A|-----13------12--------------------------|---------------------|-2---2---2---2---2---------|
E|-12--------------------------------------|---------------------|-0---0---0---0---0---------|


E|---------------------------|---------------------------|---------------------------------|
B|---------------------------|---------------------------|---------------------------------|
G|---------------------------|---------------------------|---------------------------------|
D|---------------------------|---------------------------|---------------------------------|
A|-2---2---2---2---2---------|-2---2---2---2---2---------|-2---2---2---2---2---2---2---2---|
E|-0---0---0---0---0---------|-0---0---0---0---0---------|-0---0---0---0---0---0---0---0---|


E|---------------------------|---------------------------|---------------------------|
B|---------------------------|---------------------------|---------------------------|
G|---------------------------|---------------------------|---------------------------|
D|---------------------------|---------------------------|---------------------------|
A|-2---2---2---2---2---------|-2---2---2---2---2---------|-2---2---2---2---2---------|
E|-0---0---0---0---0---------|-0---0---0---0---0---------|-0---0---0---0---0---------|


E|---------------------------------|-0-----0---0---0---0---0---|-0----0---0---0---0---0---0---|
B|---------------------------------|-0-----1---1---1---1---1---|-2----2---1---1---1---1---1---|
G|---------------------------------|-1-----0---0---0---0---0---|-2----2---0---0---0---0---0---|
D|---------------------------------|-2-----2---2---2---2---2---|-2----2---2---2---2---2---2---|
A|-2---2---2---2---2---2---2---2---|-2-----3---3---3---3---3---|-0----0---3---3---3---3---3---|
E|-0---0---0---0---0---0---0---0---|-0-----3---3---3---3---3---|----------3---3---3---3---3---|


E|-0-----0---0---0---0---0---|-0----0----0---0---0---0---|-0-----0---0---0---0---0---|
B|-0-----1---1---1---1---1---|-2----2----2---2---2---2---|-0-----1---1---1---1---1---|
G|-1-----0---0---0---0---0---|-2----2----2---2---2---2---|-1-----0---0---0---0---0---|
D|-2-----2---2---2---2---2---|-2----2----2---2---2---2---|-2-----2---2---2---2---2---|
A|-2-----3---3---3---3---3---|-0----0----0---0---0---0---|-2-----3---3---3---3---3---|
E|-0-----3---3---3---3---3---|---------------------------|-0-----3---3---3---3---3---|


E|-0----0---0---0---0---0---0---|-0-----0---0---0---0---0---|-0----0----0---0---0---0---|
B|-2----2---1---1---1---1---1---|-0-----1---1---1---1---1---|-2----2----2---2---2---2---|
G|-2----2---0---0---0---0---0---|-1-----0---0---0---0---0---|-2----2----2---2---2---2---|
D|-2----2---2---2---2---2---2---|-2-----2---2---2---2---2---|-2----2----2---2---2---2---|
A|-0----0---3---3---3---3---3---|-2-----3---3---3---3---3---|-0----0----0---0---0---0---|
E|----------3---3---3---3---3---|-0-----3---3---3---3---3---|---------------------------|


E|-0-----0---0---0---0---0---|-0----0---0---0---0---0---0---|-0-----0---0---0---0---0---|
B|-0-----1---1---1---1---1---|-2----2---1---1---1---1---1---|-0-----1---1---1---1---1---|
G|-1-----0---0---0---0---0---|-2----2---0---0---0---0---0---|-1-----0---0---0---0---0---|
D|-2-----2---2---2---2---2---|-2----2---2---2---2---2---2---|-2-----2---2---2---2---2---|
A|-2-----3---3---3---3---3---|-0----0---3---3---3---3---3---|-2-----3---3---3---3---3---|
E|-0-----3---3---3---3---3---|----------3---3---3---3---3---|-0-----3---3---3---3---3---|


E|-0----0----0---0---0---0---|-0-----0---0---0---0---0---|-0----0---0---0---0---0---0---|
B|-2----2----2---2---2---2---|-0-----1---1---1---1---1---|-2----2---1---1---1---1---1---|
G|-2----2----2---2---2---2---|-1-----0---0---0---0---0---|-2----2---0---0---0---0---0---|
D|-2----2----2---2---2---2---|-2-----2---2---2---2---2---|-2----2---2---2---2---2---2---|
A|-0----0----0---0---0---0---|-2-----3---3---3---3---3---|-0----0---3---3---3---3---3---|
E|---------------------------|-0-----3---3---3---3---3---|----------3---3---3---3---3---|


E|-0-----0---0---0---0---0---|-0----0----0---0---0---0---|-----------------------2---|
B|-0-----1---1---1---1---1---|-2----2----2---2---2---2---|-3----3----3---3---3---2---|
G|-1-----0---0---0---0---0---|-2----2----2---2---2---2---|-2----2----2---2---2---2---|
D|-2-----2---2---2---2---2---|-2----2----2---2---2---2---|-0----0----0---0---0---4---|
A|-2-----3---3---3---3---3---|-0----0----0---0---0---0---|-0----0----0---0---0---4---|
E|-0-----3---3---3---3---3---|---------------------------|---------------------------|


E|-2---2---2----2---2---2-------|-0------|-0------|-0------|-0------|-0------|-0------|
B|-2---2---2----2---2---2-------|-1------|-1------|-1------|-1------|-1------|-1------|
G|-2---2---2----2---2---2---0---|-0------|-0------|-0------|-0------|-0------|-0------|
D|-----4---4----4---4---4---0---|-2------|-2------|-2------|-2------|-2------|-2------|
A|-4---4---4----4---4---4-------|-3------|-3------|-3------|-3------|-3------|-3------|
E|------------------------------|-3------|-3------|-3------|-3------|-3------|-3------|


E|-0------|-0------|-0--------------|
B|-1------|-1------|-1--------------|
G|-0------|-0------|-0--------------|
D|-2------|-2------|-2--------------|
A|-3------|-3------|-3---12---------|
E|-3------|-3------|-3---12---------|





Track 2: Guitar 2

E|--------|--------|--------|--------|---------------------------------|---------------------------------|
B|--------|--------|--------|--------|---------------------------------|---------------------------------|
G|--------|--------|--------|--------|---------------------------------|---------------------------------|
D|--------|--------|--------|--------|---------------------------------|---------------------------------|
A|--------|--------|--------|--------|-2---2---2---2---2---2---5---5---|-2---2---2---2---2---2---5---5---|
E|--------|--------|--------|--------|-0---0---0---0---0---0-----------|-0---0---0---0---0---0-----------|


E|---------------------------------|---------------------------------|--------|--------|
B|---------------------------------|---------------------------------|--------|--------|
G|---------------------------------|---------------------------------|--------|--------|
D|---------------------------------|---------------------------------|--------|--------|
A|-2---2---2---2---2---2---5---5---|-2---2---2---2---2---2---5---5---|--------|--------|
E|-0---0---0---0---0---0-----------|-0---0---0---0---0---0-----------|--------|--------|


E|--------|------------------------|---------------------------------|---------------------------------|
B|--------|------------------------|---------------------------------|---------------------------------|
G|--------|------------------------|---------------------------------|---------------------------------|
D|--------|------------------------|-7---7---7---7---7---7---7---7---|-7---7---7---7---7---7---7---7---|
A|--------|-------0---17---17--0---|-7---7---7---7---7---7---7---7---|-7---7---7---7---7---7---7---7---|
E|--------|------------------------|-0---0---0---0---0---0---0---0---|-0---0---0---0---0---0---0---0---|


E|---------------------------------|-----------------0-------0-------|--------|--------|
B|---------------------------------|-----------------0-------0-------|--------|--------|
G|---------------------------------|-----------------0-------0-------|--------|--------|
D|-7---7---7---7---7---7---7---7---|-7---7---7---7-------7-------7---|--------|--------|
A|-7---7---7---7---7---7---7---7---|-7---7---7---7-------7-------7---|--------|--------|
E|-0---0---0---0---0---0---0---0---|-0---0---0---0-------0-------0---|--------|--------|


E|--------|--------|--------|--------|--------|--------|--------|--------|--------|
B|--------|--------|--------|--------|--------|--------|--------|--------|--------|
G|--------|--------|--------|--------|--------|--------|--------|--------|--------|
D|--------|--------|--------|--------|--------|--------|--------|--------|--------|
A|--------|--------|--------|--------|--------|--------|--------|--------|--------|
E|--------|--------|--------|--------|--------|--------|--------|--------|--------|


E|--------|--------|--------|--------|--------|--------|--------|--------|------------------------|
B|--------|--------|--------|--------|--------|--------|--------|--------|------------------------|
G|--------|--------|--------|--------|--------|--------|--------|--------|------------------------|
D|--------|--------|--------|--------|--------|--------|--------|--------|------------------------|
A|--------|--------|--------|--------|--------|--------|--------|--------|-------0---17---17--0---|
E|--------|--------|--------|--------|--------|--------|--------|--------|------------------------|


E|---------------------------------|---------------------------------|---------------------------------|
B|---------------------------------|---------------------------------|---------------------------------|
G|---------------------------------|---------------------------------|---------------------------------|
D|-7---7---7---7---7---7---7---7---|-7---7---7---7---7---7---7---7---|-7---7---7---7---7---7---7---7---|
A|-7---7---7---7---7---7---7---7---|-7---7---7---7---7---7---7---7---|-7---7---7---7---7---7---7---7---|
E|-0---0---0---0---0---0---0---0---|-0---0---0---0---0---0---0---0---|-0---0---0---0---0---0---0---0---|


E|-----------------0-------0-------|--------|--------|--------|--------|--------|--------|
B|-----------------0-------0-------|--------|--------|--------|--------|--------|--------|
G|-----------------0-------0-------|--------|--------|--------|--------|--------|--------|
D|-7---7---7---7-------7-------7---|--------|--------|--------|--------|--------|--------|
A|-7---7---7---7-------7-------7---|--------|--------|--------|--------|--------|--------|
E|-0---0---0---0-------0-------0---|--------|--------|--------|--------|--------|--------|


E|--------|--------|-----------------------2---|-2---2---2----2---2---2-------|-0------|
B|--------|--------|-3----3----3---3---3---2---|-2---2---2----2---2---2-------|-1------|
G|--------|--------|-2----2----2---2---2---2---|-2---2---2----2---2---2---0---|-0------|
D|--------|--------|-0----0----0---0---0---4---|-----4---4----4---4---4---0---|-2------|
A|--------|--------|-0----0----0---0---0---4---|-4---4---4----4---4---4---0---|-3------|
E|--------|--------|---------------------------|--------------------------0---|-3------|


E|-0------|--------|--------|--------|--------|--------|--------|--------|--------|
B|-1------|--------|--------|--------|--------|--------|--------|--------|--------|
G|-0------|--------|--------|--------|--------|--------|--------|--------|--------|
D|-2------|--------|--------|--------|--------|--------|--------|--------|--------|
A|-3------|--------|--------|--------|--------|--------|--------|--------|--------|
E|-3------|--------|--------|--------|--------|--------|--------|--------|--------|


E|--------|--------|--------|------------------------|---------------------------------|
B|--------|--------|--------|------------------------|---------------------------------|
G|--------|--------|--------|------------------------|---------------------------------|
D|--------|--------|--------|------------------------|-7---7---7---7---7---7---7---7---|
A|--------|--------|--------|-------0---17---17--0---|-7---7---7---7---7---7---7---7---|
E|--------|--------|--------|------------------------|-0---0---0---0---0---0---0---0---|


E|-----------------18--22--22--22--|---------------------------------|-----0---4---10--18--22--22------|
B|---------------------------------|---------------------------------|---------------------------------|
G|---------------------------------|---------------------------------|---------------------------------|
D|-7---7---7---7-------------------|-7---7---7---7---7---7---7---7---|-7-------------------------------|
A|-7---7---7---7-------------------|-7---7---7---7---7---7---7---7---|-7-------------------------------|
E|-0---0---0---0---0---0---0---0---|-0---0---0---0---0---0---0---0---|-0---0---0---0---0---0---0---0---|


E|--------|--------|--------|--------|--------|--------|--------|--------|--------|
B|--------|--------|--------|--------|--------|--------|--------|--------|--------|
G|--------|--------|--------|--------|--------|--------|--------|--------|--------|
D|--------|--------|--------|--------|--------|--------|--------|--------|--------|
A|--------|--------|--------|--------|--------|--------|--------|--------|--------|
E|--------|--------|--------|--------|--------|--------|--------|--------|--------|


E|--------|--------|--------|--------|--------|--------|--------|--------|--------|
B|--------|--------|--------|--------|--------|--------|--------|--------|--------|
G|--------|--------|--------|--------|--------|--------|--------|--------|--------|
D|--------|--------|--------|--------|--------|--------|--------|--------|--------|
A|--------|--------|--------|--------|--------|--------|--------|--------|--------|
E|--------|--------|--------|--------|--------|--------|--------|--------|--------|


E|--------|--------|--------|--------|--------|--------|--------|--------|--------|
B|--------|--------|--------|--------|--------|--------|--------|--------|--------|
G|--------|--------|--------|--------|--------|--------|--------|--------|--------|
D|--------|--------|--------|--------|--------|--------|--------|--------|--------|
A|--------|--------|--------|--------|--------|--------|--------|--------|--------|
E|--------|--------|--------|--------|--------|--------|--------|--------|--------|





Track 3: Guitar 1

E|--------|--------|--------|--------|--------|--------|--------|--------|--------|
B|--------|--------|--------|--------|--------|--------|--------|--------|--------|
G|--------|--------|--------|--------|--------|--------|--------|--------|--------|
D|--------|--------|--------|--------|--------|--------|--------|--------|--------|
A|--------|--------|--------|--------|--------|--------|--------|--------|--------|
E|--------|--------|--------|--------|--------|--------|--------|--------|--------|


E|--------|--------|--------|--------|--------|--------|--------|--------|--------|
B|--------|--------|--------|--------|--------|--------|--------|--------|--------|
G|--------|--------|--------|--------|--------|--------|--------|--------|--------|
D|--------|--------|--------|--------|--------|--------|--------|--------|--------|
A|--------|--------|--------|--------|--------|--------|--------|--------|--------|
E|--------|--------|--------|--------|--------|--------|--------|--------|--------|


E|--------|--------|--------|--------|--------|--------|--------|--------|--------|
B|--------|--------|--------|--------|--------|--------|--------|--------|--------|
G|--------|--------|--------|--------|--------|--------|--------|--------|--------|
D|--------|--------|--------|--------|--------|--------|--------|--------|--------|
A|--------|--------|--------|--------|--------|--------|--------|--------|--------|
E|--------|--------|--------|--------|--------|--------|--------|--------|--------|


E|--------|---------------------------------|---------------------------------|---------------------------------|
B|--------|---------------------------------|---------------------------------|---------------------------------|
G|--------|---------------------------------|---------------------------------|---------------------------------|
D|--------|---------------------------------|---------------------------------|---------------------------------|
A|--------|-2---2---2---2---2---2---5---5---|-2---2---2---2---2---2---5---5---|-2---2---2---2---2---2---5---5---|
E|--------|-0---0---0---0---0---0-----------|-0---0---0---0---0---0-----------|-0---0---0---0---0---0-----------|


E|---------------------------------|--------|--------|--------|--------|--------|--------|
B|---------------------------------|--------|--------|--------|--------|--------|--------|
G|---------------------------------|--------|--------|--------|--------|--------|--------|
D|---------------------------------|--------|--------|--------|--------|--------|--------|
A|-2---2---2---2---2---2---5---5---|--------|--------|--------|--------|--------|--------|
E|-0---0---0---0---0---0-----------|--------|--------|--------|--------|--------|--------|


E|--------|--------|--------|--------|--------|--------|--------|--------|--------|
B|--------|--------|--------|--------|--------|--------|--------|--------|--------|
G|--------|--------|--------|--------|--------|--------|--------|--------|--------|
D|--------|--------|--------|--------|--------|--------|--------|--------|--------|
A|--------|--------|--------|--------|--------|--------|--------|--------|--------|
E|--------|--------|--------|--------|--------|--------|--------|--------|--------|


E|--------|--------|--------|--------|--------|--------|--------|--------|--------|
B|--------|--------|--------|--------|--------|--------|--------|--------|--------|
G|--------|--------|--------|--------|--------|--------|--------|--------|--------|
D|--------|--------|--------|--------|--------|--------|--------|--------|--------|
A|--------|--------|--------|--------|--------|--------|--------|--------|--------|
E|--------|--------|--------|--------|--------|--------|--------|--------|--------|


E|--------|--------|--------|--------|--------|--------|--------|--------|--------|
B|--------|--------|--------|--------|--------|--------|--------|--------|--------|
G|--------|--------|--------|--------|--------|--------|--------|--------|--------|
D|--------|--------|--------|--------|--------|--------|--------|--------|--------|
A|--------|--------|--------|--------|--------|--------|--------|--------|--------|
E|--------|--------|--------|--------|--------|--------|--------|--------|--------|


E|--------|--------|--------|--------|--------|--------|--------|--------|--------|
B|--------|--------|--------|--------|--------|--------|--------|--------|--------|
G|--------|--------|--------|--------|--------|--------|--------|--------|--------|
D|--------|--------|--------|--------|--------|--------|--------|--------|--------|
A|--------|--------|--------|--------|--------|--------|--------|--------|--------|
E|--------|--------|--------|--------|--------|--------|--------|--------|--------|


E|--------|--------|--------|--------|--------|--------|--------|--------|--------|
B|--------|--------|--------|--------|--------|--------|--------|--------|--------|
G|--------|--------|--------|--------|--------|--------|--------|--------|--------|
D|--------|--------|--------|--------|--------|--------|--------|--------|--------|
A|--------|--------|--------|--------|--------|--------|--------|--------|--------|
E|--------|--------|--------|--------|--------|--------|--------|--------|--------|


E|--------|--------|--------|--------|--------|--------|--------|--------|--------|
B|--------|--------|--------|--------|--------|--------|--------|--------|--------|
G|--------|--------|--------|--------|--------|--------|--------|--------|--------|
D|--------|--------|--------|--------|--------|--------|--------|--------|--------|
A|--------|--------|--------|--------|--------|--------|--------|--------|--------|
E|--------|--------|--------|--------|--------|--------|--------|--------|--------|


E|--------|--------|--------|
B|--------|--------|--------|
G|--------|--------|--------|
D|--------|--------|--------|
A|--------|--------|--------|
E|--------|--------|--------|





Track 4: Untitled

G|--------|--------|--------|-------------|------------------------------|------------------------------|
D|--------|--------|--------|-------------|------------------------------|------------------------------|
A|--------|--------|--------|-------------|---------5---4---5---5--------|---------5---4---5---5--------|
E|--------|--------|--------|--------12---|-0---0-------------------3----|-0---0-------------------3----|


G|------------------------------|------------------------------|---------------------------|
D|------------------------------|------------------------------|---------------------------|
A|---------5---4---5---5--------|---------5---4---5---5--------|---------------------------|
E|-0---0-------------------3----|-0---0-------------------3----|-0---0---0---0---0---------|


G|---------------------------|---------------------------|---------------------------|
D|---------------------------|---------------------------|---------------------------|
A|---------------------------|---------------------------|---------------------------|
E|-0---0---0---0---0---------|-0---0---0---0---0---------|-0---0---0---0---3----3----|


G|---------------------------|---------------------------|---------------------------|
D|---------------------------|---------------------------|---------------------------|
A|---------------------------|---------------------------|---------------------------|
E|-0---0---0---0---0---------|-0---0---0---0---0---------|-0---0---0---0---0---------|


G|------------------------------|------------------------------|------------------------------|
D|------------------------------|------------------------------|------------------------------|
A|-------------------------5----|-7----7-----------------------|------------------------------|
E|-0---0---0---0---5---8--------|----------8---8---8---8---8---|-5----5---8---8---8---8---8---|


G|------------------------------|---------------------------|------------------------------|
D|------------------------------|---------------------------|------------------------------|
A|-7----7-----------------------|---------------------------|-7----7-----------------------|
E|----------8---8---8---8---8---|-5----5----3---0---3---5---|----------8---8---8---8---8---|


G|------------------------------|------------------------------|---------------------------|
D|------------------------------|------------------------------|---------------------------|
A|------------------------------|-7----7-----------------------|---------------------------|
E|-5----5---8---8---8---8---8---|----------8---8---8---8---8---|-5----5----3---0---3---5---|


G|---------------------------|---------------------------------|--------|-------------|
D|---------------------------|---------------------------------|--------|-------------|
A|-5----5----5---5---5---4---|-4---4---4---4---4---4---4---4---|-3------|-3------15---|
E|---------------------------|---------------------------------|--------|-------------|


G|------------------------------|------------------------------|------------------------------|
D|------------------------------|------------------------------|------------------------------|
A|---------5---4---5---5--------|---------5---4---5---5--------|---------5---4---5---5--------|
E|-0---0-------------------3----|-0---0-------------------3----|-0---0-------------------3----|


G|------------------------------|---------------------------|---------------------------|
D|------------------------------|---------------------------|---------------------------|
A|---------5---4---5---5--------|---------------------------|---------------------------|
E|-0---0-------------------3----|-0---0---0---0---0---------|-0---0---0---0---0---------|


G|---------------------------|---------------------------|---------------------------|
D|---------------------------|---------------------------|---------------------------|
A|---------------------------|---------------------------|---------------------------|
E|-0---0---0---0---0---------|-0---0---0---0---3----3----|-0---0---0---0---0---------|


G|---------------------------|---------------------------|------------------------------|
D|---------------------------|---------------------------|------------------------------|
A|---------------------------|---------------------------|-------------------------5----|
E|-0---0---0---0---0---------|-0---0---0---0---0---------|-0---0---0---0---5---8--------|


G|------------------------------|------------------------------|------------------------------|
D|------------------------------|------------------------------|------------------------------|
A|-7----7-----------------------|------------------------------|-7----7-----------------------|
E|----------8---8---8---8---8---|-5----5---8---8---8---8---8---|----------8---8---8---8---8---|


G|---------------------------|------------------------------|------------------------------|
D|---------------------------|------------------------------|------------------------------|
A|---------------------------|-7----7-----------------------|------------------------------|
E|-5----5----3---0---3---5---|----------8---8---8---8---8---|-5----5---8---8---8---8---8---|


G|------------------------------|---------------------------|---------------------------|
D|------------------------------|---------------------------|---------------------------|
A|-7----7-----------------------|---------------------------|-5----5----5---5---5---4---|
E|----------8---8---8---8---8---|-5----5----3---0---3---5---|---------------------------|


G|---------------------------------|--------|-------------|------------------------------|
D|---------------------------------|--------|-------------|------------------------------|
A|-4---4---4---4---4---4---4---4---|-3------|-3------15---|---------5---4---5---5--------|
E|---------------------------------|--------|-------------|-0---0-------------------3----|


G|------------------------------|------------------------------|------------------------------|
D|------------------------------|------------------------------|------------------------------|
A|---------5---4---5---5--------|---------5---4---5---5--------|---------5---4---5---5--------|
E|-0---0-------------------3----|-0---0-------------------3----|-0---0-------------------3----|


G|------------------------------|------------------------------|------------------------------|
D|------------------------------|------------------------------|------------------------------|
A|---------5---4---5---5--------|---------5---4---5---5--------|---------5---4---5---5--------|
E|-0---0-------------------3----|-0---0-------------------3----|-0---0-------------------3----|


G|------------------------------|---------------------------|---------------------------|
D|------------------------------|---------------------------|---------------------------|
A|---------5---4---5---5--------|---------------------------|---------------------------|
E|-0---0-------------------3----|-0---0---0---0---0---------|-0---0---0---0---0---------|


G|---------------------------|---------------------------|---------------------------|
D|---------------------------|---------------------------|---------------------------|
A|---------------------------|---------------------------|---------------------------|
E|-0---0---0---0---0---------|-0---0---0---0---3----3----|-0---0---0---0---0---------|


G|---------------------------|---------------------------|------------------------------|
D|---------------------------|---------------------------|------------------------------|
A|---------------------------|---------------------------|-------------------------5----|
E|-0---0---0---0---0---------|-0---0---0---0---0---------|-0---0---0---0---5---8--------|


G|------------------------------|------------------------------|------------------------------|
D|------------------------------|------------------------------|------------------------------|
A|-7----7-----------------------|------------------------------|-7----7-----------------------|
E|----------8---8---8---8---8---|-5----5---8---8---8---8---8---|----------8---8---8---8---8---|


G|---------------------------|------------------------------|------------------------------|
D|---------------------------|------------------------------|------------------------------|
A|---------------------------|-7----7-----------------------|------------------------------|
E|-5----5----3---0---3---5---|----------8---8---8---8---8---|-5----5---8---8---8---8---8---|


G|------------------------------|---------------------------|------------------------------|
D|------------------------------|---------------------------|------------------------------|
A|-7----7-----------------------|---------------------------|-7----7-----------------------|
E|----------8---8---8---8---8---|-5----5----3---0---3---5---|----------8---8---8---8---8---|


G|------------------------------|------------------------------|---------------------------|
D|------------------------------|------------------------------|---------------------------|
A|------------------------------|-7----7-----------------------|---------------------------|
E|-5----5---8---8---8---8---8---|----------8---8---8---8---8---|-5----5----3---0---3---5---|


G|------------------------------|------------------------------|------------------------------|
D|------------------------------|------------------------------|------------------------------|
A|-7----7-----------------------|------------------------------|-7----7-----------------------|
E|----------8---8---8---8---8---|-5----5---8---8---8---8---8---|----------8---8---8---8---8---|


G|---------------------------|---------------------------|---------------------------------|
D|---------------------------|---------------------------|---------------------------------|
A|---------------------------|-5----5----5---5---5---4---|-4---4---4---4---4---4---4---4---|
E|-5----5----3---0---3---5---|---------------------------|---------------------------------|


G|--------|--------|--------|--------|--------|--------|--------|--------|----------------|
D|--------|--------|--------|--------|--------|--------|--------|--------|----------------|
A|-3------|-3------|-3------|-3------|-3------|-3------|-3------|-3------|-3---12---------|
E|--------|--------|--------|--------|--------|--------|--------|--------|----------------|