Menu:

 

Search:

 

stone temple pilots - still remains:

 



Title: Still Remains
Artist: 
Album: Purple
Author: Robert and Dean DeLeo


Track 1: Rhythm Guitar

E|-----------------0----0-------|---------------------------------|-----------------0----0-------|
B|-----------------0----0-------|-------------------------0---0---|-----------------0----0-------|
G|-4---6---6---6---6----6---6---|-4---6---6---6---4---6---7---6---|-4---6---6---6---6----6---6---|
D|-6---7---7---7---7----7---7---|-6---7---7---7---6---7---7---7---|-6---7---7---7---7----7---7---|
A|-0---0---0---0---0----0---0---|-0---0---0---0---0---0---0---0---|-0---0---0---0---0----0---0---|
E|------------------------------|---------------------------------|------------------------------|


E|---------------------------------|-----------------0----0-------|---------------------------------|
B|-------------------------0---0---|-----------------0----0-------|-------------------------0---0---|
G|-4---6---6---6---4---6---7---6---|-4---6---6---6---6----6---6---|-4---6---6---6---4---6---7---6---|
D|-6---7---7---7---6---7---7---7---|-6---7---7---7---7----7---7---|-6---7---7---7---6---7---7---7---|
A|-0---0---0---0---0---0---0---0---|-0---0---0---0---0----0---0---|-0---0---0---0---0---0---0---0---|
E|---------------------------------|------------------------------|---------------------------------|


E|-------------------5----|-5------|-----------------0----0-------|---------------------------------|
B|----------5----5---3----|-3------|-----------------0----0-------|-------------------------0---0---|
G|-2----2---6----6---4----|-4------|-4---6---6---6---6----6---6---|-4---6---6---6---4---6---7---6---|
D|-2----2---7----7---5----|-5------|-6---7---7---7---7----7---7---|-6---7---7---7---6---7---7---7---|
A|-0----0---0----0--------|--------|-0---0---0---0---0----0---0---|-0---0---0---0---0---0---0---0---|
E|------------------------|--------|------------------------------|---------------------------------|


E|-----------------0----0-------|---------------------------------|-----------------0----0-------|
B|-----------------0----0-------|-------------------------0---0---|-----------------0----0-------|
G|-4---6---6---6---6----6---6---|-4---6---6---6---4---6---7---6---|-4---6---6---6---6----6---6---|
D|-6---7---7---7---7----7---7---|-6---7---7---7---6---7---7---7---|-6---7---7---7---7----7---7---|
A|-0---0---0---0---0----0---0---|-0---0---0---0---0---0---0---0---|-0---0---0---0---0----0---0---|
E|------------------------------|---------------------------------|------------------------------|


E|---------------------------------|-----------------0----0-------|---------------------------------|
B|-------------------------0---0---|-----------------0----0-------|-------------------------0---0---|
G|-4---6---6---6---4---6---7---6---|-4---6---6---6---6----6---6---|-4---6---6---6---4---6---7---6---|
D|-6---7---7---7---6---7---7---7---|-6---7---7---7---7----7---7---|-6---7---7---7---6---7---7---7---|
A|-0---0---0---0---0---0---0---0---|-0---0---0---0---0----0---0---|-0---0---0---0---0---0---0---0---|
E|---------------------------------|------------------------------|---------------------------------|


E|-----------------0----0---5---|-5---5---5----5---5---5----|-5-----5-----|-5-----5-----|
B|-----------------0----0---6---|-6---6---6----6---6---6----|-3-----3-----|-3-----3-----|
G|-4---6---6---6---6----6---5---|-5---5---5----5---5---5----|-4-----4-----|-4-----4-----|
D|-6---7---7---7---7----7---0---|-0---0---0----0---0---0----|-5-----5-----|-5-----5-----|
A|-0---0---0---0---0----0-------|---------------------------|-------------|-------------|
E|------------------------------|---------------------------|-------------|-------------|


E|----------------5---|-5---5---5----5---5---5----|-5-----5-----|-5-----5-----|-5-----5----5---5---|
B|----------------6---|-6---6---6----6---6---6----|-3-----3-----|-3-----3-----|-6-----6----6---6---|
G|-2-----2----2---5---|-5---5---5----5---5---5----|-4-----4-----|-4-----4-----|-5-----5----5---5---|
D|-2-----2----2---0---|-0---0---0----0---0---0----|-5-----5-----|-5-----5-----|-0-----0----0---0---|
A|-0-----0----0-------|---------------------------|-------------|-------------|--------------------|
E|--------------------|---------------------------|-------------|-------------|--------------------|


E|-5---5---5----5-----|-5----5---5----5---0----|-0-----0-----|-5-----5----5---5---|
B|-6---6---6----6-----|-3----3---3----3---5----|-5-----5-----|-6-----6----6---6---|
G|-5---5---5----5-----|-4----4---4----4---6----|-6-----6-----|-5-----5----5---5---|
D|-0---0---0----0-----|-5----5---5----5---7----|-7-----7-----|-0-----0----0---0---|
A|--------------------|-------------------0----|-0-----0-----|--------------------|
E|--------------------|------------------------|-------------|--------------------|


E|-5---5---5----5-----|-5----5---5----5---0----|-0-----0-----|-5-----5----5---5---|
B|-6---6---6----6-----|-3----3---3----3---5----|-5-----5-----|-6-----6----6---6---|
G|-5---5---5----5-----|-4----4---4----4---6----|-6-----6-----|-5-----5----5---5---|
D|-0---0---0----0-----|-5----5---5----5---7----|-7-----7-----|-0-----0----0---0---|
A|--------------------|-------------------0----|-0-----0-----|--------------------|
E|--------------------|------------------------|-------------|--------------------|


E|-5---5---5----5-----|-5----5---5----5---0----|-0-----0-----|-5-----5----5---5---|
B|-6---6---6----6-----|-3----3---3----3---5----|-5-----5-----|-6-----6----6---6---|
G|-5---5---5----5-----|-4----4---4----4---6----|-6-----6-----|-5-----5----5---5---|
D|-0---0---0----0-----|-5----5---5----5---7----|-7-----7-----|-0-----0----0---0---|
A|--------------------|-------------------0----|-0-----0-----|--------------------|
E|--------------------|------------------------|-------------|--------------------|


E|-5---5---5----5-----|-5----5---5----5---0----|-0------|-----------------0----0-------|
B|-6---6---6----6-----|-3----3---3----3---5----|-5------|-----------------0----0-------|
G|-5---5---5----5-----|-4----4---4----4---6----|-6------|-4---6---6---6---6----6---6---|
D|-0---0---0----0-----|-5----5---5----5---7----|-7------|-6---7---7---7---7----7---7---|
A|--------------------|-------------------0----|-0------|-0---0---0---0---0----0---0---|
E|--------------------|------------------------|--------|------------------------------|


E|---------------------------------|-----------------0----0-------|---------------------------------|
B|-------------------------0---0---|-----------------0----0-------|-------------------------0---0---|
G|-4---6---6---6---4---6---7---6---|-4---6---6---6---6----6---6---|-4---6---6---6---4---6---7---6---|
D|-6---7---7---7---6---7---7---7---|-6---7---7---7---7----7---7---|-6---7---7---7---6---7---7---7---|
A|-0---0---0---0---0---0---0---0---|-0---0---0---0---0----0---0---|-0---0---0---0---0---0---0---0---|
E|---------------------------------|------------------------------|---------------------------------|


E|-----------------0----0-------|---------------------------------|-----------------0----0-------|
B|-----------------0----0-------|-------------------------0---0---|-----------------0----0-------|
G|-4---6---6---6---6----6---6---|-4---6---6---6---4---6---7---6---|-4---6---6---6---6----6---6---|
D|-6---7---7---7---7----7---7---|-6---7---7---7---6---7---7---7---|-6---7---7---7---7----7---7---|
A|-0---0---0---0---0----0---0---|-0---0---0---0---0---0---0---0---|-0---0---0---0---0----0---0---|
E|------------------------------|---------------------------------|------------------------------|


E|---------------------------------|-----------------0----0---5---|-5---5---5----5---5---5----|
B|-------------------------0---0---|-----------------0----0---6---|-6---6---6----6---6---6----|
G|-4---6---6---6---4---6---7---6---|-4---6---6---6---6----6---5---|-5---5---5----5---5---5----|
D|-6---7---7---7---6---7---7---7---|-6---7---7---7---7----7---0---|-0---0---0----0---0---0----|
A|-0---0---0---0---0---0---0---0---|-0---0---0---0---0----0-------|---------------------------|
E|---------------------------------|------------------------------|---------------------------|


E|-5-----5-----|-5-----5-----|----------------5---|-5---5---5----5---5---5----|-5-----5-----|
B|-3-----3-----|-3-----3-----|----------------6---|-6---6---6----6---6---6----|-3-----3-----|
G|-4-----4-----|-4-----4-----|-2-----2----2---5---|-5---5---5----5---5---5----|-4-----4-----|
D|-5-----5-----|-5-----5-----|-2-----2----2---0---|-0---0---0----0---0---0----|-5-----5-----|
A|-------------|-------------|-0-----0----0-------|---------------------------|-------------|
E|-------------|-------------|--------------------|---------------------------|-------------|


E|-5-----5-----|-5-----5----5---5---|-5---5---5----5-----|-5----5---5----5---0----|
B|-3-----3-----|-6-----6----6---6---|-6---6---6----6-----|-3----3---3----3---5----|
G|-4-----4-----|-5-----5----5---5---|-5---5---5----5-----|-4----4---4----4---6----|
D|-5-----5-----|-0-----0----0---0---|-0---0---0----0-----|-5----5---5----5---7----|
A|-------------|--------------------|--------------------|-------------------0----|
E|-------------|--------------------|--------------------|------------------------|


E|-0-----0-----|-5-----5----5---5---|-5---5---5----5-----|-5----5---5----5---0----|
B|-5-----5-----|-6-----6----6---6---|-6---6---6----6-----|-3----3---3----3---5----|
G|-6-----6-----|-5-----5----5---5---|-5---5---5----5-----|-4----4---4----4---6----|
D|-7-----7-----|-0-----0----0---0---|-0---0---0----0-----|-5----5---5----5---7----|
A|-0-----0-----|--------------------|--------------------|-------------------0----|
E|-------------|--------------------|--------------------|------------------------|


E|-0-----0-----|-5-----5----5---5---|-5---5---5----5-----|-5----5---5----5---0----|
B|-5-----5-----|-6-----6----6---6---|-6---6---6----6-----|-3----3---3----3---5----|
G|-6-----6-----|-5-----5----5---5---|-5---5---5----5-----|-4----4---4----4---6----|
D|-7-----7-----|-0-----0----0---0---|-0---0---0----0-----|-5----5---5----5---7----|
A|-0-----0-----|--------------------|--------------------|-------------------0----|
E|-------------|--------------------|--------------------|------------------------|


E|-0-----0-----|-5-----5----5---5---|-5---5---5----5-----|-5----5---5----5---0----|
B|-5-----5-----|-6-----6----6---6---|-6---6---6----6-----|-3----3---3----3---5----|
G|-6-----6-----|-5-----5----5---5---|-5---5---5----5-----|-4----4---4----4---6----|
D|-7-----7-----|-0-----0----0---0---|-0---0---0----0-----|-5----5---5----5---7----|
A|-0-----0-----|--------------------|--------------------|-------------------0----|
E|-------------|--------------------|--------------------|------------------------|


E|-0------|--------|--------|--------|--------|--------|--------|--------|--------|
B|-5------|--------|--------|--------|--------|--------|--------|--------|--------|
G|-6------|--------|--------|--------|--------|--------|--------|--------|--------|
D|-7------|--------|--------|--------|--------|--------|--------|--------|--------|
A|-0------|--------|--------|--------|--------|--------|--------|--------|--------|
E|--------|--------|--------|--------|--------|--------|--------|--------|--------|


E|-----------------0----0-------|---------------------------------|-----------------0----0-------|
B|-----------------0----0-------|-------------------------0---0---|-----------------0----0-------|
G|-4---6---6---6---6----6---6---|-4---6---6---6---4---6---7---6---|-4---6---6---6---6----6---6---|
D|-6---7---7---7---7----7---7---|-6---7---7---7---6---7---7---7---|-6---7---7---7---7----7---7---|
A|-0---0---0---0---0----0---0---|-0---0---0---0---0---0---0---0---|-0---0---0---0---0----0---0---|
E|------------------------------|---------------------------------|------------------------------|


E|---------------------------------|-----------------0----0-------|---------------------------------|
B|-------------------------0---0---|-----------------0----0-------|-------------------------0---0---|
G|-4---6---6---6---4---6---7---6---|-4---6---6---6---6----6---6---|-4---6---6---6---4---6---7---6---|
D|-6---7---7---7---6---7---7---7---|-6---7---7---7---7----7---7---|-6---7---7---7---6---7---7---7---|
A|-0---0---0---0---0---0---0---0---|-0---0---0---0---0----0---0---|-0---0---0---0---0---0---0---0---|
E|---------------------------------|------------------------------|---------------------------------|


E|-----------------0----0-------|---------------------------------|-----------------0----0---5---|
B|-----------------0----0-------|-------------------------0---0---|-----------------0----0---6---|
G|-4---6---6---6---6----6---6---|-4---6---6---6---4---6---7---6---|-4---6---6---6---6----6---5---|
D|-6---7---7---7---7----7---7---|-6---7---7---7---6---7---7---7---|-6---7---7---7---7----7---0---|
A|-0---0---0---0---0----0---0---|-0---0---0---0---0---0---0---0---|-0---0---0---0---0----0-------|
E|------------------------------|---------------------------------|------------------------------|


E|-5---5---5----5---5---5----|-5-----5-----|-5-----5-----|----------------5---|-5---5---5----5---5---5----|
B|-6---6---6----6---6---6----|-3-----3-----|-3-----3-----|----------------6---|-6---6---6----6---6---6----|
G|-5---5---5----5---5---5----|-4-----4-----|-4-----4-----|-2-----2----2---5---|-5---5---5----5---5---5----|
D|-0---0---0----0---0---0----|-5-----5-----|-5-----5-----|-2-----2----2---0---|-0---0---0----0---0---0----|
A|---------------------------|-------------|-------------|-0-----0----0-------|---------------------------|
E|---------------------------|-------------|-------------|--------------------|---------------------------|


E|-5-----5-----|-5-----5-----|-5-----5----5---5---|-5---5---5----5-----|-5----5---5----5---0----|
B|-3-----3-----|-3-----3-----|-6-----6----6---6---|-6---6---6----6-----|-3----3---3----3---5----|
G|-4-----4-----|-4-----4-----|-5-----5----5---5---|-5---5---5----5-----|-4----4---4----4---6----|
D|-5-----5-----|-5-----5-----|-0-----0----0---0---|-0---0---0----0-----|-5----5---5----5---7----|
A|-------------|-------------|--------------------|--------------------|-------------------0----|
E|-------------|-------------|--------------------|--------------------|------------------------|


E|-0-----0-----|-5-----5----5---5---|-5---5---5----5-----|-5----5---5----5---0----|
B|-5-----5-----|-6-----6----6---6---|-6---6---6----6-----|-3----3---3----3---5----|
G|-6-----6-----|-5-----5----5---5---|-5---5---5----5-----|-4----4---4----4---6----|
D|-7-----7-----|-0-----0----0---0---|-0---0---0----0-----|-5----5---5----5---7----|
A|-0-----0-----|--------------------|--------------------|-------------------0----|
E|-------------|--------------------|--------------------|------------------------|


E|-0-----0-----|-5-----5----5---5---|-5---5---5----5-----|-5----5---5----5---0----|
B|-5-----5-----|-6-----6----6---6---|-6---6---6----6-----|-3----3---3----3---5----|
G|-6-----6-----|-5-----5----5---5---|-5---5---5----5-----|-4----4---4----4---6----|
D|-7-----7-----|-0-----0----0---0---|-0---0---0----0-----|-5----5---5----5---7----|
A|-0-----0-----|--------------------|--------------------|-------------------0----|
E|-------------|--------------------|--------------------|------------------------|


E|-0-----0-----|-5-----5----5---5---|-5---5---5----5-----|-5----5---5----5---0----|
B|-5-----5-----|-6-----6----6---6---|-6---6---6----6-----|-3----3---3----3---5----|
G|-6-----6-----|-5-----5----5---5---|-5---5---5----5-----|-4----4---4----4---6----|
D|-7-----7-----|-0-----0----0---0---|-0---0---0----0-----|-5----5---5----5---7----|
A|-0-----0-----|--------------------|--------------------|-------------------0----|
E|-------------|--------------------|--------------------|------------------------|


E|-0------|
B|-5------|
G|-6------|
D|-7------|
A|-0------|
E|--------|





Track 2: Lead Guitar

E|--------|--------|--------|--------|--------|--------|--------|--------|--------|
B|--------|--------|--------|--------|--------|--------|--------|--------|--------|
G|--------|--------|--------|--------|--------|--------|--------|--------|--------|
D|--------|--------|--------|--------|--------|--------|--------|--------|--------|
A|--------|--------|--------|--------|--------|--------|--------|--------|--------|
E|--------|--------|--------|--------|--------|--------|--------|--------|--------|


E|--------|--------|--------|--------|--------|--------|--------|--------|--------|
B|--------|--------|--------|--------|--------|--------|--------|--------|--------|
G|--------|--------|--------|--------|--------|--------|--------|--------|--------|
D|--------|--------|--------|--------|--------|--------|--------|--------|--------|
A|--------|--------|--------|--------|--------|--------|--------|--------|--------|
E|--------|--------|--------|--------|--------|--------|--------|--------|--------|


E|--------|--------|--------|--------|--------|--------|--------|--------|--------|
B|--------|--------|--------|--------|--------|--------|--------|--------|--------|
G|--------|--------|--------|--------|--------|--------|--------|--------|--------|
D|--------|--------|--------|--------|--------|--------|--------|--------|--------|
A|--------|--------|--------|--------|--------|--------|--------|--------|--------|
E|--------|--------|--------|--------|--------|--------|--------|--------|--------|


E|--------|--------|--------|--------|--------|---------------------------------|------------------------------|
B|--------|--------|--------|--------|--------|-13------13------13------13------|-12------12------12-----------|
G|--------|--------|--------|--------|--------|-----14------14------14------14--|-----12------12------12-------|
D|--------|--------|--------|--------|--------|---------------------------------|-------------------------14---|
A|--------|--------|--------|--------|--------|---------------------------------|------------------------------|
E|--------|--------|--------|--------|--------|---------------------------------|------------------------------|


E|-------------------0----|-0-----0-----|---------------------------------|------------------------------|
B|-------------------12---|-12----12----|-13------13------13------13------|-12------12------12-----------|
G|-------------------14---|-14----14----|-----14------14------14------14--|-----12------12------12-------|
D|-12---12--12---14--14---|-14----14----|---------------------------------|-------------------------14---|
A|-------------------0----|-0-----0-----|---------------------------------|------------------------------|
E|------------------------|-------------|---------------------------------|------------------------------|


E|-------------------0----|-0------|--------|--------|--------|--------|--------|--------|
B|-------------------12---|-12-----|--------|--------|--------|--------|--------|--------|
G|-------------------14---|-14-----|--------|--------|--------|--------|--------|--------|
D|-12---12--12---14--14---|-14-----|--------|--------|--------|--------|--------|--------|
A|-------------------0----|-0------|--------|--------|--------|--------|--------|--------|
E|------------------------|--------|--------|--------|--------|--------|--------|--------|


E|--------|--------|--------|--------|--------|--------|--------|--------|--------|
B|--------|--------|--------|--------|--------|--------|--------|--------|--------|
G|--------|--------|--------|--------|--------|--------|--------|--------|--------|
D|--------|--------|--------|--------|--------|--------|--------|--------|--------|
A|--------|--------|--------|--------|--------|--------|--------|--------|--------|
E|--------|--------|--------|--------|--------|--------|--------|--------|--------|


E|--------|--------|--------|--------|--------|--------|--------|--------|--------|
B|--------|--------|--------|--------|--------|--------|--------|--------|--------|
G|--------|--------|--------|--------|--------|--------|--------|--------|--------|
D|--------|--------|--------|--------|--------|--------|--------|--------|--------|
A|--------|--------|--------|--------|--------|--------|--------|--------|--------|
E|--------|--------|--------|--------|--------|--------|--------|--------|--------|


E|---------------------------------|------------------------------|-------------------0----|
B|-13------13------13------13------|-12------12------12-----------|-------------------12---|
G|-----14------14------14------14--|-----12------12------12-------|-------------------14---|
D|---------------------------------|-------------------------14---|-12---12--12---14--14---|
A|---------------------------------|------------------------------|-------------------0----|
E|---------------------------------|------------------------------|------------------------|


E|-0-----0-----|---------------------------------|------------------------------|-------------------0----|
B|-12----12----|-13------13------13------13------|-12------12------12-----------|-------------------12---|
G|-14----14----|-----14------14------14------14--|-----12------12------12-------|-------------------14---|
D|-14----14----|---------------------------------|-------------------------14---|-12---12--12---14--14---|
A|-0-----0-----|---------------------------------|------------------------------|-------------------0----|
E|-------------|---------------------------------|------------------------------|------------------------|


E|-0---0----0---0---0---0---0---|-0----0----0----0---0---|-0---0----0----0---0---0---|
B|-12--12---12--12--12--12--12--|-12---12---12---12--12--|-12--12---12---12--12--12--|
G|-14--14---14--14--14--14--14--|-14---14---14---14--14--|-14--14---14---14--14--14--|
D|-14--14---14--14--14--14--14--|-14---14---14---14--14--|-14--14---14---14--14--14--|
A|-0---0----0---0---0---0---0---|-0----0----0----0---0---|-0---0----0----0---0---0---|
E|------------------------------|------------------------|---------------------------|


E|-0----0----0----0---0---|-0---0----0----0---0---0---|-0----0----0----0---0---|-0---0----0----0---0---0---|
B|-12---12---12---12--12--|-12--12---12---12--12--12--|-12---12---12---12--12--|-12--12---12---12--12--12--|
G|-14---14---14---14--14--|-14--14---14---14--14--14--|-14---14---14---14--14--|-14--14---14---14--14--14--|
D|-14---14---14---14--14--|-14--14---14---14--14--14--|-14---14---14---14--14--|-14--14---14---14--14--14--|
A|-0----0----0----0---0---|-0---0----0----0---0---0---|-0----0----0----0---0---|-0---0----0----0---0---0---|
E|------------------------|---------------------------|------------------------|---------------------------|


E|-0----0----0----0---0---|-0---0----0---0---0---0-------|--------|--------|--------|
B|-12---12---12---12--12--|-12--12---12--12--12--12------|--------|--------|--------|
G|-14---14---14---14--14--|-14--14---14--14--14--14--4---|--------|--------|--------|
D|-14---14---14---14--14--|-14--14---14--14--14--14--6---|--------|--------|--------|
A|-0----0----0----0---0---|-0---0----0---0---0---0---0---|--------|--------|--------|
E|------------------------|------------------------------|--------|--------|--------|


E|--------|--------|--------|--------|--------|--------|--------|--------|--------|
B|--------|--------|--------|--------|--------|--------|--------|--------|--------|
G|--------|--------|--------|--------|--------|--------|--------|--------|--------|
D|--------|--------|--------|--------|--------|--------|--------|--------|--------|
A|--------|--------|--------|--------|--------|--------|--------|--------|--------|
E|--------|--------|--------|--------|--------|--------|--------|--------|--------|


E|--------|--------|--------|--------|--------|--------|--------|--------|--------|
B|--------|--------|--------|--------|--------|--------|--------|--------|--------|
G|--------|--------|--------|--------|--------|--------|--------|--------|--------|
D|--------|--------|--------|--------|--------|--------|--------|--------|--------|
A|--------|--------|--------|--------|--------|--------|--------|--------|--------|
E|--------|--------|--------|--------|--------|--------|--------|--------|--------|


E|--------|--------|--------|---------------------------------|------------------------------|
B|--------|--------|--------|-13------13------13------13------|-12------12------12-----------|
G|--------|--------|--------|-----14------14------14------14--|-----12------12------12-------|
D|--------|--------|--------|---------------------------------|-------------------------14---|
A|--------|--------|--------|---------------------------------|------------------------------|
E|--------|--------|--------|---------------------------------|------------------------------|


E|-------------------0----|-0-----0-----|---------------------------------|------------------------------|
B|-------------------12---|-12----12----|-13------13------13------13------|-12------12------12-----------|
G|-------------------14---|-14----14----|-----14------14------14------14--|-----12------12------12-------|
D|-12---12--12---14--14---|-14----14----|---------------------------------|-------------------------14---|
A|-------------------0----|-0-----0-----|---------------------------------|------------------------------|
E|------------------------|-------------|---------------------------------|------------------------------|


E|-------------------0----|-0------|
B|-------------------12---|-12-----|
G|-------------------14---|-14-----|
D|-12---12--12---14--14---|-14-----|
A|-------------------0----|-0------|
E|------------------------|--------|





Track 3: Slide Guitar

E|--------|--------|--------|--------|--------|--------|--------|--------|--------|
B|--------|--------|--------|--------|--------|--------|--------|--------|--------|
G|--------|--------|--------|--------|--------|--------|--------|--------|--------|
D|--------|--------|--------|--------|--------|--------|--------|--------|--------|
A|--------|--------|--------|--------|--------|--------|--------|--------|--------|
E|--------|--------|--------|--------|--------|--------|--------|--------|--------|


E|--------|--------|--------|--------|--------|--------|--------|--------|--------|
B|--------|--------|--------|--------|--------|--------|--------|--------|--------|
G|--------|--------|--------|--------|--------|--------|--------|--------|--------|
D|--------|--------|--------|--------|--------|--------|--------|--------|--------|
A|--------|--------|--------|--------|--------|--------|--------|--------|--------|
E|--------|--------|--------|--------|--------|--------|--------|--------|--------|


E|--------|--------|--------|--------|--------|--------|--------|--------|--------|
B|--------|--------|--------|--------|--------|--------|--------|--------|--------|
G|--------|--------|--------|--------|--------|--------|--------|--------|--------|
D|--------|--------|--------|--------|--------|--------|--------|--------|--------|
A|--------|--------|--------|--------|--------|--------|--------|--------|--------|
E|--------|--------|--------|--------|--------|--------|--------|--------|--------|


E|--------|--------|--------|--------|--------|--------|--------|--------|--------|
B|--------|--------|--------|--------|--------|--------|--------|--------|--------|
G|--------|--------|--------|--------|--------|--------|--------|--------|--------|
D|--------|--------|--------|--------|--------|--------|--------|--------|--------|
A|--------|--------|--------|--------|--------|--------|--------|--------|--------|
E|--------|--------|--------|--------|--------|--------|--------|--------|--------|


E|--------|--------|--------|--------|--------|--------|--------|--------|--------|
B|--------|--------|--------|--------|--------|--------|--------|--------|--------|
G|--------|--------|--------|--------|--------|--------|--------|--------|--------|
D|--------|--------|--------|--------|--------|--------|--------|--------|--------|
A|--------|--------|--------|--------|--------|--------|--------|--------|--------|
E|--------|--------|--------|--------|--------|--------|--------|--------|--------|


E|--------|--------|--------|--------|--------|--------|--------|--------|--------|
B|--------|--------|--------|--------|--------|--------|--------|--------|--------|
G|--------|--------|--------|--------|--------|--------|--------|--------|--------|
D|--------|--------|--------|--------|--------|--------|--------|--------|--------|
A|--------|--------|--------|--------|--------|--------|--------|--------|--------|
E|--------|--------|--------|--------|--------|--------|--------|--------|--------|


E|--------|--------|--------|--------|--------|--------|-----------------|--------|
B|--------|--------|--------|--------|--------|--------|-----------------|--------|
G|--------|--------|--------|--------|--------|--------|-12----12---9----|-9------|
D|--------|--------|--------|--------|--------|--------|-12----12--------|--------|
A|--------|--------|--------|--------|--------|--------|-----------------|--------|
E|--------|--------|--------|--------|--------|--------|-----------------|--------|


E|-----------------|--------|--------|--------|--------|--------|-----------------|
B|-----------------|--------|--------|--------|--------|--------|-----------------|
G|-7-----7----9----|-9------|--------|--------|--------|--------|-12----12---9----|
D|-----------------|--------|--------|--------|--------|--------|-12----12--------|
A|-----------------|--------|--------|--------|--------|--------|-----------------|
E|-----------------|--------|--------|--------|--------|--------|-----------------|


E|--------|-----------------|--------|--------|--------|--------|--------|--------|
B|--------|-----------------|--------|--------|--------|--------|--------|--------|
G|-9------|-7-----7----9----|-9------|--------|--------|--------|--------|--------|
D|--------|-----------------|--------|--------|--------|--------|--------|--------|
A|--------|-----------------|--------|--------|--------|--------|--------|--------|
E|--------|-----------------|--------|--------|--------|--------|--------|--------|


E|--------|--------|--------|--------|--------|--------|--------|--------|--------|
B|--------|--------|--------|--------|--------|--------|--------|--------|--------|
G|--------|--------|--------|--------|--------|--------|--------|--------|--------|
D|--------|--------|--------|--------|--------|--------|--------|--------|--------|
A|--------|--------|--------|--------|--------|--------|--------|--------|--------|
E|--------|--------|--------|--------|--------|--------|--------|--------|--------|


E|--------|--------|--------|--------|--------|--------|--------|--------|--------|
B|--------|--------|--------|--------|--------|--------|--------|--------|--------|
G|--------|--------|--------|--------|--------|--------|--------|--------|--------|
D|--------|--------|--------|--------|--------|--------|--------|--------|--------|
A|--------|--------|--------|--------|--------|--------|--------|--------|--------|
E|--------|--------|--------|--------|--------|--------|--------|--------|--------|


E|--------|--------|--------|--------|--------|-----------------|--------|-----------------|
B|--------|--------|--------|--------|--------|-----------------|--------|-----------------|
G|--------|--------|--------|--------|--------|-12----12---9----|-9------|-7-----7----9----|
D|--------|--------|--------|--------|--------|-12----12--------|--------|-----------------|
A|--------|--------|--------|--------|--------|-----------------|--------|-----------------|
E|--------|--------|--------|--------|--------|-----------------|--------|-----------------|


E|--------|--------|--------|--------|--------|-----------------|--------|-----------------|
B|--------|--------|--------|--------|--------|-----------------|--------|-----------------|
G|-9------|--------|--------|--------|--------|-12----12---9----|-9------|-7-----7----9----|
D|--------|--------|--------|--------|--------|-12----12--------|--------|-----------------|
A|--------|--------|--------|--------|--------|-----------------|--------|-----------------|
E|--------|--------|--------|--------|--------|-----------------|--------|-----------------|


E|--------|
B|--------|
G|-9------|
D|--------|
A|--------|
E|--------|





Track 4: Untitled

G|--------|--------|--------|--------|--------|--------|--------|--------|--------|
D|--------|--------|--------|--------|--------|--------|--------|--------|--------|
A|--------|--------|--------|--------|--------|--------|--------|--------|--------|
E|--------|--------|--------|--------|--------|--------|--------|--------|--------|


G|--------|--------|--------|--------|--------|--------|--------|--------|--------|
D|--------|--------|--------|--------|--------|--------|--------|--------|--------|
A|--------|--------|--------|--------|--------|--------|--------|--------|--------|
E|--------|--------|--------|--------|--------|--------|--------|--------|--------|


G|--------|--------|--------|--------|--------|--------|--------|--------|--------|
D|--------|--------|--------|--------|--------|--------|--------|--------|--------|
A|--------|--------|--------|--------|--------|--------|--------|--------|--------|
E|--------|--------|--------|--------|--------|--------|--------|--------|--------|


G|--------|--------|--------|--------|--------|--------|--------|--------|--------|
D|--------|--------|--------|--------|--------|--------|--------|--------|--------|
A|--------|--------|--------|--------|--------|--------|--------|--------|--------|
E|--------|--------|--------|--------|--------|--------|--------|--------|--------|


G|--------|--------|--------|--------|--------|--------|--------|--------|--------|
D|--------|--------|--------|--------|--------|--------|--------|--------|--------|
A|--------|--------|--------|--------|--------|--------|--------|--------|--------|
E|--------|--------|--------|--------|--------|--------|--------|--------|--------|


G|--------|--------|--------|--------|--------|--------|--------|--------|--------|
D|--------|--------|--------|--------|--------|--------|--------|--------|--------|
A|--------|--------|--------|--------|--------|--------|--------|--------|--------|
E|--------|--------|--------|--------|--------|--------|--------|--------|--------|


G|--------|--------|--------|--------|--------|--------|--------|--------|--------|
D|--------|--------|--------|--------|--------|--------|--------|--------|--------|
A|--------|--------|--------|--------|--------|--------|--------|--------|--------|
E|--------|--------|--------|--------|--------|--------|--------|--------|--------|


G|--------|--------|--------|--------|--------|--------|--------|--------|--------|
D|--------|--------|--------|--------|--------|--------|--------|--------|--------|
A|--------|--------|--------|--------|--------|--------|--------|--------|--------|
E|--------|--------|--------|--------|--------|--------|--------|--------|--------|


G|--------|--------|--------|--------|--------|--------|--------|--------|--------|
D|--------|--------|--------|--------|--------|--------|--------|--------|--------|
A|--------|--------|--------|--------|--------|--------|--------|--------|--------|
E|--------|--------|--------|--------|--------|--------|--------|--------|--------|


G|--------|--------|--------|--------|--------|--------|--------|--------|--------|
D|--------|--------|--------|--------|--------|--------|--------|--------|--------|
A|--------|--------|--------|--------|--------|--------|--------|--------|--------|
E|--------|--------|--------|--------|--------|--------|--------|--------|--------|


G|--------|--------|--------|--------|--------|--------|--------|--------|--------|
D|--------|--------|--------|--------|--------|--------|--------|--------|--------|
A|--------|--------|--------|--------|--------|--------|--------|--------|--------|
E|--------|--------|--------|--------|--------|--------|--------|--------|--------|


G|--------|--------|--------|--------|--------|--------|--------|--------|--------|
D|--------|--------|--------|--------|--------|--------|--------|--------|--------|
A|--------|--------|--------|--------|--------|--------|--------|--------|--------|
E|--------|--------|--------|--------|--------|--------|--------|--------|--------|


G|--------|--------|--------|--------|
D|--------|--------|--------|--------|
A|--------|--------|--------|--------|
E|--------|--------|--------|--------|