Menu:

 

Search:

 

stone temple pilots - sin:

 



Title: Sin
Artist: 
Album: Coe
Author: R. Deleo


Track 1: Dist. Guitar 1

E|---------0-----------------------|----------------|---------0-----------------------|
B|-----0-------0-------0-----------|----------------|-----0-------0-------0-----------|
G|-3---------------3-------3---1---|-1------1---3---|-3---------------3-------3---1---|
D|-2-------------------------------|------------2---|-2-------------------------------|
A|-2-------------------------------|------------2---|-2-------------------------------|
E|-0-------------------------------|------------0---|-0-------------------------------|


E|--------|---------0-----------------------|----------------|---------0-----------------------|
B|--------|-----0-------0-------0-----------|----------------|-----0-------0-------0-----------|
G|-1------|-3---------------3-------3---1---|-1------1---3---|-3---------------3-------3---1---|
D|--------|-2-------------------------------|------------2---|-2-------------------------------|
A|--------|-2-------------------------------|------------2---|-2-------------------------------|
E|--------|-0-------------------------------|------------0---|-0-------------------------------|


E|----------------|-0--0--0--0--------0--0--0--0--------0--0--------|-0--0--0--0--------0--0--0--0--------0--0--------|
B|----------------|-0--0--0--0--------0--0--0--0--------0--0--------|-0--0--0--0--------0--0--0--0--------0--0--------|
G|-1--------------|-3--3--3--3--------1--1--1--1--------1--1--------|-3--3--3--3--------1--1--1--1--------1--1--------|
D|----------------|-2--2--2--2--------2--2--2--2--------2--2--------|-2--2--2--2--------2--2--2--2--------2--2--------|
A|----------------|-2--2--2--2--------2--2--2--2--3--3--2--2--------|-2--2--2--2--------2--2--2--2--3--3--2--2--------|
E|-----------14---|-0--0--0--0--0--0--0--0--0--0--------0--0--0--0--|-0--0--0--0--0--0--0--0--0--0--------0--0--0--0--|


E|-0--0--0--0--------0--0--0--0--------0--0--------|-0--0--0--0--------0--0--0--0--------0--0--------|
B|-0--0--0--0--------0--0--0--0--------0--0--------|-0--0--0--0--------0--0--0--0--------0--0--------|
G|-3--3--3--3--------1--1--1--1--------1--1--------|-3--3--3--3--------1--1--1--1--------1--1--------|
D|-2--2--2--2--------2--2--2--2--------2--2--------|-2--2--2--2--------2--2--2--2--------2--2--------|
A|-2--2--2--2--------2--2--2--2--3--3--2--2--------|-2--2--2--2--------2--2--2--2--3--3--2--2--------|
E|-0--0--0--0--0--0--0--0--0--0--------0--0--0--0--|-0--0--0--0--0--0--0--0--0--0--------0--0--0--0--|


E|-0--0--0--0--------0--0--0--0--------0--0--------|-0--0--0--0--------0--0--0--0--------0--0--------|
B|-0--0--0--0--------0--0--0--0--------0--0--------|-0--0--0--0--------0--0--0--0--------0--0--------|
G|-3--3--3--3--------1--1--1--1--------1--1--------|-3--3--3--3--------1--1--1--1--------1--1--------|
D|-2--2--2--2--------2--2--2--2--------2--2--------|-2--2--2--2--------2--2--2--2--------2--2--------|
A|-2--2--2--2--------2--2--2--2--3--3--2--2--------|-2--2--2--2--------2--2--2--2--3--3--2--2--------|
E|-0--0--0--0--0--0--0--0--0--0--------0--0--0--0--|-0--0--0--0--0--0--0--0--0--0--------0--0--0--0--|


E|-0--0--0--0--------0--0--0--0--------0--0--------|-0--0--0--0--------0--0--0--0--------0--0--------|
B|-0--0--0--0--------0--0--0--0--------0--0--------|-0--0--0--0--------0--0--0--0--------0--0--------|
G|-3--3--3--3--------1--1--1--1--------1--1--------|-3--3--3--3--------1--1--1--1--------1--1--------|
D|-2--2--2--2--------2--2--2--2--------2--2--------|-2--2--2--2--------2--2--2--2--------2--2--------|
A|-2--2--2--2--------2--2--2--2--3--3--2--2--------|-2--2--2--2--------2--2--2--2--3--3--2--2--------|
E|-0--0--0--0--0--0--0--0--0--0--------0--0--0--0--|-0--0--0--0--0--0--0--0--0--0--------0--0--0--0--|


E|-0--0--0--0--------0--0--0--0--------0--0--------|-0--0--0--0--------0--0--0--0--------0--0--------|
B|-0--0--0--0--------0--0--0--0--------0--0--------|-0--0--0--0--------0--0--0--0--------0--0--------|
G|-3--3--3--3--------1--1--1--1--------1--1--------|-3--3--3--3--------1--1--1--1--------1--1--------|
D|-2--2--2--2--------2--2--2--2--------2--2--------|-2--2--2--2--------2--2--2--2--------2--2--------|
A|-2--2--2--2--------2--2--2--2--3--3--2--2--------|-2--2--2--2--------2--2--2--2--3--3--2--2--------|
E|-0--0--0--0--0--0--0--0--0--0--------0--0--0--0--|-0--0--0--0--0--0--0--0--0--0--------0--0--0--0--|


E|-0--0--0--0--------0--0--0--0--------0--0--------|-0--0--0--0--------0--0--0--0--------0--0--------|
B|-0--0--0--0--------0--0--0--0--------0--0--------|-0--0--0--0--------0--0--0--0--------0--0--------|
G|-3--3--3--3--------1--1--1--1--------1--1--------|-3--3--3--3--------1--1--1--1--------1--1--------|
D|-2--2--2--2--------2--2--2--2--------2--2--------|-2--2--2--2--------2--2--2--2--------2--2--------|
A|-2--2--2--2--------2--2--2--2--3--3--2--2--------|-2--2--2--2--------2--2--2--2--3--3--2--2--------|
E|-0--0--0--0--0--0--0--0--0--0--------0--0--0--0--|-0--0--0--0--0--0--0--0--0--0--------0--0--0--0--|


E|-------------------------------------------|-----------------------------------------------|
B|-------------------------------------------|-----------------------------------------------|
G|----------0---------------0----------------|----------0---------------0--------------------|
D|-------0-----0---------0---------0--0------|-------0-----0---------0-----0--0--------------|
A|-2--2------------4--4--------4---------4---|-0--0--------------2---------------2--4--4--4--|
E|-3---------------5-----------5-------------|-1--------------1--3---------------3--5--------|


E|---------------------------------------------|-------------------------------------------|
B|---------------------------------------------|-------------------------------------------|
G|--------0--0--------------0------------------|--------0---------------0------------------|
D|-0---0--------0--------------0-----0---------|-----0-----0------0--0-----0------------0--|
A|-2---------------4--4--4--------4------4--4--|-0-------------2---------------2--4--4-----|
E|-3---------------5---------------------------|-1-------------3---------------3--5--------|


E|-------------------------------------------|-------------------------------------------|
B|-------------------------------------------|-------------------------------------------|
G|--------0---------------0------------------|--------0---------------0------------------|
D|-----0-----0--0------0------------0--------|-----0-----0---------------0------------0--|
A|-2---------------4---------4---4-----4--4--|-0-------------2--2--2---------2--4--4-----|
E|-3---------------5---------5---5-----------|-1-------------3---------------3--5--------|


E|-------------------------------------------------|-------------------------------------------------|
B|-------------------------------------------------|-------------------------------------------------|
G|----------0-----------------0--------------------|----------0-----0-----------0--------0--0--------|
D|-0--0--0-----0--0--------------------0--0--------|-------0-----0-----------0-----0--0--------------|
A|-2-----------------4--4--4-----4--4--------4--4--|-0--0--0-----0-----2--2--------------------------|
E|-3-----------------5-----------------------------|-1-----------------3-----------------------0--0--|


E|-0--0--0--0--------0--0--0--0--------0--0--------|-0--0--0--0--------0--0--0--0--------0--0--------|
B|-0--0--0--0--------0--0--0--0--------0--0--------|-0--0--0--0--------0--0--0--0--------0--0--------|
G|-3--3--3--3--------1--1--1--1--------1--1--------|-3--3--3--3--------1--1--1--1--------1--1--------|
D|-2--2--2--2--------2--2--2--2--------2--2--------|-2--2--2--2--------2--2--2--2--------2--2--------|
A|-2--2--2--2--------2--2--2--2--3--3--2--2--------|-2--2--2--2--------2--2--2--2--3--3--2--2--------|
E|-0--0--0--0--0--0--0--0--0--0--------0--0--0--0--|-0--0--0--0--0--0--0--0--0--0--------0--0--0--0--|


E|-0--0--0--0--------0--0--0--0--------0--0--------|-0--0--0--0--------0--0--0--0--------0--0--------|
B|-0--0--0--0--------0--0--0--0--------0--0--------|-0--0--0--0--------0--0--0--0--------0--0--------|
G|-3--3--3--3--------1--1--1--1--------1--1--------|-3--3--3--3--------1--1--1--1--------1--1--------|
D|-2--2--2--2--------2--2--2--2--------2--2--------|-2--2--2--2--------2--2--2--2--------2--2--------|
A|-2--2--2--2--------2--2--2--2--3--3--2--2--------|-2--2--2--2--------2--2--2--2--3--3--2--2--------|
E|-0--0--0--0--0--0--0--0--0--0--------0--0--0--0--|-0--0--0--0--0--0--0--0--0--0--------0--0--0--0--|


E|-0--0--0--0--------0--0--0--0--------0--0--------|-0--0--0--0--------0--0--0--0--------0--0--------|
B|-0--0--0--0--------0--0--0--0--------0--0--------|-0--0--0--0--------0--0--0--0--------0--0--------|
G|-3--3--3--3--------1--1--1--1--------1--1--------|-3--3--3--3--------1--1--1--1--------1--1--------|
D|-2--2--2--2--------2--2--2--2--------2--2--------|-2--2--2--2--------2--2--2--2--------2--2--------|
A|-2--2--2--2--------2--2--2--2--3--3--2--2--------|-2--2--2--2--------2--2--2--2--3--3--2--2--------|
E|-0--0--0--0--0--0--0--0--0--0--------0--0--0--0--|-0--0--0--0--0--0--0--0--0--0--------0--0--0--0--|


E|-0--0--0--0--------0--0--0--0--------0--0--------|-0--0--0--0--------0--0--0--0--------0--0--------|
B|-0--0--0--0--------0--0--0--0--------0--0--------|-0--0--0--0--------0--0--0--0--------0--0--------|
G|-3--3--3--3--------1--1--1--1--------1--1--------|-3--3--3--3--------1--1--1--1--------1--1--------|
D|-2--2--2--2--------2--2--2--2--------2--2--------|-2--2--2--2--------2--2--2--2--------2--2--------|
A|-2--2--2--2--------2--2--2--2--3--3--2--2--------|-2--2--2--2--------2--2--2--2--3--3--2--2--------|
E|-0--0--0--0--0--0--0--0--0--0--------0--0--0--0--|-0--0--0--0--0--0--0--0--0--0--------0--0--0--0--|


E|-0--0--0--0--------0--0--0--0--------0--0--------|-0--0--0--0--------0--0--0--0--------0--0--------|
B|-0--0--0--0--------0--0--0--0--------0--0--------|-0--0--0--0--------0--0--0--0--------0--0--------|
G|-3--3--3--3--------1--1--1--1--------1--1--------|-3--3--3--3--------1--1--1--1--------1--1--------|
D|-2--2--2--2--------2--2--2--2--------2--2--------|-2--2--2--2--------2--2--2--2--------2--2--------|
A|-2--2--2--2--------2--2--2--2--3--3--2--2--------|-2--2--2--2--------2--2--2--2--3--3--2--2--------|
E|-0--0--0--0--0--0--0--0--0--0--------0--0--0--0--|-0--0--0--0--0--0--0--0--0--0--------0--0--0--0--|


E|-0--0--0--0--------0--0--0--0--------0--0--------|-0--0--0--0--------0--0--0--0--------0--0--------|
B|-0--0--0--0--------0--0--0--0--------0--0--------|-0--0--0--0--------0--0--0--0--------0--0--------|
G|-3--3--3--3--------1--1--1--1--------1--1--------|-3--3--3--3--------1--1--1--1--------1--1--------|
D|-2--2--2--2--------2--2--2--2--------2--2--------|-2--2--2--2--------2--2--2--2--------2--2--------|
A|-2--2--2--2--------2--2--2--2--3--3--2--2--------|-2--2--2--2--------2--2--2--2--3--3--2--2--------|
E|-0--0--0--0--0--0--0--0--0--0--------0--0--0--0--|-0--0--0--0--0--0--0--0--0--0--------0--0--0--0--|


E|-------------------------------------------|-----------------------------------------------|
B|-------------------------------------------|-----------------------------------------------|
G|----------0---------------0----------------|----------0---------------0--------------------|
D|-------0-----0---------0---------0--0------|-------0-----0---------0-----0--0--------------|
A|-2--2------------4--4--------4---------4---|-0--0--------------2---------------2--4--4--4--|
E|-3---------------5-----------5-------------|-1--------------1--3---------------3--5--------|


E|---------------------------------------------|-------------------------------------------|
B|---------------------------------------------|-------------------------------------------|
G|--------0--0--------------0------------------|--------0---------------0------------------|
D|-0---0--------0--------------0-----0---------|-----0-----0------0--0-----0------------0--|
A|-2---------------4--4--4--------4------4--4--|-0-------------2---------------2--4--4-----|
E|-3---------------5---------------------------|-1-------------3---------------3--5--------|


E|-------------------------------------------|-------------------------------------------|
B|-------------------------------------------|-------------------------------------------|
G|--------0---------------0------------------|--------0---------------0------------------|
D|-----0-----0--0------0------------0--------|-----0-----0---------------0------------0--|
A|-2---------------4---------4---4-----4--4--|-0-------------2--2--2---------2--4--4-----|
E|-3---------------5---------5---5-----------|-1-------------3---------------3--5--------|


E|-------------------------------------------------|-------------------------------------------------|
B|-------------------------------------------------|-------------------------------------------------|
G|----------0-----------------0--------------------|----------0-----0-----------0--------0--0--------|
D|-0--0--0-----0--0--------------------0--0--------|-------0-----0-----------0-----0--0--------------|
A|-2-----------------4--4--4-----4--4--------4--4--|-0--0--0-----0-----2--2--------------------------|
E|-3-----------------5-----------------------------|-1-----------------3-----------------------0--0--|


E|-5--5--5--5--5--5--5--5--5--5--5--5--5--5--5--5--|-5--5--5--5--5--5--5--5--5--5--5--5--5--5--5--5--|
B|-8--8--8--8--8--8--8--8--8--10-8--8--7--8--7--7--|-8--8--8--8--8--8--8--8--8--7--8--8--7--8--7--7--|
G|-7--7--7--7--7--7--7--7--7--7--7--7--7--7--7--7--|-7--7--7--7--7--7--7--7--7--7--7--7--7--7--7--7--|
D|-5--5--5--5--5--5--5--5--5--5--5--5--5--5--5--5--|-5--5--5--5--5--5--5--5--5--5--5--5--5--5--5--5--|
A|-7--7--7--7--7--7--7--7--7--7--7--7--7--7--7--7--|-7--7--7--7--7--7--7--7--7--7--7--7--7--7--7--7--|
E|-------------------------------------------------|-------------------------------------------------|


E|-5--5--5--5--5--5--5--5--5--5--5--5--5--5--5--5--|-5--5--5--5--5--5--5--5--5--5--5--5--5--5--5--5--|
B|-8--8--8--8--8--8--8--8--8--10-8--8--7--8--7--7--|-8--8--8--8--8--8--8--8--8--7--8--8--7--8--7--7--|
G|-7--7--7--7--7--7--7--7--7--7--7--7--7--7--7--7--|-7--7--7--7--7--7--7--7--7--7--7--7--7--7--7--7--|
D|-5--5--5--5--5--5--5--5--5--5--5--5--5--5--5--5--|-5--5--5--5--5--5--5--5--5--5--5--5--5--5--5--5--|
A|-7--7--7--7--7--7--7--7--7--7--7--7--7--7--7--7--|-7--7--7--7--7--7--7--7--7--7--7--7--7--7--7--7--|
E|-------------------------------------------------|-------------------------------------------------|


E|-5--5--5--5--5--5--5--5--5--5--5--5--5--5--5--5--|-5--5--5--5--5--5--5--5--5--5--5--5--5--5--5--5--|
B|-8--8--8--8--8--8--8--8--8--10-8--8--7--8--7--7--|-8--8--8--8--8--8--8--8--8--7--8--8--7--8--7--7--|
G|-7--7--7--7--7--7--7--7--7--7--7--7--7--7--7--7--|-7--7--7--7--7--7--7--7--7--7--7--7--7--7--7--7--|
D|-5--5--5--5--5--5--5--5--5--5--5--5--5--5--5--5--|-5--5--5--5--5--5--5--5--5--5--5--5--5--5--5--5--|
A|-7--7--7--7--7--7--7--7--7--7--7--7--7--7--7--7--|-7--7--7--7--7--7--7--7--7--7--7--7--7--7--7--7--|
E|-------------------------------------------------|-------------------------------------------------|


E|-5--5--5--5--5--5--5--5--5--5--5--5--5--5--5--5--|-5--5--5--5--5--5--5--5--5--5--5--5--5--5--5--5--|
B|-8--8--8--8--8--8--8--8--8--10-8--8--7--8--7--7--|-8--8--8--8--8--8--8--8--8--7--8--8--7--8--7--7--|
G|-7--7--7--7--7--7--7--7--7--7--7--7--7--7--7--7--|-7--7--7--7--7--7--7--7--7--7--7--7--7--7--7--7--|
D|-5--5--5--5--5--5--5--5--5--5--5--5--5--5--5--5--|-5--5--5--5--5--5--5--5--5--5--5--5--5--5--5--5--|
A|-7--7--7--7--7--7--7--7--7--7--7--7--7--7--7--7--|-7--7--7--7--7--7--7--7--7--7--7--7--7--7--7--7--|
E|-------------------------------------------------|-------------------------------------------------|


E|---------------------------------|-------------0---0-----|---------------0-------|
B|-6-------6---5---5---------------|-4---4-------2---2-----|-----------0-------0---|
G|-5----5------5---5---------------|-4---4-------2---2-----|-------3---------------|
D|-3-----------3---3---3---3-------|-2---2-------0---0-----|-------2---------------|
A|-5-----------5---5-----------5---|-4---4---4---2---2-----|-------2---------------|
E|---------------------------------|-----------------------|-------0---------------|


E|-----------------------|----------------------0-------|-----------------------|---------------0-------|
B|-----0-----------------|------------------0-------0---|-----0-----------------|-----------0-------0---|
G|-3-------3---1---1-----|------1---3---3---------------|-3-------3---1---1-----|-------3---------------|
D|-----------------------|----------2---2---------------|-----------------------|-------2---------------|
A|-----------------------|----------2---2---------------|-----------------------|-------2---------------|
E|-----------------------|----------0---0---------------|-----------------------|-------0---------------|


E|-----------------------|----------------------0-------|-----------------------|--------------0--0--0--0--------0--0--|
B|-----0-----------------|------------------0-------0---|-----0-----------------|--------------0--0--0--0--------0--0--|
G|-3-------3---1---1-----|------1---3---3---------------|-3-------3---1---1-----|--------------3--3--3--3--------1--1--|
D|-----------------------|----------2---2---------------|-----------------------|--------------2--2--2--2--------2--2--|
A|-----------------------|----------2---2---------------|-----------------------|--------------2--2--2--2--------2--2--|
E|-----------------------|----------0---0---------------|-----------------------|------11--14--0--0--0--0--0--0--0--0--|


E|-0--0--------0--0--------0--0--0--0--------0--0--|-0--0--------0--0--------0--0--0--0--------0--0--|
B|-0--0--------0--0--------0--0--0--0--------0--0--|-0--0--------0--0--------0--0--0--0--------0--0--|
G|-1--1--------1--1--------3--3--3--3--------1--1--|-1--1--------1--1--------3--3--3--3--------1--1--|
D|-2--2--------2--2--------2--2--2--2--------2--2--|-2--2--------2--2--------2--2--2--2--------2--2--|
A|-2--2--3--3--2--2--------2--2--2--2--------2--2--|-2--2--3--3--2--2--------2--2--2--2--------2--2--|
E|-0--0--------0--0--0--0--0--0--0--0--0--0--0--0--|-0--0--------0--0--0--0--0--0--0--0--0--0--0--0--|


E|-0--0--------0--0--------0--0--0--0--------0--0--|-0--0--------0--0--------0--0--0--0--------0--0--|
B|-0--0--------0--0--------0--0--0--0--------0--0--|-0--0--------0--0--------0--0--0--0--------0--0--|
G|-1--1--------1--1--------3--3--3--3--------1--1--|-1--1--------1--1--------3--3--3--3--------1--1--|
D|-2--2--------2--2--------2--2--2--2--------2--2--|-2--2--------2--2--------2--2--2--2--------2--2--|
A|-2--2--3--3--2--2--------2--2--2--2--------2--2--|-2--2--3--3--2--2--------2--2--2--2--------2--2--|
E|-0--0--------0--0--0--0--0--0--0--0--0--0--0--0--|-0--0--------0--0--0--0--0--0--0--0--0--0--0--0--|


E|-0--0--------0--0--------0--0--0--0--------0--0--|-0--0--------0--0--------0--0--0--0--------0--0--|
B|-0--0--------0--0--------0--0--0--0--------0--0--|-0--0--------0--0--------0--0--0--0--------0--0--|
G|-1--1--------1--1--------3--3--3--3--------1--1--|-1--1--------1--1--------3--3--3--3--------1--1--|
D|-2--2--------2--2--------2--2--2--2--------2--2--|-2--2--------2--2--------2--2--2--2--------2--2--|
A|-2--2--3--3--2--2--------2--2--2--2--------2--2--|-2--2--3--3--2--2--------2--2--2--2--------2--2--|
E|-0--0--------0--0--0--0--0--0--0--0--0--0--0--0--|-0--0--------0--0--0--0--0--0--0--0--0--0--0--0--|


E|-0--0--------0--0--------0--0--0--0--------0--0--|-0--0--------0--0------------------------------|
B|-0--0--------0--0--------0--0--0--0--------0--0--|-0--0--------0--0------------------------------|
G|-1--1--------1--1--------3--3--3--3--------1--1--|-1--1--------1--1-----------------0------------|
D|-2--2--------2--2--------2--2--2--2--------2--2--|-2--2--------2--2--------------0-----0---------|
A|-2--2--3--3--2--2--------2--2--2--2--------2--2--|-2--2--3--3--2--2--------2--2------------4--4--|
E|-0--0--------0--0--0--0--0--0--0--0--0--0--0--0--|-0--0--------0--0--0--0--3---------------5-----|


E|-------------------------------------------|-----------------------------------------------|
B|-------------------------------------------|-----------------------------------------------|
G|----0-------------------------0------------|----0---------------------------0--0-----------|
D|-0---------0--0------------0-----0---------|-0-----0--0--------------0---0--------0--------|
A|-------4---------4---0--0--------------2---|-------------2--4--4--4--2---------------4--4--|
E|-------5-------------1--------------1--3---|-------------3--5--------3---------------5-----|


E|-------------------------------------------|-------------------------------------------|
B|-------------------------------------------|-------------------------------------------|
G|----0-------------------------0------------|----0-------------------------0------------|
D|-------0-----0-------------0-----0------0--|-0-----0------------0------0-----0--0------|
A|-4--------4------4--4--0-------------2-----|-----------2--4--4-----2---------------4---|
E|-----------------------1-------------3-----|-----------3--5--------3---------------5---|


E|-------------------------------------------|-----------------------------------------------|
B|-------------------------------------------|-----------------------------------------------|
G|----0-------------------------0------------|----0---------------------------0--------------|
D|-0------------0------------0-----0---------|-------0------------0--0--0--0-----0--0--------|
A|-------4---4-----4--4--0-------------2--2--|-2---------2--4--4-----2-----------------4--4--|
E|-------5---5-----------1-------------3-----|-----------3--5--------3-----------------5-----|


E|-----------------------------------------|-------------|--------|--------|--------|
B|-----------------------------------------|-------------|--------|--------|--------|
G|----0--------------------------------0---|-0-----0-----|--------|--------|--------|
D|-------------0--0--------------------0---|-0-----0-----|--------|--------|--------|
A|-4-----4--4--------4--4--0----0--0---2---|-2-----2-----|--------|--------|--------|
E|-------------------------1----1--1---3---|-3-----3-----|--------|--------|--------|


E|--------|--------|--------|--------|--------|--------|--------|--------|--------|
B|--------|--------|--------|--------|--------|--------|--------|--------|--------|
G|--------|--------|--------|--------|--------|--------|--------|--------|--------|
D|--------|--------|--------|--------|--------|--------|--------|--------|--------|
A|--------|--------|--------|--------|--------|--------|--------|--------|--------|
E|--------|--------|--------|--------|--------|--------|--------|--------|--------|


E|--------|--------|--------|--------|--------|--------|--------|--------|--------|
B|--------|--------|--------|--------|--------|--------|--------|--------|--------|
G|--------|--------|--------|-0------|-0------|--------|--------|--------|--------|
D|--------|--------|--------|-0------|-0------|--------|--------|--------|--------|
A|--------|--------|--------|-0------|-0------|--------|--------|--------|--------|
E|--------|--------|--------|-3------|-3------|--------|--------|--------|--------|


E|--------|--------|--------|--------|---------------------------------|-------------0---0-----|
B|--------|--------|--------|--------|-6-------6---5---5---------------|-4---4-------2---2-----|
G|--------|--------|--------|--------|-5----5------5---5---------------|-4---4-------2---2-----|
D|--------|--------|--------|--------|-3-----------3---3---3---3-------|-2---2-------0---0-----|
A|--------|--------|--------|--------|-5-----------5---5-----------5---|-4---4---4---2---2-----|
E|--------|--------|--------|--------|---------------------------------|-----------------------|


E|---------------0-------|-----------------------|----------------------0-------|-----------------------|
B|-----------0-------0---|-----0-----------------|------------------0-------0---|-----0-----------------|
G|-------3---------------|-3-------3---1---1-----|------1---3---3---------------|-3-------3---1---1-----|
D|-------2---------------|-----------------------|----------2---2---------------|-----------------------|
A|-------2---------------|-----------------------|----------2---2---------------|-----------------------|
E|-------0---------------|-----------------------|----------0---0---------------|-----------------------|


E|---------------0-------|-----------------------|----------------------0-------|-----------------------|
B|-----------0-------0---|-----0-----------------|------------------0-------0---|-----0-----------------|
G|-------3---------------|-3-------3---1---1-----|------1---3---3---------------|-3-------3---1---1-----|
D|-------2---------------|-----------------------|----------2---2---------------|-----------------------|
A|-------2---------------|-----------------------|----------2---2---------------|-----------------------|
E|-------0---------------|-----------------------|----------0---0---------------|-----------------------|


E|--------------------|
B|--------------------|
G|------1---3---3-----|
D|----------2---2-----|
A|----------2---2-----|
E|----------0---0-----|





Track 2: Dist. Guitar 2

E|--------|--------|--------|--------|--------|--------|--------|--------|--------|
B|--------|--------|--------|--------|--------|--------|--------|--------|--------|
G|--------|--------|--------|--------|--------|--------|--------|--------|--------|
D|--------|--------|--------|--------|--------|--------|--------|--------|--------|
A|--------|--------|--------|--------|--------|--------|--------|--------|--------|
E|--------|--------|--------|--------|--------|--------|--------|--------|--------|


E|--------|--------|--------|--------|--------|--------|--------|--------|--------|
B|--------|--------|--------|--------|--------|--------|--------|--------|--------|
G|--------|--------|--------|--------|--------|--------|--------|--------|--------|
D|--------|--------|--------|--------|--------|--------|--------|--------|--------|
A|--------|--------|--------|--------|--------|--------|--------|--------|--------|
E|--------|--------|--------|--------|--------|--------|--------|--------|--------|


E|--------|----------------------|--------|--------|--------|--------|--------|--------|
B|--------|----------------------|--------|--------|--------|--------|--------|--------|
G|--------|----------------------|--------|--------|--------|--------|--------|--------|
D|--------|----------------------|--------|--------|--------|--------|--------|--------|
A|--------|----------------------|--------|--------|--------|--------|--------|--------|
E|--------|----------------0--2--|--------|--------|--------|--------|--------|--------|


E|--------|-------------------------------------------|--------|--------|--------|
B|--------|-------------------------------------------|--------|--------|--------|
G|--------|--------0-----0---------0--------0--0------|--------|--------|--------|
D|--------|-----0-----0---------0-----0--0--------0---|--------|--------|--------|
A|--------|-0---------------2---------------------0---|--------|--------|--------|
E|--------|-1---------------3---------------------0---|--------|--------|--------|


E|--------|--------|--------|--------|--------|--------|--------|--------|----------------------|
B|--------|--------|--------|--------|--------|--------|--------|--------|----------------------|
G|--------|--------|--------|--------|--------|--------|--------|--------|----------------------|
D|--------|--------|--------|--------|--------|--------|--------|--------|----------------------|
A|--------|--------|--------|--------|--------|--------|--------|--------|----------------------|
E|--------|--------|--------|--------|--------|--------|--------|--------|----------------0--2--|


E|--------|--------|--------|--------|--------|--------|--------|-------------------------------------------|
B|--------|--------|--------|--------|--------|--------|--------|-------------------------------------------|
G|--------|--------|--------|--------|--------|--------|--------|--------0-----0---------0--------0--0------|
D|--------|--------|--------|--------|--------|--------|--------|-----0-----0---------0-----0--0--------0---|
A|--------|--------|--------|--------|--------|--------|--------|-0---------------2---------------------0---|
E|--------|--------|--------|--------|--------|--------|--------|-1---------------3---------------------0---|


E|-------------------------------------------------|-------------------------------------------------|
B|-------------------------------------------------|-------------------------------------------------|
G|-------------------------------------------------|-------------------------------------------------|
D|-3--4--5--3--4--5--3--4--5--3--4--5--3--3--5--5--|-3--4--4--3--4--4--3--4--5--3--4--4--5--3--4--4--|
A|-------------------------------------------------|-------------------------------------------------|
E|-------------------------------------------------|-------------------------------------------------|


E|-------------------------------------------------|-------------------------------------------------|
B|-------------------------------------------------|-------------------------------------------------|
G|-------------------------------------------------|-------------------------------------------------|
D|-3--4--5--3--4--5--3--4--5--3--4--5--3--3--5--5--|-3--4--4--3--4--4--3--4--5--3--4--4--5--3--4--4--|
A|-------------------------------------------------|-------------------------------------------------|
E|-------------------------------------------------|-------------------------------------------------|


E|-------------------------------------------------|-------------------------------------------------|
B|-------------------------------------------------|-------------------------------------------------|
G|-------------------------------------------------|-------------------------------------------------|
D|-3--4--5--3--4--5--3--4--5--3--4--5--3--3--5--5--|-3--4--4--3--4--4--3--4--5--3--4--4--5--3--4--4--|
A|-------------------------------------------------|-------------------------------------------------|
E|-------------------------------------------------|-------------------------------------------------|


E|-------------------------------------------------|-------------------------------------------------|
B|-------------------------------------------------|-------------------------------------------------|
G|-------------------------------------------------|-------------------------------------------------|
D|-3--4--5--3--4--5--3--4--5--3--4--5--3--3--5--5--|-3--4--4--3--4--4--3--4--5--3--4--4--5--3--4--4--|
A|-------------------------------------------------|-------------------------------------------------|
E|-------------------------------------------------|-------------------------------------------------|


E|--------|--------|--------|--------|--------|--------|--------|--------|--------|
B|--------|--------|--------|--------|--------|--------|--------|--------|--------|
G|--------|--------|--------|--------|--------|--------|--------|--------|--------|
D|--------|--------|--------|--------|--------|--------|--------|--------|--------|
A|--------|--------|--------|--------|--------|--------|--------|--------|--------|
E|--------|--------|--------|--------|--------|--------|--------|--------|--------|


E|--------|--------|--------|--------|--------|-------------|-------------|-------------|
B|--------|--------|--------|--------|--------|-------------|-------------|-------------|
G|--------|--------|--------|--------|--------|-------------|-------------|-------------|
D|--------|--------|--------|--------|--------|-------------|-------------|-------------|
A|--------|--------|--------|--------|--------|-------------|-------------|-------------|
E|--------|--------|--------|--------|--------|-------------|-------------|-------------|


E|-------------|----------------------|--------|--------|--------|--------|--------|
B|-------------|----------------------|--------|--------|--------|--------|--------|
G|-------------|----------------------|--------|--------|--------|--------|--------|
D|-------------|----------------------|--------|--------|--------|--------|--------|
A|-------------|----------------------|--------|--------|--------|--------|--------|
E|-------------|----------0--2--------|--------|--------|--------|--------|--------|


E|-------------|--------|--------|--------|--------|--------|--------|--------|--------|
B|-------------|--------|--------|--------|--------|--------|--------|--------|--------|
G|-------------|--------|--------|--------|--------|--------|--------|--------|--------|
D|-------------|--------|--------|--------|--------|--------|--------|--------|--------|
A|-------------|--------|--------|--------|--------|--------|--------|--------|--------|
E|-------------|--------|--------|--------|--------|--------|--------|--------|--------|


E|--------|--------|--------|--------|--------|--------|--------|--------|--------|
B|--------|--------|--------|--------|--------|--------|--------|--------|--------|
G|--------|--------|--------|--------|--------|--------|--------|--------|--------|
D|--------|--------|--------|--------|--------|--------|--------|--------|--------|
A|--------|--------|--------|--------|--------|--------|--------|--------|--------|
E|--------|--------|--------|--------|--------|--------|--------|--------|--------|


E|--------|--------|-------------------------------------------------|-------------------------------------------------|
B|--------|--------|-------------------------------------------------|-------------------------------------------------|
G|--------|--------|-------------------------------------------------|-------------------------------------------------|
D|--------|--------|-3--4--5--3--4--5--3--4--5--3--4--5--3--3--5--5--|-3--4--4--3--4--4--3--4--5--3--4--4--5--3--4--4--|
A|--------|--------|-------------------------------------------------|-------------------------------------------------|
E|--------|--------|-------------------------------------------------|-------------------------------------------------|


E|-------------------------------------------------|-------------------------------------------------|
B|-------------------------------------------------|-------------------------------------------------|
G|-------------------------------------------------|-------------------------------------------------|
D|-3--4--5--3--4--5--3--4--5--3--4--5--3--3--5--5--|-3--4--4--3--4--4--3--4--5--3--4--4--5--3--4--4--|
A|-------------------------------------------------|-------------------------------------------------|
E|-------------------------------------------------|-------------------------------------------------|


E|-------------------------------------------------|-------------------------------------------------|
B|-------------------------------------------------|-------------------------------------------------|
G|-------------------------------------------------|-------------------------------------------------|
D|-3--4--5--3--4--5--3--4--5--3--4--5--3--3--5--5--|-3--4--4--3--4--4--3--4--5--3--4--4--5--3--4--4--|
A|-------------------------------------------------|-------------------------------------------------|
E|-------------------------------------------------|-------------------------------------------------|


E|-------------------------------------------------|-------------------------------------------------|
B|-------------------------------------------------|-------------------------------------------------|
G|-------------------------------------------------|-------------------------------------------------|
D|-3--4--5--3--4--5--3--4--5--3--4--5--3--3--5--5--|-3--4--4--3--4--4--3--4--5--3--4--4--5--3--4--4--|
A|-------------------------------------------------|-------------------------------------------------|
E|-------------------------------------------------|-------------------------------------------------|


E|--------|--------|--------|--------|--------|--------|--------|--------|--------|
B|--------|--------|--------|--------|--------|--------|--------|--------|--------|
G|--------|--------|--------|--------|--------|--------|--------|--------|--------|
D|--------|--------|--------|--------|--------|--------|--------|--------|--------|
A|--------|--------|--------|--------|--------|--------|--------|--------|--------|
E|--------|--------|--------|--------|--------|--------|--------|--------|--------|


E|--------|--------|
B|--------|--------|
G|--------|--------|
D|--------|--------|
A|--------|--------|
E|--------|--------|





Track 3: Clean Elec. 1

E|--------|--------|--------|--------|--------|--------|--------|--------|--------|
B|--------|--------|--------|--------|--------|--------|--------|--------|--------|
G|--------|--------|--------|--------|--------|--------|--------|--------|--------|
D|--------|--------|--------|--------|--------|--------|--------|--------|--------|
A|--------|--------|--------|--------|--------|--------|--------|--------|--------|
E|--------|--------|--------|--------|--------|--------|--------|--------|--------|


E|--------|--------|--------|--------|--------|--------|--------|--------|--------|
B|--------|--------|--------|--------|--------|--------|--------|--------|--------|
G|--------|--------|--------|--------|--------|--------|--------|--------|--------|
D|--------|--------|--------|--------|--------|--------|--------|--------|--------|
A|--------|--------|--------|--------|--------|--------|--------|--------|--------|
E|--------|--------|--------|--------|--------|--------|--------|--------|--------|


E|--------|--------|--------|--------|--------|--------|--------|--------|--------|
B|--------|--------|--------|--------|--------|--------|--------|--------|--------|
G|--------|--------|--------|--------|--------|--------|--------|--------|--------|
D|--------|--------|--------|--------|--------|--------|--------|--------|--------|
A|--------|--------|--------|--------|--------|--------|--------|--------|--------|
E|--------|--------|--------|--------|--------|--------|--------|--------|--------|


E|--------|--------|--------|--------|--------|--------|--------|--------|--------|
B|--------|--------|--------|--------|--------|--------|--------|--------|--------|
G|--------|--------|--------|--------|--------|--------|--------|--------|--------|
D|--------|--------|--------|--------|--------|--------|--------|--------|--------|
A|--------|--------|--------|--------|--------|--------|--------|--------|--------|
E|--------|--------|--------|--------|--------|--------|--------|--------|--------|


E|--------|--------|--------|--------|--------|--------|--------|--------|--------|
B|--------|--------|--------|--------|--------|--------|--------|--------|--------|
G|--------|--------|--------|--------|--------|--------|--------|--------|--------|
D|--------|--------|--------|--------|--------|--------|--------|--------|--------|
A|--------|--------|--------|--------|--------|--------|--------|--------|--------|
E|--------|--------|--------|--------|--------|--------|--------|--------|--------|


E|--------|--------|--------|--------|--------|--------|--------|--------|--------|
B|--------|--------|--------|--------|--------|--------|--------|--------|--------|
G|--------|--------|--------|--------|--------|--------|--------|--------|--------|
D|--------|--------|--------|--------|--------|--------|--------|--------|--------|
A|--------|--------|--------|--------|--------|--------|--------|--------|--------|
E|--------|--------|--------|--------|--------|--------|--------|--------|--------|


E|--------|--------|--------|--------|--------|--------|--------|--------|--------|
B|--------|--------|--------|--------|--------|--------|--------|--------|--------|
G|--------|--------|--------|--------|--------|--------|--------|--------|--------|
D|--------|--------|--------|--------|--------|--------|--------|--------|--------|
A|--------|--------|--------|--------|--------|--------|--------|--------|--------|
E|--------|--------|--------|--------|--------|--------|--------|--------|--------|


E|--------|--------|--------|--------|--------|--------|--------|--------|--------|
B|--------|--------|--------|--------|--------|--------|--------|--------|--------|
G|--------|--------|--------|--------|--------|--------|--------|--------|--------|
D|--------|--------|--------|--------|--------|--------|--------|--------|--------|
A|--------|--------|--------|--------|--------|--------|--------|--------|--------|
E|--------|--------|--------|--------|--------|--------|--------|--------|--------|


E|--------|--------|--------|--------|--------|--------|--------|--------|--------|
B|--------|--------|--------|--------|--------|--------|--------|--------|--------|
G|--------|--------|--------|--------|--------|--------|--------|--------|--------|
D|--------|--------|--------|--------|--------|--------|--------|--------|--------|
A|--------|--------|--------|--------|--------|--------|--------|--------|--------|
E|--------|--------|--------|--------|--------|--------|--------|--------|--------|


E|--------|--------|--------|----------3-----------------3--------------------|----------3-----------------3--------------------|
B|--------|--------|--------|----3--3--------3-----3--3--------3-----3--3--3--|----3--3--------3-----3--3--------3-----3--3--3--|
G|--------|--------|--------|-0-----------0-----0-----------0-----0-----------|-0-----------0-----0-----------0-----0-----------|
D|--------|--------|--------|-------------------------------------------------|-------------------------------------------------|
A|--------|--------|--------|-------------------------------------------------|-------------------------------------------------|
E|--------|--------|--------|-------------------------------------------------|-------------------------------------------------|


E|----------3-----------------3--------------------|----------3-----------------3--------------------|
B|----3--3--------3-----3--3--------3-----3--3--3--|----3--3--------3-----3--3--------3-----3--3--3--|
G|-0-----------0-----0-----------0-----0-----------|-0-----------0-----0-----------0-----0-----------|
D|-------------------------------------------------|-------------------------------------------------|
A|-------------------------------------------------|-------------------------------------------------|
E|-------------------------------------------------|-------------------------------------------------|


E|----------3-----------------3--------------------|----------3-----------------3--------------------|
B|----3--3--------3-----3--3--------3-----3--3--3--|----3--3--------3-----3--3--------3-----3--3--3--|
G|-0-----------0-----0-----------0-----0-----------|-0-----------0-----0-----------0-----0-----------|
D|-------------------------------------------------|-------------------------------------------------|
A|-------------------------------------------------|-------------------------------------------------|
E|-------------------------------------------------|-------------------------------------------------|


E|----------3-----------------3--------------------|----------3-----------------3--------------------|
B|----3--3--------3-----3--3--------3-----3--3--3--|----3--3--------3-----3--3--------3-----3--3--3--|
G|-0-----------0-----0-----------0-----0-----------|-0-----------0-----0-----------0-----0-----------|
D|-------------------------------------------------|-------------------------------------------------|
A|-------------------------------------------------|-------------------------------------------------|
E|-------------------------------------------------|-------------------------------------------------|


E|----------3-----------------3--------------------|----------3-----------------3--------------------|
B|----3--3--------3-----3--3--------3-----3--3--3--|----3--3--------3-----3--3--------3-----3--3--3--|
G|-0-----------0-----0-----------0-----0-----------|-0-----------0-----0-----------0-----0-----------|
D|-------------------------------------------------|-------------------------------------------------|
A|-------------------------------------------------|-------------------------------------------------|
E|-------------------------------------------------|-------------------------------------------------|


E|----------3-----------------3--------------------|----------3-----------------3--------------------|
B|----3--3--------3-----3--3--------3-----3--3--3--|----3--3--------3-----3--3--------3-----3--3--3--|
G|-0-----------0-----0-----------0-----0-----------|-0-----------0-----0-----------0-----0-----------|
D|-------------------------------------------------|-------------------------------------------------|
A|-------------------------------------------------|-------------------------------------------------|
E|-------------------------------------------------|-------------------------------------------------|


E|----------3-----3---------3------------------|----------3-----------------3--------3--3--3--3--|
B|-------3--3-----3--3---3--3------3--3--3--3--|----3--3--------3-----3--3--------3--3--3--3--3--|
G|----0--0-----0-----0---0--0---0--0--0--0--0--|-------------0-----------------0-----0--0--0--0--|
D|-1-----------------3---3---------------------|-1-----------------3-----------3-----------------|
A|---------------------------------------------|-------------------------------------------------|
E|---------------------------------------------|-------------------------------------------------|


E|--------|--------|--------|--------|--------|--------|--------|--------|--------|
B|--------|--------|--------|--------|--------|--------|--------|--------|--------|
G|--------|--------|--------|--------|--------|--------|--------|--------|--------|
D|--------|--------|--------|--------|--------|--------|--------|--------|--------|
A|--------|--------|--------|--------|--------|--------|--------|--------|--------|
E|--------|--------|--------|--------|--------|--------|--------|--------|--------|


E|--------|--------|--------|--------|--------|--------|--------|--------|--------|
B|--------|--------|--------|--------|--------|--------|--------|--------|--------|
G|--------|--------|--------|--------|--------|--------|--------|--------|--------|
D|--------|--------|--------|--------|--------|--------|--------|--------|--------|
A|--------|--------|--------|--------|--------|--------|--------|--------|--------|
E|--------|--------|--------|--------|--------|--------|--------|--------|--------|


E|--------|--------|--------|
B|--------|--------|--------|
G|--------|--------|--------|
D|--------|--------|--------|
A|--------|--------|--------|
E|--------|--------|--------|





Track 4: Acoustic

E|--------|--------|--------|--------|--------|--------|--------|--------|--------|
B|--------|--------|--------|--------|--------|--------|--------|--------|--------|
G|--------|--------|--------|--------|--------|--------|--------|--------|--------|
D|--------|--------|--------|--------|--------|--------|--------|--------|--------|
A|--------|--------|--------|--------|--------|--------|--------|--------|--------|
E|--------|--------|--------|--------|--------|--------|--------|--------|--------|


E|--------|--------|--------|--------|--------|--------|--------|--------|--------|
B|--------|--------|--------|--------|--------|--------|--------|--------|--------|
G|--------|--------|--------|--------|--------|--------|--------|--------|--------|
D|--------|--------|--------|--------|--------|--------|--------|--------|--------|
A|--------|--------|--------|--------|--------|--------|--------|--------|--------|
E|--------|--------|--------|--------|--------|--------|--------|--------|--------|


E|--------|--------|--------|--------|--------|--------|--------|--------|--------|
B|--------|--------|--------|--------|--------|--------|--------|--------|--------|
G|--------|--------|--------|--------|--------|--------|--------|--------|--------|
D|--------|--------|--------|--------|--------|--------|--------|--------|--------|
A|--------|--------|--------|--------|--------|--------|--------|--------|--------|
E|--------|--------|--------|--------|--------|--------|--------|--------|--------|


E|--------|--------|--------|--------|--------|--------|--------|--------|--------|
B|--------|--------|--------|--------|--------|--------|--------|--------|--------|
G|--------|--------|--------|--------|--------|--------|--------|--------|--------|
D|--------|--------|--------|--------|--------|--------|--------|--------|--------|
A|--------|--------|--------|--------|--------|--------|--------|--------|--------|
E|--------|--------|--------|--------|--------|--------|--------|--------|--------|


E|--------|--------|--------|--------|--------|--------|--------|--------|--------|
B|--------|--------|--------|--------|--------|--------|--------|--------|--------|
G|--------|--------|--------|--------|--------|--------|--------|--------|--------|
D|--------|--------|--------|--------|--------|--------|--------|--------|--------|
A|--------|--------|--------|--------|--------|--------|--------|--------|--------|
E|--------|--------|--------|--------|--------|--------|--------|--------|--------|


E|--------|--------|--------|--------|--------|--------|--------|--------|--------|
B|--------|--------|--------|--------|--------|--------|--------|--------|--------|
G|--------|--------|--------|--------|--------|--------|--------|--------|--------|
D|--------|--------|--------|--------|--------|--------|--------|--------|--------|
A|--------|--------|--------|--------|--------|--------|--------|--------|--------|
E|--------|--------|--------|--------|--------|--------|--------|--------|--------|


E|--------|--------|--------|--------|--------|--------|--------|--------|--------|
B|--------|--------|--------|--------|--------|--------|--------|--------|--------|
G|--------|--------|--------|--------|--------|--------|--------|--------|--------|
D|--------|--------|--------|--------|--------|--------|--------|--------|--------|
A|--------|--------|--------|--------|--------|--------|--------|--------|--------|
E|--------|--------|--------|--------|--------|--------|--------|--------|--------|


E|--------|--------|--------|--------|--------|--------|--------|--------|--------|
B|--------|--------|--------|--------|--------|--------|--------|--------|--------|
G|--------|--------|--------|--------|--------|--------|--------|--------|--------|
D|--------|--------|--------|--------|--------|--------|--------|--------|--------|
A|--------|--------|--------|--------|--------|--------|--------|--------|--------|
E|--------|--------|--------|--------|--------|--------|--------|--------|--------|


E|--------|--------|--------|--------|--------|--------|--------|--------|--------|
B|--------|--------|--------|--------|--------|--------|--------|--------|--------|
G|--------|--------|--------|--------|--------|--------|--------|--------|--------|
D|--------|--------|--------|--------|--------|--------|--------|--------|--------|
A|--------|--------|--------|--------|--------|--------|--------|--------|--------|
E|--------|--------|--------|--------|--------|--------|--------|--------|--------|


E|--------|--------|--------|----------3-----------------------------------3--|----------3-----------------3--------------------|
B|--------|--------|--------|----3--3--------3-----3-----3-----3-----3--3-----|----3-----------3--------3--------3-----3--3-----|
G|--------|--------|--------|-0-----------------0-----0-----------------0-----|----------------------0-----------------0--0--0--|
D|--------|--------|--------|-1-----------1-----3-----------3-----3-----------|-1-----1-----1-----3--3--------3-----3--3--3--0--|
A|--------|--------|--------|-------------------------------------------------|-------------------------------------------------|
E|--------|--------|--------|-------------------------------------------------|-------------------------------------------------|


E|--------------3--3--3--3--3----|-3----3---3---3--3----3--3--3--3--|----------3-----------------------------------3--|
B|--------------0--2--0--2--3----|-3----3---3---3--3----3--3--3--3--|----3--3--------3-----3-----3-----3-----3--3-----|
G|-0-----0---0--0--0--0--0--0----|-0----0---0---0--0----0--0--0--0--|-0-----------------0-----0-----------------0-----|
D|-0-----0---0-------------------|----------0---0-------------------|-1-----------1-----3-----------3-----3-----------|
A|-------------------------------|----------------------------------|-------------------------------------------------|
E|-------------------------------|----------------------------------|-------------------------------------------------|


E|----------3-----------------3--------------------|----------3--3--3--3--3----|-3-----3---3----3----|
B|----3-----------3--------3--------3-----3--3-----|----------0--2--0--2--3----|-3-----3---3----3----|
G|----------------------0-----------------0--0--0--|----------0--0--0--0--0----|-0-----0---0----0----|
D|-1-----1-----1-----3--3--------3-----3--3--3--0--|---------------------------|---------------------|
A|-------------------------------------------------|---------------------------|---------------------|
E|-------------------------------------------------|---------------------------|---------------------|


E|----------3-----------------------------------3--|----------3-----------------3--------------------|
B|----3--3--------3-----3-----3-----3-----3--3-----|----3-----------3--------3--------3-----3--3-----|
G|-0-----------------0-----0-----------------0-----|----------------------0-----------------0--0--0--|
D|-1-----------1-----3-----------3-----3-----------|-1-----1-----1-----3--3--------3-----3--3--3--0--|
A|-------------------------------------------------|-------------------------------------------------|
E|-------------------------------------------------|-------------------------------------------------|


E|----------3--3--3--3--3----|-3-----3---3----3----|--------|--------|--------|--------|
B|----------0--2--0--2--3----|-3-----3---3----3----|--------|--------|--------|--------|
G|----------0--0--0--0--0----|-0-----0---0----0----|--------|--------|--------|--------|
D|---------------------------|---------------------|--------|--------|--------|--------|
A|---------------------------|---------------------|--------|--------|--------|--------|
E|---------------------------|---------------------|--------|--------|--------|--------|


E|--------|--------|--------|--------|--------|--------|--------|--------|--------|
B|--------|--------|--------|--------|--------|--------|--------|--------|--------|
G|--------|--------|--------|--------|--------|--------|--------|--------|--------|
D|--------|--------|--------|--------|--------|--------|--------|--------|--------|
A|--------|--------|--------|--------|--------|--------|--------|--------|--------|
E|--------|--------|--------|--------|--------|--------|--------|--------|--------|


E|--------|--------|--------|--------|--------|--------|--------|--------|--------|
B|--------|--------|--------|--------|--------|--------|--------|--------|--------|
G|--------|--------|--------|--------|--------|--------|--------|--------|--------|
D|--------|--------|--------|--------|--------|--------|--------|--------|--------|
A|--------|--------|--------|--------|--------|--------|--------|--------|--------|
E|--------|--------|--------|--------|--------|--------|--------|--------|--------|


E|--------|
B|--------|
G|--------|
D|--------|
A|--------|
E|--------|





Track 5: Clean Elec. 2

E|--------|--------|--------|--------|--------|--------|--------|--------|--------|
B|--------|--------|--------|--------|--------|--------|--------|--------|--------|
G|--------|--------|--------|--------|--------|--------|--------|--------|--------|
D|--------|--------|--------|--------|--------|--------|--------|--------|--------|
A|--------|--------|--------|--------|--------|--------|--------|--------|--------|
E|--------|--------|--------|--------|--------|--------|--------|--------|--------|


E|--------|--------|--------|--------|--------|--------|--------|--------|--------|
B|--------|--------|--------|--------|--------|--------|--------|--------|--------|
G|--------|--------|--------|--------|--------|--------|--------|--------|--------|
D|--------|--------|--------|--------|--------|--------|--------|--------|--------|
A|--------|--------|--------|--------|--------|--------|--------|--------|--------|
E|--------|--------|--------|--------|--------|--------|--------|--------|--------|


E|--------|--------|--------|--------|--------|--------|--------|--------|--------|
B|--------|--------|--------|--------|--------|--------|--------|--------|--------|
G|--------|--------|--------|--------|--------|--------|--------|--------|--------|
D|--------|--------|--------|--------|--------|--------|--------|--------|--------|
A|--------|--------|--------|--------|--------|--------|--------|--------|--------|
E|--------|--------|--------|--------|--------|--------|--------|--------|--------|


E|--------|--------|--------|--------|--------|--------|--------|--------|--------|
B|--------|--------|--------|--------|--------|--------|--------|--------|--------|
G|--------|--------|--------|--------|--------|--------|--------|--------|--------|
D|--------|--------|--------|--------|--------|--------|--------|--------|--------|
A|--------|--------|--------|--------|--------|--------|--------|--------|--------|
E|--------|--------|--------|--------|--------|--------|--------|--------|--------|


E|--------|--------|--------|--------|--------|--------|--------|--------|--------|
B|--------|--------|--------|--------|--------|--------|--------|--------|--------|
G|--------|--------|--------|--------|--------|--------|--------|--------|--------|
D|--------|--------|--------|--------|--------|--------|--------|--------|--------|
A|--------|--------|--------|--------|--------|--------|--------|--------|--------|
E|--------|--------|--------|--------|--------|--------|--------|--------|--------|


E|--------|--------|--------|--------|--------|--------|--------|--------|--------|
B|--------|--------|--------|--------|--------|--------|--------|--------|--------|
G|--------|--------|--------|--------|--------|--------|--------|--------|--------|
D|--------|--------|--------|--------|--------|--------|--------|--------|--------|
A|--------|--------|--------|--------|--------|--------|--------|--------|--------|
E|--------|--------|--------|--------|--------|--------|--------|--------|--------|


E|--------|--------|--------|--------|--------|--------|--------|--------|--------|
B|--------|--------|--------|--------|--------|--------|--------|--------|--------|
G|--------|--------|--------|--------|--------|--------|--------|--------|--------|
D|--------|--------|--------|--------|--------|--------|--------|--------|--------|
A|--------|--------|--------|--------|--------|--------|--------|--------|--------|
E|--------|--------|--------|--------|--------|--------|--------|--------|--------|


E|--------|--------|--------|--------|--------|--------|--------|--------|--------|
B|--------|--------|--------|--------|--------|--------|--------|--------|--------|
G|--------|--------|--------|--------|--------|--------|--------|--------|--------|
D|--------|--------|--------|--------|--------|--------|--------|--------|--------|
A|--------|--------|--------|--------|--------|--------|--------|--------|--------|
E|--------|--------|--------|--------|--------|--------|--------|--------|--------|


E|--------|--------|--------|--------|--------|--------|--------|--------|--------|
B|--------|--------|--------|--------|--------|--------|--------|--------|--------|
G|--------|--------|--------|--------|--------|--------|--------|--------|--------|
D|--------|--------|--------|--------|--------|--------|--------|--------|--------|
A|--------|--------|--------|--------|--------|--------|--------|--------|--------|
E|--------|--------|--------|--------|--------|--------|--------|--------|--------|


E|--------|--------|--------|--------|--------|--------|--------|--------|--------|
B|--------|--------|--------|--------|--------|--------|--------|--------|--------|
G|--------|--------|--------|--------|--------|--------|--------|--------|--------|
D|--------|--------|--------|--------|--------|--------|--------|--------|--------|
A|--------|--------|--------|--------|--------|--------|--------|--------|--------|
E|--------|--------|--------|--------|--------|--------|--------|--------|--------|


E|--------|--------|--------|--------|--------|--------|----------------------------|
B|--------|--------|--------|--------|--------|--------|----------------------------|
G|--------|--------|--------|--------|--------|--------|-0-----0---0----0--0--0--0--|
D|--------|--------|--------|--------|--------|--------|-1-----3---3----3--3--3--0--|
A|--------|--------|--------|--------|--------|--------|----------------------------|
E|--------|--------|--------|--------|--------|--------|----------------------------|


E|-------------------------------|--------|--------|--------|--------|--------|--------|
B|-------------------------------|--------|--------|--------|--------|--------|--------|
G|-0-----0---0--0----0--0--0--0--|-0------|-0------|--------|--------|--------|--------|
D|-1-----3---3--3----3--3--3--4--|-5------|-5------|--------|--------|--------|--------|
A|-------------------------------|--------|--------|--------|--------|--------|--------|
E|-------------------------------|--------|--------|--------|--------|--------|--------|


E|--------|--------|--------|--------|--------|--------|--------|--------|--------|
B|--------|--------|--------|--------|--------|--------|--------|--------|--------|
G|--------|--------|--------|--------|--------|--------|--------|--------|--------|
D|--------|--------|--------|--------|--------|--------|--------|--------|--------|
A|--------|--------|--------|--------|--------|--------|--------|--------|--------|
E|--------|--------|--------|--------|--------|--------|--------|--------|--------|


E|--------|--------|--------|--------|--------|--------|
B|--------|--------|--------|--------|--------|--------|
G|--------|--------|--------|--------|--------|--------|
D|--------|--------|--------|--------|--------|--------|
A|--------|--------|--------|--------|--------|--------|
E|--------|--------|--------|--------|--------|--------|





Track 6: Lead Dist. Guitar

E|--------|--------|--------|--------|--------|--------|--------|--------|--------|
B|--------|--------|--------|--------|--------|--------|--------|--------|--------|
G|--------|--------|--------|--------|--------|--------|--------|--------|--------|
D|--------|--------|--------|--------|--------|--------|--------|--------|--------|
A|--------|--------|--------|--------|--------|--------|--------|--------|--------|
E|--------|--------|--------|--------|--------|--------|--------|--------|--------|


E|--------|--------|--------|--------|--------|--------|--------|--------|--------|
B|--------|--------|--------|--------|--------|--------|--------|--------|--------|
G|--------|--------|--------|--------|--------|--------|--------|--------|--------|
D|--------|--------|--------|--------|--------|--------|--------|--------|--------|
A|--------|--------|--------|--------|--------|--------|--------|--------|--------|
E|--------|--------|--------|--------|--------|--------|--------|--------|--------|


E|--------|--------|--------|--------|--------|--------|--------|--------|--------|
B|--------|--------|--------|--------|--------|--------|--------|--------|--------|
G|--------|--------|--------|--------|--------|--------|--------|--------|--------|
D|--------|--------|--------|--------|--------|--------|--------|--------|--------|
A|--------|--------|--------|--------|--------|--------|--------|--------|--------|
E|--------|--------|--------|--------|--------|--------|--------|--------|--------|


E|--------|--------|--------|--------|--------|--------|--------|--------|--------|
B|--------|--------|--------|--------|--------|--------|--------|--------|--------|
G|--------|--------|--------|--------|--------|--------|--------|--------|--------|
D|--------|--------|--------|--------|--------|--------|--------|--------|--------|
A|--------|--------|--------|--------|--------|--------|--------|--------|--------|
E|--------|--------|--------|--------|--------|--------|--------|--------|--------|


E|--------|--------|--------|--------|--------|--------|--------|--------|--------|
B|--------|--------|--------|--------|--------|--------|--------|--------|--------|
G|--------|--------|--------|--------|--------|--------|--------|--------|--------|
D|--------|--------|--------|--------|--------|--------|--------|--------|--------|
A|--------|--------|--------|--------|--------|--------|--------|--------|--------|
E|--------|--------|--------|--------|--------|--------|--------|--------|--------|


E|--------|--------|--------|--------|--------|--------|--------|--------|--------|
B|--------|--------|--------|--------|--------|--------|--------|--------|--------|
G|--------|--------|--------|--------|--------|--------|--------|--------|--------|
D|--------|--------|--------|--------|--------|--------|--------|--------|--------|
A|--------|--------|--------|--------|--------|--------|--------|--------|--------|
E|--------|--------|--------|--------|--------|--------|--------|--------|--------|


E|--------|--------|--------|--------|--------|--------|--------|--------|--------|
B|--------|--------|--------|--------|--------|--------|--------|--------|--------|
G|--------|--------|--------|--------|--------|--------|--------|--------|--------|
D|--------|--------|--------|--------|--------|--------|--------|--------|--------|
A|--------|--------|--------|--------|--------|--------|--------|--------|--------|
E|--------|--------|--------|--------|--------|--------|--------|--------|--------|


E|--------|--------|--------|--------|--------|--------|--------|--------|--------|
B|--------|--------|--------|--------|--------|--------|--------|--------|--------|
G|--------|--------|--------|--------|--------|--------|--------|--------|--------|
D|--------|--------|--------|--------|--------|--------|--------|--------|--------|
A|--------|--------|--------|--------|--------|--------|--------|--------|--------|
E|--------|--------|--------|--------|--------|--------|--------|--------|--------|


E|--------|--------|--------|--------|--------|--------|--------|--------|--------|
B|--------|--------|--------|--------|--------|--------|--------|--------|--------|
G|--------|--------|--------|--------|--------|--------|--------|--------|--------|
D|--------|--------|--------|--------|--------|--------|--------|--------|--------|
A|--------|--------|--------|--------|--------|--------|--------|--------|--------|
E|--------|--------|--------|--------|--------|--------|--------|--------|--------|


E|--------|--------|--------|--------|--------|--------|--------|--------|--------|
B|--------|--------|--------|--------|--------|--------|--------|--------|--------|
G|--------|--------|--------|--------|--------|--------|--------|--------|--------|
D|--------|--------|--------|--------|--------|--------|--------|--------|--------|
A|--------|--------|--------|--------|--------|--------|--------|--------|--------|
E|--------|--------|--------|--------|--------|--------|--------|--------|--------|


E|--------|--------|--------|--------|--------|--------|--------|--------|--------|
B|--------|--------|--------|--------|--------|--------|--------|--------|--------|
G|--------|--------|--------|--------|--------|--------|--------|--------|--------|
D|--------|--------|--------|--------|--------|--------|--------|--------|--------|
A|--------|--------|--------|--------|--------|--------|--------|--------|--------|
E|--------|--------|--------|--------|--------|--------|--------|--------|--------|


E|--------|-----------------------------------------------|----------------------------------|
B|--------|-----------------------------------------------|----------------------------------|
G|--------|-----------------------------------------------|---------------------------3--3---|
D|--------|-----------------------------------------------|---------------------------3--3---|
A|--------|-----5--6--5--6--5--6--5--6--5--6--------0-----|----------------------------------|
E|--------|-----------------------------------5--6-----5--|-5--3----6--6--3---3----3---------|


E|-------------------------------------------------|------------------------------|
B|-------------------------------------------------|------------------------------|
G|-------------------------------------11-------16-|-16---12-12---12-14---14---12-|
D|-------------------9--------12-------------12----|------------------------------|
A|----------10-------------10-------14-------------|------------------------------|
E|-12----12-------12-------------------------------|------------------------------|


E|-----------------------------14----12-11-15-|----14---14----------------|---------------------------15-14-----|
B|--------------------------------------------|-------------17--17--------|----17-----------------15--------15--|
G|-11---121111--9--12-12-11-12----------------|-----------------------16--|-16------16-15-16--16----------------|
D|--------------------------------------------|---------------------------|-------------------------------------|
A|--------------------------------------------|---------------------------|-------------------------------------|
E|--------------------------------------------|---------------------------|-------------------------------------|


E|----------------------------------|---------------------------------------|------------------------|
B|-------17-17---15--12-------------|-----------10--12-13-15--13-11-10---9--|-14---14-12-10-9--9-----|
G|-14-12----------------------------|-9---11-12-----------------------------|------------------------|
D|----------------------14--17---17-|---------------------------------------|------------------------|
A|----------------------------------|---------------------------------------|------------------------|
E|----------------------------------|---------------------------------------|------------------------|


E|-----------------|--------|--------|--------|--------|--------|--------|--------|
B|-10--------------|--------|--------|--------|--------|--------|--------|--------|
G|-----------------|--------|--------|--------|--------|--------|--------|--------|
D|-------0---------|--------|--------|--------|--------|--------|--------|--------|
A|-----------------|--------|--------|--------|--------|--------|--------|--------|
E|-----------------|--------|--------|--------|--------|--------|--------|--------|


E|--------|
B|--------|
G|--------|
D|--------|
A|--------|
E|--------|





Track 7: Untitled

G|--------|--------|--------|--------|--------|--------|--------|--------|--------|
D|--------|--------|--------|--------|--------|--------|--------|--------|--------|
A|--------|--------|--------|--------|--------|--------|--------|--------|--------|
E|--------|--------|--------|--------|--------|--------|--------|--------|--------|


G|--------|--------|--------|--------|--------|--------|--------|--------|--------|
D|--------|--------|--------|--------|--------|--------|--------|--------|--------|
A|--------|--------|--------|--------|--------|--------|--------|--------|--------|
E|--------|--------|--------|--------|--------|--------|--------|--------|--------|


G|--------|--------|--------|--------|--------|--------|--------|--------|--------|
D|--------|--------|--------|--------|--------|--------|--------|--------|--------|
A|--------|--------|--------|--------|--------|--------|--------|--------|--------|
E|--------|--------|--------|--------|--------|--------|--------|--------|--------|


G|--------|--------|--------|--------|--------|--------|--------|--------|--------|
D|--------|--------|--------|--------|--------|--------|--------|--------|--------|
A|--------|--------|--------|--------|--------|--------|--------|--------|--------|
E|--------|--------|--------|--------|--------|--------|--------|--------|--------|


G|--------|--------|--------|--------|--------|--------|--------|--------|--------|
D|--------|--------|--------|--------|--------|--------|--------|--------|--------|
A|--------|--------|--------|--------|--------|--------|--------|--------|--------|
E|--------|--------|--------|--------|--------|--------|--------|--------|--------|


G|--------|--------|--------|--------|--------|--------|--------|--------|--------|
D|--------|--------|--------|--------|--------|--------|--------|--------|--------|
A|--------|--------|--------|--------|--------|--------|--------|--------|--------|
E|--------|--------|--------|--------|--------|--------|--------|--------|--------|


G|--------|--------|--------|--------|--------|--------|--------|--------|--------|
D|--------|--------|--------|--------|--------|--------|--------|--------|--------|
A|--------|--------|--------|--------|--------|--------|--------|--------|--------|
E|--------|--------|--------|--------|--------|--------|--------|--------|--------|


G|--------|--------|--------|--------|--------|--------|--------|--------|--------|
D|--------|--------|--------|--------|--------|--------|--------|--------|--------|
A|--------|--------|--------|--------|--------|--------|--------|--------|--------|
E|--------|--------|--------|--------|--------|--------|--------|--------|--------|


G|--------|--------|--------|--------|--------|--------|--------|--------|--------|
D|--------|--------|--------|--------|--------|--------|--------|--------|--------|
A|--------|--------|--------|--------|--------|--------|--------|--------|--------|
E|--------|--------|--------|--------|--------|--------|--------|--------|--------|


G|--------|--------|--------|--------|--------|--------|--------|--------|--------|
D|--------|--------|--------|--------|--------|--------|--------|--------|--------|
A|--------|--------|--------|--------|--------|--------|--------|--------|--------|
E|--------|--------|--------|--------|--------|--------|--------|--------|--------|


G|--------|--------|--------|--------|--------|--------|--------|--------|--------|
D|--------|--------|--------|--------|--------|--------|--------|--------|--------|
A|--------|--------|--------|--------|--------|--------|--------|--------|--------|
E|--------|--------|--------|--------|--------|--------|--------|--------|--------|


G|--------|--------|--------|--------|--------|--------|--------|--------|--------|
D|--------|--------|--------|--------|--------|--------|--------|--------|--------|
A|--------|--------|--------|--------|--------|--------|--------|--------|--------|
E|--------|--------|--------|--------|--------|--------|--------|--------|--------|


G|--------|--------|--------|--------|--------|--------|--------|--------|--------|
D|--------|--------|--------|--------|--------|--------|--------|--------|--------|
A|--------|--------|--------|--------|--------|--------|--------|--------|--------|
E|--------|--------|--------|--------|--------|--------|--------|--------|--------|


G|--------|--------|
D|--------|--------|
A|--------|--------|
E|--------|--------|