Menu:

 

Search:

 

stone temple pilots - silvergun superman:

 



Title: Silvergun Superman
Artist: 
Album: Purple
Author: R. Deleo, D. Deleo


Track 1: Distortion Guitar 1

D|----------------------|-------------------------------------|-------------------------------------|
A|----------------------|-------------------------------------|-------------------------------------|
F|----------------------|-------------------------------------|-------------------------------------|
C|----------------------|-------------------------------------|-------------------------------------|
G|---------------5--5---|-2----2------2---2--2---------5--5---|-2----2------2---2--2---------5--5---|
D|---------------3--3---|-0----0------0---0--0---------3--3---|-0----0------0---0--0---------3--3---|


D|-------------------------------------|-----------------------------------------|
A|-------------------------------------|-----------------------------------------|
F|-------------------------------------|-----------------------------------------|
C|-------------------------------------|-----------------------------------------|
G|-2----2------2---2--2---------5--5---|-2----2--2---2--4--5--5--5--5--5--4---4--|
D|-0----0------0---0--0---------3--3---|-0----0--0---0--2--3--3--3--3--3--2---2--|


D|---------------------------------------------|-------------------------------------------|
A|---------------------------------------------|-------------------------------------------|
F|---------------------------------------------|-------------------------------------------|
C|---------------------------------------------|-------------------------------------------|
G|---------5--5--5--------------5--5-----5--7--|---------5--5--5-----------------------5---|
D|-0---0---3--3--3--0--5--6--7--------7--------|-0----0--3--3--3--0--5--6--7--6--6--5--3---|


D|---------------------------------------------|-------------------------------------------|
A|---------------------------------------------|-------------------------------------------|
F|---------------------------------------------|-------------------------------------------|
C|---------------------------------------------|-------------------------------------------|
G|---------5--5--5--------------5--5-----5--7--|---------5--5--5-----------------------5---|
D|-0---0---3--3--3--0--5--6--7--------7--------|-0----0--3--3--3--0--5--6--7--6--6--5--3---|


D|---------------------------------------------|-------------------------------------------|
A|---------------------------------------------|-------------------------------------------|
F|---------------------------------------------|-------------------------------------------|
C|---------------------------------------------|-------------------------------------------|
G|---------5--5--5--------------5--5-----5--7--|---------5--5--5-----------------------5---|
D|-0---0---3--3--3--0--5--6--7--------7--------|-0----0--3--3--3--0--5--6--7--6--6--5--3---|


D|---------------------------------------------|-------------------------------------------|
A|---------------------------------------------|-------------------------------------------|
F|---------------------------------------------|-------------------------------------------|
C|---------------------------------------------|-------------------------------------------|
G|---------5--5--5--------------5--5-----5--7--|---------5--5--5-----------------------5---|
D|-0---0---3--3--3--0--5--6--7--------7--------|-0----0--3--3--3--0--5--6--7--6--6--5--3---|


D|--------|--------|--------|--------|--------|--------|--------|-------------------------------------|
A|--------|--------|--------|--------|--------|--------|--------|-------------------------------------|
F|--------|--------|--------|--------|--------|--------|--------|-------------------------------------|
C|--------|--------|--------|--------|--------|--------|--------|-------------------------------------|
G|--------|--------|--------|--------|--------|--------|--------|-------2--4--5--5--5--5--5--4--4--2--|
D|--------|--------|--------|--------|--------|--------|--------|-------0--2--3--3--3--3--3--2--2--0--|


D|---------------------------------------------|-------------------------------------------|
A|---------------------------------------------|-------------------------------------------|
F|---------------------------------------------|-------------------------------------------|
C|---------------------------------------------|-------------------------------------------|
G|---------5--5--5--------------5--5-----5--7--|---------5--5--5-----------------------5---|
D|-0---0---3--3--3--0--5--6--7--------7--------|-0----0--3--3--3--0--5--6--7--6--6--5--3---|


D|---------------------------------------------|-------------------------------------------|
A|---------------------------------------------|-------------------------------------------|
F|---------------------------------------------|-------------------------------------------|
C|---------------------------------------------|-------------------------------------------|
G|---------5--5--5--------------5--5-----5--7--|---------5--5--5-----------------------5---|
D|-0---0---3--3--3--0--5--6--7--------7--------|-0----0--3--3--3--0--5--6--7--6--6--5--3---|


D|---------------------------------------------|-------------------------------------------|
A|---------------------------------------------|-------------------------------------------|
F|---------------------------------------------|-------------------------------------------|
C|---------------------------------------------|-------------------------------------------|
G|---------5--5--5--------------5--5-----5--7--|---------5--5--5-----------------------5---|
D|-0---0---3--3--3--0--5--6--7--------7--------|-0----0--3--3--3--0--5--6--7--6--6--5--3---|


D|---------------------------------------------|-------------------------------------------|
A|---------------------------------------------|-------------------------------------------|
F|---------------------------------------------|-------------------------------------------|
C|---------------------------------------------|-------------------------------------------|
G|---------5--5--5--------------5--5-----5--7--|---------5--5--5-----------------------5---|
D|-0---0---3--3--3--0--5--6--7--------7--------|-0----0--3--3--3--0--5--6--7--6--6--5--3---|


D|--------|--------|--------|--------|--------|--------|--------|-------------------------------------|
A|--------|--------|--------|--------|--------|--------|--------|-------------------------------------|
F|--------|--------|--------|--------|--------|--------|--------|-------------------------------------|
C|--------|--------|--------|--------|--------|--------|--------|-------------------------------------|
G|--------|--------|--------|--------|--------|--------|--------|-------2--4--5--5--5--5--5--4--4--2--|
D|--------|--------|--------|--------|--------|--------|--------|-------0--2--3--3--3--3--3--2--2--0--|


D|-------------------------------------|-------------------------------------|--------|
A|-------------------------------------|-------------------------------------|--------|
F|-------------------------------------|-------------------------------------|--------|
C|-------------------------------------|-------------------------------------|--------|
G|-2-----2--4--5--5--5--5--5--4--4--2--|-2-----2--4--5--5--5--5--5--4--4--2--|-2------|
D|-0-----0--2--3--3--3--3--3--2--2--0--|-0-----0--2--3--3--3--3--3--2--2--0--|-0------|


D|--------|--------|--------|--------|--------|--------|--------|------------------|
A|--------|--------|--------|--------|--------|--------|--------|------------------|
F|--------|--------|--------|--------|--------|--------|--------|------------------|
C|--------|--------|--------|--------|--------|--------|--------|------------------|
G|--------|--------|--------|--------|--------|--------|--------|-----------5--5---|
D|--------|--------|--------|--------|--------|--------|--------|-----------3--3---|


D|-------------------------------------|-------------------------------------|-------------------------------------|
A|-------------------------------------|-------------------------------------|-------------------------------------|
F|-------------------------------------|-------------------------------------|-------------------------------------|
C|-------------------------------------|-------------------------------------|-------------------------------------|
G|-2----2------2---2--2---------5--5---|-2----2------2---2--2---------5--5---|-2----2------2---2--2---------5--5---|
D|-0----0------0---0--0---------3--3---|-0----0------0---0--0---------3--3---|-0----0------0---0--0---------3--3---|


D|-----------------------------------------|--------|--------|--------|--------|--------|
A|-----------------------------------------|--------|--------|--------|--------|--------|
F|-----------------------------------------|--------|--------|--------|--------|--------|
C|-----------------------------------------|--------|--------|--------|--------|--------|
G|-2----2--2---2--4--5--5--5--5--5--4---4--|--------|--------|--------|--------|--------|
D|-0----0--0---0--2--3--3--3--3--3--2---2--|--------|--------|--------|--------|--------|


D|--------|--------|--------|--------|--------|--------|--------|--------|--------|
A|--------|--------|--------|--------|--------|--------|--------|--------|--------|
F|--------|--------|--------|--------|--------|--------|--------|--------|--------|
C|--------|--------|--------|--------|--------|--------|--------|--------|--------|
G|--------|--------|--------|--------|--------|--------|--------|--------|--------|
D|--------|--------|--------|--------|--------|--------|--------|--------|--------|


D|--------|--------|--------|--------|--------|--------|--------|--------|--------|
A|--------|--------|--------|--------|--------|--------|--------|--------|--------|
F|--------|--------|--------|--------|--------|--------|--------|--------|--------|
C|--------|--------|--------|--------|--------|--------|--------|--------|--------|
G|--------|--------|--------|--------|--------|--------|--------|--------|--------|
D|--------|--------|--------|--------|--------|--------|--------|--------|--------|


D|--------|--------|--------|--------|--------|--------|--------|--------|--------|
A|--------|--------|--------|--------|--------|--------|--------|--------|--------|
F|--------|--------|--------|--------|--------|--------|--------|--------|--------|
C|--------|--------|--------|--------|--------|--------|--------|--------|--------|
G|--------|--------|--------|--------|--------|--------|--------|--------|--------|
D|--------|--------|--------|--------|--------|--------|--------|--------|--------|


D|--------|--------|--------|--------|
A|--------|--------|--------|--------|
F|--------|--------|--------|--------|
C|--------|--------|--------|--------|
G|--------|--------|--------|--------|
D|--------|--------|--------|--------|





Track 2: Distortion Guitar 1

D|-----------------|--------|--------|--------|--------|--------|--------|--------|
A|-----------------|--------|--------|--------|--------|--------|--------|--------|
F|-----------------|--------|--------|--------|--------|--------|--------|--------|
C|-----------------|--------|--------|--------|--------|--------|--------|--------|
G|-----------------|--------|--------|--------|--------|--------|--------|--------|
D|-----------------|--------|--------|--------|--------|--------|--------|--------|


D|--------|--------|--------|--------|--------|--------|--------|--------|--------|
A|--------|--------|--------|--------|--------|--------|--------|--------|--------|
F|--------|--------|--------|--------|--------|--------|--------|--------|--------|
C|--------|--------|--------|--------|--------|--------|--------|--------|--------|
G|--------|--------|--------|--------|--------|--------|--------|--------|--------|
D|--------|--------|--------|--------|--------|--------|--------|--------|--------|


D|--------|--------|--------|--------|--------|--------|--------|--------|--------|
A|--------|--------|--------|--------|--------|--------|--------|--------|--------|
F|--------|--------|--------|--------|--------|--------|--------|--------|--------|
C|--------|--------|--------|--------|--------|--------|--------|--------|--------|
G|--------|--------|--------|--------|--------|--------|--------|--------|--------|
D|--------|--------|--------|--------|--------|--------|--------|--------|--------|


D|--------|--------|--------|--------|--------|--------|--------|--------|--------|
A|--------|--------|--------|--------|--------|--------|--------|--------|--------|
F|--------|--------|--------|--------|--------|--------|--------|--------|--------|
C|--------|--------|--------|--------|--------|--------|--------|--------|--------|
G|--------|--------|--------|--------|--------|--------|--------|--------|--------|
D|--------|--------|--------|--------|--------|--------|--------|--------|--------|


D|--------|--------|--------|--------|--------|--------|--------|--------|--------|
A|--------|--------|--------|--------|--------|--------|--------|--------|--------|
F|--------|--------|--------|--------|--------|--------|--------|--------|--------|
C|--------|--------|--------|--------|--------|--------|--------|--------|--------|
G|--------|--------|--------|--------|--------|--------|--------|--------|--------|
D|--------|--------|--------|--------|--------|--------|--------|--------|--------|


D|--------|--------|--------|--------|--------|--------|--------|--------|--------|
A|--------|--------|--------|--------|--------|--------|--------|--------|--------|
F|--------|--------|--------|--------|--------|--------|--------|--------|--------|
C|--------|--------|--------|--------|--------|--------|--------|--------|--------|
G|--------|--------|--------|--------|--------|--------|--------|--------|--------|
D|--------|--------|--------|--------|--------|--------|--------|--------|--------|


D|--------|--------|--------|--------|--------|--------|--------|--------|--------|
A|--------|--------|--------|--------|--------|--------|--------|--------|--------|
F|--------|--------|--------|--------|--------|--------|--------|--------|--------|
C|--------|--------|--------|--------|--------|--------|--------|--------|--------|
G|--------|--------|--------|--------|--------|--------|--------|--------|--------|
D|--------|--------|--------|--------|--------|--------|--------|--------|--------|


D|--------|--------|--------|--------|--------|--------|--------|--------|--------|
A|--------|--------|--------|--------|--------|--------|--------|--------|--------|
F|--------|--------|--------|--------|--------|--------|--------|--------|--------|
C|--------|--------|--------|--------|--------|--------|--------|--------|--------|
G|--------|--------|--------|--------|--------|--------|--------|--------|--------|
D|--------|--------|--------|--------|--------|--------|--------|--------|--------|


D|--------|--------|--------|--------|--------|--------|--------|--------|--------|
A|--------|--------|--------|--------|--------|--------|--------|--------|--------|
F|--------|--------|--------|--------|--------|--------|--------|--------|--------|
C|--------|--------|--------|--------|--------|--------|--------|--------|--------|
G|--------|--------|--------|--------|--------|--------|--------|--------|--------|
D|--------|--------|--------|--------|--------|--------|--------|--------|--------|


D|--------|--------|--------|--------|--------|--------|--------|--------|
A|--------|--------|--------|--------|--------|--------|--------|--------|
F|--------|--------|--------|--------|--------|--------|--------|--------|
C|--------|--------|--------|--------|--------|--------|--------|--------|
G|--------|--------|--------|--------|--------|--------|--------|--------|
D|--------|--------|--------|--------|--------|--------|--------|--------|





Track 3: Distortion Guitar 2

D|-------------|--------------------------------------|--------------------------------------|
A|-------------|--------------------------------------|--------------------------------------|
F|-------------|--------------------------------------|--------------------------------------|
C|-------------|-----2-----2---------2-----2----------|-----2-----2---------2-----2----------|
G|-------------|-----2--4-----5------2--4-----4--5----|-----2--4-----5------2--4-----4--5----|
D|-------------|--------------------------------------|--------------------------------------|


D|--------------------------------------|-------------------------------|--------|
A|--------------------------------------|-------------------------------|--------|
F|--------------------------------------|-------------------------------|--------|
C|-----2-----2---------2-----2----------|-----2-----2-------------------|--------|
G|-----2--4-----5------2--4-----4--5----|-----2--4-----4--4----5--------|--------|
D|--------------------------------------|-------------------------------|--------|


D|--------|--------|--------|--------|--------|--------|--------|--------|--------|
A|--------|--------|--------|--------|--------|--------|--------|--------|--------|
F|--------|--------|--------|--------|--------|--------|--------|--------|--------|
C|--------|--------|--------|--------|--------|--------|--------|--------|--------|
G|--------|--------|--------|--------|--------|--------|--------|--------|--------|
D|--------|--------|--------|--------|--------|--------|--------|--------|--------|


D|--------|--------|--------|--------|--------|--------|--------|--------|--------|
A|--------|--------|--------|--------|--------|--------|--------|--------|--------|
F|--------|--------|--------|--------|--------|--------|--------|--------|--------|
C|--------|--------|--------|--------|--------|--------|--------|--------|--------|
G|--------|--------|--------|--------|--------|--------|--------|--------|--------|
D|--------|--------|--------|--------|--------|--------|--------|--------|--------|


D|--------|--------|--------|--------|--------|--------|--------|--------|--------|
A|--------|--------|--------|--------|--------|--------|--------|--------|--------|
F|--------|--------|--------|--------|--------|--------|--------|--------|--------|
C|--------|--------|--------|--------|--------|--------|--------|--------|--------|
G|--------|--------|--------|--------|--------|--------|--------|--------|--------|
D|--------|--------|--------|--------|--------|--------|--------|--------|--------|


D|--------|--------|--------|--------|--------|--------|--------|--------|--------|
A|--------|--------|--------|--------|--------|--------|--------|--------|--------|
F|--------|--------|--------|--------|--------|--------|--------|--------|--------|
C|--------|--------|--------|--------|--------|--------|--------|--------|--------|
G|--------|--------|--------|--------|--------|--------|--------|--------|--------|
D|--------|--------|--------|--------|--------|--------|--------|--------|--------|


D|--------|--------|--------|--------|--------|--------|--------|--------|--------|
A|--------|--------|--------|--------|--------|--------|--------|--------|--------|
F|--------|--------|--------|--------|--------|--------|--------|--------|--------|
C|--------|--------|--------|--------|--------|--------|--------|--------|--------|
G|--------|--------|--------|--------|--------|--------|--------|--------|--------|
D|--------|--------|--------|--------|--------|--------|--------|--------|--------|


D|--------|--------|--------|--------|--------|--------|--------|--------|-----------------------------|
A|--------|--------|--------|--------|--------|--------|--------|--------|-----------------------------|
F|--------|--------|--------|--------|--------|--------|--------|--------|----------7--8--9------------|
C|--------|--------|--------|--------|--------|--------|--------|--------|-------------------9--8--7---|
G|--------|--------|--------|--------|--------|--------|--------|--------|-----------------------------|
D|--------|--------|--------|--------|--------|--------|--------|--------|-----------------------------|


D|----------------------|--------------------------------|----------------------------------------|
A|----------------------|--------------------------------|----------------------------------------|
F|-13---13----13-14-12--|-12--9-----9---12-14-12--12-1214|-16-141214--12---16-141214--12-14-12-13-|
C|----------------------|--------------------------------|----------------------------------------|
G|-11---11----11-12-10--|-10-----------------------------|----------------------------------------|
D|----------------------|--------------------------------|----------------------------------------|


D|--------------------------------|---------------------------|-------------------------------|
A|-15--17---17-17-16--17--15--17--|-17--17---17---17--19--15--|-15---12-14-14--14-------12-14-|
F|--------------------------------|---------------------------|--------------------13---------|
C|--------------------------------|---------------------------|-------------------------------|
G|--------------------------------|---------------------------|-------------------------------|
D|--------------------------------|---------------------------|-------------------------------|


D|----------------------------------------------------|-------------------------------0--0--|
A|-15-1415141214-14-121412-10-12-12-10-9--10-9--------|-------------------------------0--0--|
F|----------------------------------------------9-----|-------9--9--9--------9--------0--0--|
C|-------------------------------------------------9--|-9--------------8--9-----8--9--------|
G|----------------------------------------------------|-------------------------------------|
D|----------------------------------------------------|-------------------------------------|


D|--------------------------------------------|-------------------------------|--------------------------------|
A|--------15--------------12------------------|-------------------------------|--------------------------------|
F|-161416----16-14--11-13----13-11--9--11-7---|-7----7--9--11--11---14-16-19--|-19---16--19--19--14-16-19--19--|
C|--------------------------------------------|-------------------------------|--------------------------------|
G|--------------------------------------------|-------------------------------|--------------------------------|
D|--------------------------------------------|-------------------------------|--------------------------------|


D|------------12-12-16-17-16-12------12-|-1612---12-1612---12-1612---12-1612---12-16-19-18--|
A|------------------------------15------|-----15--------15--------15--------15--------------|
F|-19---0--0----------------------------|---------------------------------------------------|
C|--------------------------------------|---------------------------------------------------|
G|--------------------------------------|---------------------------------------------------|
D|--------------------------------------|---------------------------------------------------|


D|-17--16--16----15-17-15-16---------------|-----15-16-0-----------17-18-19-22-22---|
A|------------17-------------17--17-15-17--|-17--------0-----17-19------------------|
F|-----------------------------------------|--------------18------------------------|
C|-----------------------------------------|----------------------------------------|
G|-----------------------------------------|----------------------------------------|
D|-----------------------------------------|----------------------------------------|


D|-22--19------1-1----12-------------------------|----------------------------------|
A|---------17--1-1-------15----------------------|----------------------------------|
F|-----------------16------1412----1412----------|------13--13-13-13---13-13-14-12--|
C|------------------------------14-----14-12-----|----------------------------------|
G|-------------------------------------------1412|-11---11--11-11-11---11-11-12-10--|
D|-----------------------------------------------|----------------------------------|


D|-------------------------0--0--------|--------------------------------|----18---18---18-19-16-15----12---------|
A|---------------------8---0--0--0-----|-15---14-15---15--14--12-14-12--|-12-----------------------17----15------|
F|-12--12--7--9----9----------------0--|--------------------------------|----------------------------------1412--|
C|-------------------------------------|--------------------------------|--------------------------------------14|
G|-10--10------------------------------|--------------------------------|----------------------------------------|
D|-------------------------------------|--------------------------------|----------------------------------------|


D|----------------------------------------------------------121314|-12-13-1412--12-121212------19----|
A|----------------------------------------------------121314------|-----------14---------0--0--------|
F|-14-121312--------------------------------12--121314------------|----------------------0-----------|
C|----------14--------------------------1214--14------------------|----------------------0-----------|
G|------------14121012--10----1312101214--------------------------|----------------------------------|
D|--------------------12--1012------------------------------------|----------------------------------|


D|-15-17-15--16--------------------------|---------------------------19--22--|-22--19-18-17-15-17-19-17-15-17-15-----------|
A|---------------17-15-17-21---21-17-21--|-21---21-21--17--20-----17---------|-----------------------------------17-21--17-|
F|---------------------------------------|---------------------18------------|---------------------------------------------|
C|---------------------------------------|-----------------------------------|---------------------------------------------|
G|---------------------------------------|-----------------------------------|---------------------------------------------|
D|---------------------------------------|-----------------------------------|---------------------------------------------|


D|------12----------------------------------0--0--|----15---------------1216--12-15----1216--12-15-|
A|----12--15------14-12---------------------0--0--|-15----15-14-15--14------14------14-----14------|
F|-16-------1412--14-12-16--12----12--12-12-------|------------------------------------------------|
C|--------------14-------------14-----------------|------------------------------------------------|
G|------------------------------------------------|------------------------------------------------|
D|------------------------------------------------|------------------------------------------------|


D|--------------------|
A|-14-----------------|
F|--------------------|
C|--------------------|
G|--------------------|
D|--------------------|





Track 4: Overdrive Guitar

E|--------|--------|--------|--------|--------|--------|--------|--------|--------|
B|--------|--------|--------|--------|--------|--------|--------|--------|--------|
G|--------|--------|--------|--------|--------|--------|--------|--------|--------|
D|--------|--------|--------|--------|--------|--------|--------|--------|--------|
A|--------|--------|--------|--------|--------|--------|--------|--------|--------|
E|--------|--------|--------|--------|--------|--------|--------|--------|--------|


E|--------|--------|--------|--------|------------------------------|--------------------------------|
B|--------|--------|--------|--------|-9----9----9--7---9---9---8---|-8---8---8----8---8---8---8--7--|
G|--------|--------|--------|--------|-9----9----9--9---9---9---6---|-6---6---6----6---6---6---6--7--|
D|--------|--------|--------|--------|-9----9----9--9---9---9---8---|-8---8---8----8---8---8---8--7--|
A|--------|--------|--------|--------|-7----7----7--9---7---7---7---|-7---7---7----7---7---7---7--7--|
E|--------|--------|--------|--------|------------------------------|--------------------------------|


E|------------------------------|------------------------------|------------------------------|
B|-7----7----7--7---7---7---9---|-9---9---9----9--5----7----9--|-9----9----9--7---9---9---8---|
G|-7----7----7--7---7---7---9---|-9---9---9----9--5----7----9--|-9----9----9--9---9---9---6---|
D|-7----7----7--7---7---7---9---|-9---9---9----9--5----7----9--|-9----9----9--9---9---9---8---|
A|-7----7----7--7---7---7---7---|-7---7---7----7--3----5----7--|-7----7----7--9---7---7---7---|
E|------------------------------|------------------------------|------------------------------|


E|---------------------------------------|--------------------------------|-----------------------|
B|-8---8---8---8--8--8--8--8---8---8--8--|-7----7----7--7--7--7---7---9---|-9---9---9-------------|
G|-6---6---6---6--6--6--6--6---6---6--6--|-7----7----7--7--7--7---7---9---|-9---9---9-------------|
D|-8---8---8---8--8--8--8--8---8---8--8--|-7----7----7--7--7--7---7---9---|-9---9---9-------------|
A|-7---7---7---7--7--7--7--7---7---7--7--|-7----7----7--7--7--7---7---7---|-7---7---7-------------|
E|---------------------------------------|--------------------------------|-----------------------|


E|--------|--------|--------|--------|--------|--------|--------|--------|------------------------------|
B|--------|--------|--------|--------|--------|--------|--------|--------|-9----9----9--7---9---9---8---|
G|--------|--------|--------|--------|--------|--------|--------|--------|-9----9----9--9---9---9---6---|
D|--------|--------|--------|--------|--------|--------|--------|--------|-9----9----9--9---9---9---8---|
A|--------|--------|--------|--------|--------|--------|--------|--------|-7----7----7--9---7---7---7---|
E|--------|--------|--------|--------|--------|--------|--------|--------|------------------------------|


E|--------------------------------|------------------------------|------------------------------|
B|-8---8---8----8---8---8---8--7--|-7----7----7--7---7---7---9---|-9---9---9----9--5----7----9--|
G|-6---6---6----6---6---6---6--7--|-7----7----7--7---7---7---9---|-9---9---9----9--5----7----9--|
D|-8---8---8----8---8---8---8--7--|-7----7----7--7---7---7---9---|-9---9---9----9--5----7----9--|
A|-7---7---7----7---7---7---7--7--|-7----7----7--7---7---7---7---|-7---7---7----7--3----5----7--|
E|--------------------------------|------------------------------|------------------------------|


E|------------------------------|---------------------------------------|--------------------------------|
B|-9----9----9--7---9---9---8---|-8---8---8---8--8--8--8--8---8---8--8--|-7----7----7--7--7--7---7---9---|
G|-9----9----9--9---9---9---6---|-6---6---6---6--6--6--6--6---6---6--6--|-7----7----7--7--7--7---7---9---|
D|-9----9----9--9---9---9---8---|-8---8---8---8--8--8--8--8---8---8--8--|-7----7----7--7--7--7---7---9---|
A|-7----7----7--9---7---7---7---|-7---7---7---7--7--7--7--7---7---7--7--|-7----7----7--7--7--7---7---7---|
E|------------------------------|---------------------------------------|--------------------------------|


E|-----------------------|--------|--------|--------|--------|--------|--------|--------|
B|-9---9---9-------------|--------|--------|--------|--------|--------|--------|--------|
G|-9---9---9-------------|--------|--------|--------|--------|--------|--------|--------|
D|-9---9---9-------------|--------|--------|--------|--------|--------|--------|--------|
A|-7---7---7-------------|--------|--------|--------|--------|--------|--------|--------|
E|-----------------------|--------|--------|--------|--------|--------|--------|--------|


E|--------|--------|--------|--------|--------|--------|--------|--------|------------------------------|
B|--------|--------|--------|--------|--------|--------|--------|--------|-9----9----9--7---9---9---8---|
G|--------|--------|--------|--------|--------|--------|--------|--------|-9----9----9--9---9---9---6---|
D|--------|--------|--------|--------|--------|--------|--------|--------|-9----9----9--9---9---9---8---|
A|--------|--------|--------|--------|--------|--------|--------|--------|-7----7----7--9---7---7---7---|
E|--------|--------|--------|--------|--------|--------|--------|--------|------------------------------|


E|--------------------------------|------------------------------|------------------------------|
B|-8---8---8----8---8---8---8--7--|-7----7----7--7---7---7---9---|-9---9---9----9--5----7----9--|
G|-6---6---6----6---6---6---6--7--|-7----7----7--7---7---7---9---|-9---9---9----9--5----7----9--|
D|-8---8---8----8---8---8---8--7--|-7----7----7--7---7---7---9---|-9---9---9----9--5----7----9--|
A|-7---7---7----7---7---7---7--7--|-7----7----7--7---7---7---7---|-7---7---7----7--3----5----7--|
E|--------------------------------|------------------------------|------------------------------|


E|------------------------------|---------------------------------------|------------------------------|
B|-9----9----9--7---9---9---8---|-8---8---8---8--8--8--8--8---8---8--8--|-7----7----7--7---7---7---9---|
G|-9----9----9--9---9---9---6---|-6---6---6---6--6--6--6--6---6---6--6--|-7----7----7--7---7---7---9---|
D|-9----9----9--9---9---9---8---|-8---8---8---8--8--8--8--8---8---8--8--|-7----7----7--7---7---7---9---|
A|-7----7----7--9---7---7---7---|-7---7---7---7--7--7--7--7---7---7--7--|-7----7----7--7---7---7---7---|
E|------------------------------|---------------------------------------|------------------------------|


E|------------------------------|--------|--------|--------|--------|--------|--------|
B|-9---9---9----9--5----7----9--|--------|--------|--------|--------|--------|--------|
G|-9---9---9----9--5----7----9--|--------|--------|--------|--------|--------|--------|
D|-9---9---9----9--5----7----9--|--------|--------|--------|--------|--------|--------|
A|-7---7---7----7--3----5----7--|--------|--------|--------|--------|--------|--------|
E|------------------------------|--------|--------|--------|--------|--------|--------|


E|--------|--------|--------|--------|--------|--------|--------|--------|--------|
B|--------|--------|--------|--------|--------|--------|--------|--------|--------|
G|--------|--------|--------|--------|--------|--------|--------|--------|--------|
D|--------|--------|--------|--------|--------|--------|--------|--------|--------|
A|--------|--------|--------|--------|--------|--------|--------|--------|--------|
E|--------|--------|--------|--------|--------|--------|--------|--------|--------|


E|--------|--------|--------|--------|--------|--------|--------|--------|--------|
B|--------|--------|--------|--------|--------|--------|--------|--------|--------|
G|--------|--------|--------|--------|--------|--------|--------|--------|--------|
D|--------|--------|--------|--------|--------|--------|--------|--------|--------|
A|--------|--------|--------|--------|--------|--------|--------|--------|--------|
E|--------|--------|--------|--------|--------|--------|--------|--------|--------|


E|--------|--------|--------|--------|
B|--------|--------|--------|--------|
G|--------|--------|--------|--------|
D|--------|--------|--------|--------|
A|--------|--------|--------|--------|
E|--------|--------|--------|--------|





Track 5: Clean Electric

D|--------|--------|--------|--------|--------|--------|--------|--------|--------|
A|--------|--------|--------|--------|--------|--------|--------|--------|--------|
F|--------|--------|--------|--------|--------|--------|--------|--------|--------|
C|--------|--------|--------|--------|--------|--------|--------|--------|--------|
G|--------|--------|--------|--------|--------|--------|--------|--------|--------|
D|--------|--------|--------|--------|--------|--------|--------|--------|--------|


D|--------|--------|--------|--------|--------|--------|--------|--------|--------|
A|--------|--------|--------|--------|--------|--------|--------|--------|--------|
F|--------|--------|--------|--------|--------|--------|--------|--------|--------|
C|--------|--------|--------|--------|--------|--------|--------|--------|--------|
G|--------|--------|--------|--------|--------|--------|--------|--------|--------|
D|--------|--------|--------|--------|--------|--------|--------|--------|--------|


D|--------|--------|--------|--------|--------|--------|--------|--------|--------|
A|--------|--------|--------|--------|--------|--------|--------|--------|--------|
F|--------|--------|--------|--------|--------|--------|--------|--------|--------|
C|--------|--------|--------|--------|--------|--------|--------|--------|--------|
G|--------|--------|--------|--------|--------|--------|--------|--------|--------|
D|--------|--------|--------|--------|--------|--------|--------|--------|--------|


D|--------|--------|--------|--------|--------|--------|--------|--------|--------|
A|--------|--------|--------|--------|--------|--------|--------|--------|--------|
F|--------|--------|--------|--------|--------|--------|--------|--------|--------|
C|--------|--------|--------|--------|--------|--------|--------|--------|--------|
G|--------|--------|--------|--------|--------|--------|--------|--------|--------|
D|--------|--------|--------|--------|--------|--------|--------|--------|--------|


D|--------|--------|--------|--------|---------------------------9---9-----|-------------------------------9---9-----|
A|--------|--------|--------|--------|-----------7---------------8---8-----|-------------7-----------------8---8-----|
F|--------|--------|--------|--------|-7--9--9-------9-------7-------------|-------9--9------9---------7-------------|
C|--------|--------|--------|--------|-7--9--9-----------9--------------8--|-8--9--9--9---------9--9--------------8--|
G|--------|--------|--------|--------|-5--7--7-----------------------------|-------7--7------------------------------|
D|--------|--------|--------|--------|----------------------------------0--|--------------------------------------0--|


D|-------------------------------9---9-----|--------------------------9--9--9--9--9--9--9--|
A|-------------7-----------------8---8-----|-------------7------------8--8--8--8--8--8--8--|
F|-------9--9------9---------7-------------|-------9--9------9-----------------------------|
C|-8--9--9--9---------9--9--------------8--|-8--9--9--9------9--9--------------------------|
G|-------7--7------------------------------|-------7--7------7-----7-----------------------|
D|--------------------------------------0--|-----------------------------------------------|


D|-------------------------------9---------|-------------------------------9---9-----|
A|-------------7-----------------8---------|-------------7-----------------8---8-----|
F|-------9--9------9---------7-------------|-------9--9------9---------7-------------|
C|-8--9--9--9---------9--9-----------9--8--|-8--9--9--9---------9--9--------------8--|
G|-------7--7------------------------7-----|-------7--7------------------------------|
D|--------------------------------------0--|-0------------------------------------0--|


D|-------------------------------9---------|--------------------------|--------|--------|
A|-------------7-----------------8---------|--------------------------|--------|--------|
F|-------9--9------9---------7-------------|-------9-----9----9-------|--------|--------|
C|-8--9--9--9---------9--9--------------8--|-8--9--9-----9----9-------|--------|--------|
G|-------7--7------------------------7-----|-------7-----7----7-------|--------|--------|
D|-0---------------------------------------|-0------------------------|--------|--------|


D|--------|--------|--------|--------|--------|--------|--------|--------|--------|
A|--------|--------|--------|--------|--------|--------|--------|--------|--------|
F|--------|--------|--------|--------|--------|--------|--------|--------|--------|
C|--------|--------|--------|--------|--------|--------|--------|--------|--------|
G|--------|--------|--------|--------|--------|--------|--------|--------|--------|
D|--------|--------|--------|--------|--------|--------|--------|--------|--------|


D|--------|--------|--------|--------|--------|--------|--------|--------|--------|
A|--------|--------|--------|--------|--------|--------|--------|--------|--------|
F|--------|--------|--------|--------|--------|--------|--------|--------|--------|
C|--------|--------|--------|--------|--------|--------|--------|--------|--------|
G|--------|--------|--------|--------|--------|--------|--------|--------|--------|
D|--------|--------|--------|--------|--------|--------|--------|--------|--------|


D|--------|--------|--------|--------|--------|--------|--------|--------|--------|
A|--------|--------|--------|--------|--------|--------|--------|--------|--------|
F|--------|--------|--------|--------|--------|--------|--------|--------|--------|
C|--------|--------|--------|--------|--------|--------|--------|--------|--------|
G|--------|--------|--------|--------|--------|--------|--------|--------|--------|
D|--------|--------|--------|--------|--------|--------|--------|--------|--------|


D|--------|--------|--------|--------|--------|--------|--------|--------|--------|
A|--------|--------|--------|--------|--------|--------|--------|--------|--------|
F|--------|--------|--------|--------|--------|--------|--------|--------|--------|
C|--------|--------|--------|--------|--------|--------|--------|--------|--------|
G|--------|--------|--------|--------|--------|--------|--------|--------|--------|
D|--------|--------|--------|--------|--------|--------|--------|--------|--------|


D|--------|--------|
A|--------|--------|
F|--------|--------|
C|--------|--------|
G|--------|--------|
D|--------|--------|





Track 6: Distortion Guitar 1

D|--------|--------|--------|--------|--------|--------|--------|--------|--------|
A|--------|--------|--------|--------|--------|--------|--------|--------|--------|
F|--------|--------|--------|--------|--------|--------|--------|--------|--------|
C|--------|--------|--------|--------|--------|--------|--------|--------|--------|
G|--------|--------|--------|--------|--------|--------|--------|--------|--------|
D|--------|--------|--------|--------|--------|--------|--------|--------|--------|


D|--------|--------|--------|--------|--------|--------|--------|--------|--------|
A|--------|--------|--------|--------|--------|--------|--------|--------|--------|
F|--------|--------|--------|--------|--------|--------|--------|--------|--------|
C|--------|--------|--------|--------|--------|--------|--------|--------|--------|
G|--------|--------|--------|--------|--------|--------|--------|--------|--------|
D|--------|--------|--------|--------|--------|--------|--------|--------|--------|


D|--------|--------|--------|--------|--------|--------|--------|--------|--------|
A|--------|--------|--------|--------|--------|--------|--------|--------|--------|
F|--------|--------|--------|--------|--------|--------|--------|--------|--------|
C|--------|--------|--------|--------|--------|--------|--------|--------|--------|
G|--------|--------|--------|--------|--------|--------|--------|--------|--------|
D|--------|--------|--------|--------|--------|--------|--------|--------|--------|


D|--------|--------|--------|--------|--------|--------|--------|--------|--------|
A|--------|--------|--------|--------|--------|--------|--------|--------|--------|
F|--------|--------|--------|--------|--------|--------|--------|--------|--------|
C|--------|--------|--------|--------|--------|--------|--------|--------|--------|
G|--------|--------|--------|--------|--------|--------|--------|--------|--------|
D|--------|--------|--------|--------|--------|--------|--------|--------|--------|


D|--------|--------|--------|--------|--------|--------|--------|--------|--------|
A|--------|--------|--------|--------|--------|--------|--------|--------|--------|
F|--------|--------|--------|--------|--------|--------|--------|--------|--------|
C|--------|--------|--------|--------|--------|--------|--------|--------|--------|
G|--------|--------|--------|--------|--------|--------|--------|--------|--------|
D|--------|--------|--------|--------|--------|--------|--------|--------|--------|


D|--------|--------|--------|--------------------------------------|--------------------------------------|
A|--------|--------|--------|--------------------------------------|--------------------------------------|
F|--------|--------|--------|--------------------------------------|--------------------------------------|
C|--------|--------|--------|-----2-----2---------2-----2----------|-----2-----2---------2-----2----------|
G|--------|--------|--------|-----2--4-----5------2--4-----4--5----|-----2--4-----5------2--4-----4--5----|
D|--------|--------|--------|--------------------------------------|--------------------------------------|


D|--------------------------------------|-------------------------------|--------|
A|--------------------------------------|-------------------------------|--------|
F|--------------------------------------|-------------------------------|--------|
C|-----2-----2---------2-----2----------|-----2-----2-------------------|--------|
G|-----2--4-----5------2--4-----4--5----|-----2--4-----4--4----5--------|--------|
D|--------------------------------------|-------------------------------|--------|


D|--------|--------|--------|--------|--------|--------|--------|--------|--------|
A|--------|--------|--------|--------|--------|--------|--------|--------|--------|
F|--------|--------|--------|--------|--------|--------|--------|--------|--------|
C|--------|--------|--------|--------|--------|--------|--------|--------|--------|
G|--------|--------|--------|--------|--------|--------|--------|--------|--------|
D|--------|--------|--------|--------|--------|--------|--------|--------|--------|


D|--------|--------|--------|--------|--------|--------|--------|--------|--------|
A|--------|--------|--------|--------|--------|--------|--------|--------|--------|
F|--------|--------|--------|--------|--------|--------|--------|--------|--------|
C|--------|--------|--------|--------|--------|--------|--------|--------|--------|
G|--------|--------|--------|--------|--------|--------|--------|--------|--------|
D|--------|--------|--------|--------|--------|--------|--------|--------|--------|


D|--------|--------|--------|--------|--------|--------|--------|--------|--------|
A|--------|--------|--------|--------|--------|--------|--------|--------|--------|
F|--------|--------|--------|--------|--------|--------|--------|--------|--------|
C|--------|--------|--------|--------|--------|--------|--------|--------|--------|
G|--------|--------|--------|--------|--------|--------|--------|--------|--------|
D|--------|--------|--------|--------|--------|--------|--------|--------|--------|


D|--------|--------|--------|--------|--------|--------|--------|--------|
A|--------|--------|--------|--------|--------|--------|--------|--------|
F|--------|--------|--------|--------|--------|--------|--------|--------|
C|--------|--------|--------|--------|--------|--------|--------|--------|
G|--------|--------|--------|--------|--------|--------|--------|--------|
D|--------|--------|--------|--------|--------|--------|--------|--------|





Track 7: Untitled

G|--------|--------|--------|--------|--------|--------|--------|--------|--------|
D|--------|--------|--------|--------|--------|--------|--------|--------|--------|
A|--------|--------|--------|--------|--------|--------|--------|--------|--------|
E|--------|--------|--------|--------|--------|--------|--------|--------|--------|


G|--------|--------|--------|--------|--------|--------|--------|--------|--------|
D|--------|--------|--------|--------|--------|--------|--------|--------|--------|
A|--------|--------|--------|--------|--------|--------|--------|--------|--------|
E|--------|--------|--------|--------|--------|--------|--------|--------|--------|


G|--------|--------|--------|--------|--------|--------|--------|--------|--------|
D|--------|--------|--------|--------|--------|--------|--------|--------|--------|
A|--------|--------|--------|--------|--------|--------|--------|--------|--------|
E|--------|--------|--------|--------|--------|--------|--------|--------|--------|


G|--------|--------|--------|--------|--------|--------|--------|--------|--------|
D|--------|--------|--------|--------|--------|--------|--------|--------|--------|
A|--------|--------|--------|--------|--------|--------|--------|--------|--------|
E|--------|--------|--------|--------|--------|--------|--------|--------|--------|


G|--------|--------|--------|--------|--------|--------|--------|--------|--------|
D|--------|--------|--------|--------|--------|--------|--------|--------|--------|
A|--------|--------|--------|--------|--------|--------|--------|--------|--------|
E|--------|--------|--------|--------|--------|--------|--------|--------|--------|


G|--------|--------|--------|--------|--------|--------|--------|--------|--------|
D|--------|--------|--------|--------|--------|--------|--------|--------|--------|
A|--------|--------|--------|--------|--------|--------|--------|--------|--------|
E|--------|--------|--------|--------|--------|--------|--------|--------|--------|


G|--------|--------|--------|--------|--------|--------|--------|--------|--------|
D|--------|--------|--------|--------|--------|--------|--------|--------|--------|
A|--------|--------|--------|--------|--------|--------|--------|--------|--------|
E|--------|--------|--------|--------|--------|--------|--------|--------|--------|


G|--------|--------|--------|--------|--------|--------|--------|--------|--------|
D|--------|--------|--------|--------|--------|--------|--------|--------|--------|
A|--------|--------|--------|--------|--------|--------|--------|--------|--------|
E|--------|--------|--------|--------|--------|--------|--------|--------|--------|


G|--------|--------|--------|--------|--------|--------|--------|--------|--------|
D|--------|--------|--------|--------|--------|--------|--------|--------|--------|
A|--------|--------|--------|--------|--------|--------|--------|--------|--------|
E|--------|--------|--------|--------|--------|--------|--------|--------|--------|


G|--------|--------|--------|--------|--------|--------|--------|
D|--------|--------|--------|--------|--------|--------|--------|
A|--------|--------|--------|--------|--------|--------|--------|
E|--------|--------|--------|--------|--------|--------|--------|