Menu:

 

Search:

 

stone temple pilots - plush:

 



Title: Plush
Artist: 
Album: Core
Author: Rob Deleo and Scott Weiland


Track 1: Gtr.I

E|-3---3-------3---3-----|-3---3-------3---3----3--3--3---|-3---3-------3---3-----|
B|-3---3-------2---2-----|-1---1-------0---0----0--1--2---|-3---3-------2---2-----|
G|-0---0-------3---3-----|-2---2-------0---0----0--0--0---|-0---0-------3---3-----|
D|-----------------------|--------------------------------|-----------------------|
A|-----------------------|--------------------------------|-----------------------|
E|-----------------------|--------------------------------|-----------------------|


E|-3---3-------3---3----3--3--3---|-3---3-------3---3-----|-3---3-------3---3----3--3--3---|
B|-1---1-------0---0----0--1--2---|-3---3-------2---2-----|-1---1-------0---0----0--1--2---|
G|-2---2-------0---0----0--0--0---|-0---0-------3---3-----|-2---2-------0---0----0--0--0---|
D|--------------------------------|-----------------------|--------------------------------|
A|--------------------------------|-----------------------|--------------------------------|
E|--------------------------------|-----------------------|--------------------------------|


E|-3---3-------3---3-----|-3---3-------3---3-----|-------3---3---3--3--3--2--|-2---2---3--3--3--1--1---1---3--3--3--0--|
B|-3---3-------2---2-----|-1---1-------0---0-----|-------3---3---3--3--3--3--|-3---3---3--3--3--1--1---1---3--3--3--1--|
G|-0---0-------3---3-----|-2---2-------0---0-----|-------0---0---0--0--0--2--|-2---2---0--0--0--2--2---2---0--0--0--0--|
D|-----------------------|-------------0---0-----|-------0---0---5--5--5--0--|-0---0---5--5--5--3--3---3---5--5--5--2--|
A|-----------------------|-----------------------|---------------5--5--5-----|---------5--5--5--3--3---3---5--5--5--3--|
E|-----------------------|-----------------------|-------3---3---3--3--3--2--|-2---2---3--3--3--1--1---1---3--3--3--0--|


E|-0---0---3--3--3--3--3---3---3--3--3--3--|-3---3---------------3---3---3--3--3--2--|
B|-1---1---3--3--3--3--3---3---3--3--3--3--|-3---3---------------3---3---3--3--3--3--|
G|-0---0---0--0--0--3--3---3---0--0--0--3--|-3---3---------------0---0---0--0--0--2--|
D|-2---2---5--5--5--1--1---1---5--5--5--1--|-1---1---3--3--3--3--0---0---5--5--5--0--|
A|-3---3---5--5--5--1--1---1---5--5--5--1--|-1---1---3--3--3--3----------5--5--5-----|
E|-0---0---3--3--3-------------3--3--3-----|---------1--1--1--1--3---3---3--3--3--2--|


E|-2---2---3--3--3--1--1---1---3--3--3--0--|-0---0---3--3--3--3--3---3---3--3--3--3--|
B|-3---3---3--3--3--1--1---1---3--3--3--1--|-1---1---3--3--3--3--3---3---3--3--3--3--|
G|-2---2---0--0--0--2--2---2---0--0--0--0--|-0---0---0--0--0--3--3---3---0--0--0--3--|
D|-0---0---5--5--5--3--3---3---5--5--5--2--|-2---2---5--5--5--1--1---1---5--5--5--1--|
A|---------5--5--5--3--3---3---5--5--5--3--|-3---3---5--5--5--1--1---1---5--5--5--1--|
E|-2---2---3--3--3--1--1---1---3--3--3--0--|-0---0---3--3--3-------------3--3--3-----|


E|-3---3----------------------------------3--|-3---0---0------------------------------3--|
B|-3---3---------------3------3-----3-----3--|-3---3---3--3--3-----3------3-----3-----3--|
G|-3---3---------------2------------------0--|-0---0---0--0--0--2--2------------------0--|
D|-1---1---3--3--3--3--0---0-----------------|---------------------0---0-----------------|
A|-1---1---3--3--3--3------------3-----3--2--|-2---3---3-----------0---------3-----3--2--|
E|---------1--1--1--1------------------------|-------------------------------------------|


E|-3---0---0------------------------------3--|-3---0---0------------------------------3--|
B|-3---3---3--3--3-----3------3-----3-----3--|-3---3---3--3--3-----3------3-----3-----3--|
G|-0---0---0--0--0--2--2------------------0--|-0---0---0--0--0--2--2------------------0--|
D|---------------------0---0-----------------|---------------------0---0-----------------|
A|-2---3---3---------------------3-----3--2--|-2---3---3-----------0---------3-----3--2--|
E|-------------------------------------------|-------------------------------------------|


E|-3---0---0-----------3---3---3--3--3--3--|-3---3---3--3--3--1--1---1---3--3--3--1--|
B|-3---3---3--3--3-----3---3---3--3--3--3--|-3---3---3--3--3--1--1---1---3--3--3--1--|
G|-0---0---0--0--0--2--3---3---0--0--0--3--|-3---3---0--0--0--2--2---2---0--0--0--2--|
D|---------------------1---1---5--5--5--1--|-1---1---5--5--5--3--3---3---5--5--5--3--|
A|-2---3---3-----------1---1---5--5--5--1--|-1---1---5--5--5--3--3---3---5--5--5--3--|
E|-----------------------------3--3--3-----|---------3--3--3--1--1---1---3--3--3--1--|


E|-1---1---3--3--3--3--3---3---3--3--3--3--|-3---3---3--3--3--1--1---1---3--3--3--1--|
B|-1---1---3--3--3--3--3---3---3--3--3--3--|-3---3---3--3--3--1--1---1---3--3--3--1--|
G|-2---2---0--0--0--3--3---3---0--0--0--3--|-3---3---0--0--0--2--2---2---0--0--0--2--|
D|-3---3---5--5--5--1--1---1---5--5--5--1--|-1---1---5--5--5--3--3---3---5--5--5--3--|
A|-3---3---5--5--5--1--1---1---5--5--5--1--|-1---1---5--5--5--3--3---3---5--5--5--3--|
E|-1---1---3--3--3-------------3--3--3-----|---------3--3--3--1--1---1---3--3--3--1--|


E|-1---3--3--3--1--1--1--3---3---3--3--3--3--|-3---3---3--3--3--1--1---1---3--3--3--1--|
B|-1---3--3--3--1--1--1--3---3---3--3--3--3--|-3---3---3--3--3--1--1---1---3--3--3--1--|
G|-2---0--0--0--2--2--2--3---3---0--0--0--3--|-3---3---0--0--0--2--2---2---0--0--0--2--|
D|-3---5--5--5--3--3--3--1---1---5--5--5--1--|-1---1---5--5--5--3--3---3---5--5--5--3--|
A|-3---5--5--5--3--3--3--1---1---5--5--5--1--|-1---1---5--5--5--3--3---3---5--5--5--3--|
E|-1---3--3--3--1--1--1----------3--3--3-----|---------3--3--3--1--1---1---3--3--3--1--|


E|-1---1---3--3--3--3--3---3---3--3--3--3--|-3---3---3--3--3--1--1---1---3--3--3--1--|
B|-1---1---3--3--3--3--3---3---3--3--3--3--|-3---3---3--3--3--1--1---1---3--3--3--1--|
G|-2---2---0--0--0--3--3---3---0--0--0--3--|-3---3---0--0--0--2--2---2---0--0--0--2--|
D|-3---3---5--5--5--1--1---1---5--5--5--1--|-1---1---5--5--5--3--3---3---5--5--5--3--|
A|-3---3---5--5--5--1--1---1---5--5--5--1--|-1---1---5--5--5--3--3---3---5--5--5--3--|
E|-1---1---3--3--3-------------3--3--3-----|---------3--3--3--1--1---1---3--3--3--1--|


E|-1---1---1--1--1--1--3---3-------3---|-3-----3---3-------3---|-3----3--3--3---3---3-------3---|
B|-1---1---1--1--1--1--3---3-------2---|-2-----1---1-------0---|-0----0--1--2---3---3-------2---|
G|-2---2---2--2--2--2--0---0-------3---|-3-----2---2-------0---|-0----0--0--0---0---0-------3---|
D|-3---3---3--3--3--3------------------|-----------------------|--------------------------------|
A|-3---3---3--3--3--3------------------|-----------------------|--------------------------------|
E|-1---1---1--1--1--1------------------|-----------------------|--------------------------------|


E|-3-----3---3-------3---|-3------|-3---3---3--3--3--2--2---2---3--3--3--1--|-1---1---3--3--3--0--0---0---3--3--3--3--|
B|-2-----1---1-------0---|-0------|-3---3---3--3--3--3--3---3---3--3--3--1--|-1---1---3--3--3--1--1---1---3--3--3--3--|
G|-3-----2---2-------0---|-0------|-0---0---0--0--0--2--2---2---0--0--0--2--|-2---2---0--0--0--0--0---0---0--0--0--3--|
D|-------------------0---|-0------|-0---0---5--5--5--0--0---0---5--5--5--3--|-3---3---5--5--5--2--2---2---5--5--5--1--|
A|-----------------------|--------|---------5--5--5-------------5--5--5--3--|-3---3---5--5--5--3--3---3---5--5--5--1--|
E|-----------------------|--------|-3---3---3--3--3--2--2---2---3--3--3--1--|-1---1---3--3--3--0--0---0---3--3--3-----|


E|-3---3---3--3--3--3--3---3---------------|-3---3---3--3--3--2--2---2---3--3--3--1--|
B|-3---3---3--3--3--3--3---3---------------|-3---3---3--3--3--3--3---3---3--3--3--1--|
G|-3---3---0--0--0--3--3---3---------------|-0---0---0--0--0--2--2---2---0--0--0--2--|
D|-1---1---5--5--5--1--1---1---3--3--3--3--|-0---0---5--5--5--0--0---0---5--5--5--3--|
A|-1---1---5--5--5--1--1---1---3--3--3--3--|---------5--5--5-------------5--5--5--3--|
E|---------3--3--3-------------1--1--1--1--|-3---3---3--3--3--2--2---2---3--3--3--1--|


E|-1---1---3--3--3--0--0---0---3--3--3--3--|-3---3---3--3--3--3--3---3---------------|
B|-1---1---3--3--3--1--1---1---3--3--3--3--|-3---3---3--3--3--3--3---3---------------|
G|-2---2---0--0--0--0--0---0---0--0--0--3--|-3---3---0--0--0--3--3---3---------------|
D|-3---3---5--5--5--2--2---2---5--5--5--1--|-1---1---5--5--5--1--1---1---3--3--3--3--|
A|-3---3---5--5--5--3--3---3---5--5--5--1--|-1---1---5--5--5--1--1---1---3--3--3--3--|
E|-1---1---3--3--3--0--0---0---3--3--3-----|---------3--3--3-------------1--1--1--1--|


E|--------------------3--3---0---0-----------|--------------------3--3---0---0-----------|
B|-3------3-----3-----3--3---3---3--3--3-----|-3------3-----3-----3--3---3---3--3--3-----|
G|-2------------------0--0---0---0--0--0--2--|-2------------------0--0---0---0--0--0--2--|
D|-0---0-------------------------------------|-0---0-------------------------------------|
A|-----------3-----3--2--2---3---3-----------|-0---------3-----3--2--2---3---3-----------|
E|-------------------------------------------|-------------------------------------------|


E|--------------------3--3---0---0-----------|--------------------3--3---0---0-----------|
B|-3------3-----3-----3--3---3---3--3--3-----|-3------3-----3-----3--3---3---3--3--3-----|
G|-2------------------0--0---0---0--0--0--2--|-2------------------0--0---0---0--0--0--2--|
D|-0---0-------------------------------------|-0---0-------------------------------------|
A|-----------3-----3--2--2---3---3-----------|-0---------3-----3--2--2---3---3-----------|
E|-------------------------------------------|-------------------------------------------|


E|-3---3---3--3--3--3--3---3---3--3--3--1--|-1---1---3--3--3--1--1---1---3--3--3--3--|
B|-3---3---3--3--3--3--3---3---3--3--3--1--|-1---1---3--3--3--1--1---1---3--3--3--3--|
G|-3---3---0--0--0--3--3---3---0--0--0--2--|-2---2---0--0--0--2--2---2---0--0--0--3--|
D|-1---1---5--5--5--1--1---1---5--5--5--3--|-3---3---5--5--5--3--3---3---5--5--5--1--|
A|-1---1---5--5--5--1--1---1---5--5--5--3--|-3---3---5--5--5--3--3---3---5--5--5--1--|
E|---------3--3--3-------------3--3--3--1--|-1---1---3--3--3--1--1---1---3--3--3-----|


E|-3---3---3--3--3--3--3---3---3--3--3--1--|-1---1---3--3--3--1--1---3--3--3--1--1--1--|
B|-3---3---3--3--3--3--3---3---3--3--3--1--|-1---1---3--3--3--1--1---3--3--3--1--1--1--|
G|-3---3---0--0--0--3--3---3---0--0--0--2--|-2---2---0--0--0--2--2---0--0--0--2--2--2--|
D|-1---1---5--5--5--1--1---1---5--5--5--3--|-3---3---5--5--5--3--3---5--5--5--3--3--3--|
A|-1---1---5--5--5--1--1---1---5--5--5--3--|-3---3---5--5--5--3--3---5--5--5--3--3--3--|
E|---------3--3--3-------------3--3--3--1--|-1---1---3--3--3--1--1---3--3--3--1--1--1--|


E|-3---3---3--3--3--3--3---3---3--3--3--1--|-1---1---3--3--3--1--1---1---3--3--3--3--|
B|-3---3---3--3--3--3--3---3---3--3--3--1--|-1---1---3--3--3--1--1---1---3--3--3--3--|
G|-3---3---0--0--0--3--3---3---0--0--0--2--|-2---2---0--0--0--2--2---2---0--0--0--3--|
D|-1---1---5--5--5--1--1---1---5--5--5--3--|-3---3---5--5--5--3--3---3---5--5--5--1--|
A|-1---1---5--5--5--1--1---1---5--5--5--3--|-3---3---5--5--5--3--3---3---5--5--5--1--|
E|---------3--3--3-------------3--3--3--1--|-1---1---3--3--3--1--1---1---3--3--3-----|


E|-3---3---3--3--3--3--3---3---3--3--3--1--|-1---1---1----1--1--1--1---1--1--1--1--|
B|-3---3---3--3--3--3--3---3---3--3--3--1--|-1---1---1----1--1--1--1---1--1--1--1--|
G|-3---3---0--0--0--3--3---3---0--0--0--2--|-2---2---2----2--2--2--2---2--2--2--2--|
D|-1---1---5--5--5--1--1---1---5--5--5--3--|-3---3---3----3--3--3--3---3--3--3--3--|
A|-1---1---5--5--5--1--1---1---5--5--5--3--|-3---3---3----3--3--3--3---3--3--3--3--|
E|---------3--3--3-------------3--3--3--1--|-1---1---1----1--1--1--1---1--1--1--1--|


E|--------|--------|--------|--------|--------|--------|--------|--------|-3---3-------3---3-----|
B|--------|--------|--------|--------|--------|--------|--------|--------|-3---3-------2---2-----|
G|--------|--------|--------|--------|--------|--------|--------|--------|-0---0-------3---3-----|
D|--------|--------|--------|--------|--------|--------|--------|--------|-----------------------|
A|--------|--------|--------|--------|--------|--------|--------|--------|-----------------------|
E|--------|--------|--------|--------|--------|--------|--------|--------|-----------------------|


E|-3---3-------3---3----3--3--3---|-3---3-------3---3-----|-3---3-------3---3----3--3--3---|
B|-1---1-------0---0--------------|-3---3-------2---2-----|-1---1-------0---0--------------|
G|-2---2-------0---0----0--0--0---|-0---0-------3---3-----|-2---2-------0---0----0--0--0---|
D|--------------------------------|-----------------------|--------------------------------|
A|--------------------------------|-----------------------|--------------------------------|
E|--------------------------------|-----------------------|--------------------------------|


E|-3---3-------3---3-----|-3---3-------3---3----3--3--3---|-3---3-------3---3-----|
B|-3---3-------2---2-----|-1---1-------0---0--------------|-3---3-------2---2-----|
G|-0---0-------3---3-----|-2---2-------0---0----0--0--0---|-0---0-------3---3-----|
D|-----------------------|--------------------------------|-----------------------|
A|-----------------------|--------------------------------|-----------------------|
E|-----------------------|--------------------------------|-----------------------|


E|-3---3-------3---3-----|-------3---3---3--3--3--3--|-3---3---3--3--3--1--1---1---3--3--3--1--|
B|-1---1-------0---0-----|-------3---3---3--3--3--3--|-3---3---3--3--3--1--1---1---3--3--3--1--|
G|-2---2-------0---0-----|-------3---3---0--0--0--3--|-3---3---0--0--0--2--2---2---0--0--0--2--|
D|-------------0---0-----|-------1---1---5--5--5--1--|-1---1---5--5--5--3--3---3---5--5--5--3--|
A|-----------------------|-------1---1---5--5--5--1--|-1---1---5--5--5--3--3---3---5--5--5--3--|
E|-----------------------|---------------3--3--3-----|---------3--3--3--1--1---1---3--3--3--1--|


E|-1---1---3--3--3--3--3---3---3--3--3--3--|-3---3---3--3--3--1--1---1---3--3--3--1--|
B|-1---1---3--3--3--3--3---3---3--3--3--3--|-3---3---3--3--3--1--1---1---3--3--3--1--|
G|-2---2---0--0--0--3--3---3---0--0--0--3--|-3---3---0--0--0--2--2---2---0--0--0--2--|
D|-3---3---5--5--5--1--1---1---5--5--5--1--|-1---1---5--5--5--3--3---3---5--5--5--3--|
A|-3---3---5--5--5--1--1---1---5--5--5--1--|-1---1---5--5--5--3--3---3---5--5--5--3--|
E|-1---1---3--3--3-------------3--3--3-----|---------3--3--3--1--1---1---3--3--3--1--|


E|-1---3--3--3--1--1--1--3---3---3--3--3--3--|-3---3---3--3--3--1--1---1---3--3--3--1--|
B|-1---3--3--3--1--1--1--3---3---3--3--3--3--|-3---3---3--3--3--1--1---1---3--3--3--1--|
G|-2---0--0--0--2--2--2--3---3---0--0--0--3--|-3---3---0--0--0--2--2---2---0--0--0--2--|
D|-3---5--5--5--3--3--3--1---1---5--5--5--1--|-1---1---5--5--5--3--3---3---5--5--5--3--|
A|-3---5--5--5--3--3--3--1---1---5--5--5--1--|-1---1---5--5--5--3--3---3---5--5--5--3--|
E|-1---3--3--3--1--1--1----------3--3--3-----|---------3--3--3--1--1---1---3--3--3--1--|


E|-1---1---3--3--3--3--3---3---3--3--3--3--|-3---3---3--3--3--1--1---1---1----1--|
B|-1---1---3--3--3--3--3---3---3--3--3--3--|-3---3---3--3--3--1--1---1---1----1--|
G|-2---2---0--0--0--3--3---3---0--0--0--3--|-3---3---0--0--0--2--2---2---2----2--|
D|-3---3---5--5--5--1--1---1---5--5--5--1--|-1---1---5--5--5--3--3---3---3----3--|
A|-3---3---5--5--5--1--1---1---5--5--5--1--|-1---1---5--5--5--3--3---3---3----3--|
E|-1---1---3--3--3-------------3--3--3-----|---------3--3--3--1--1---1---1----1--|


E|-1--1--1---1--1--1--1--------|--------|--------|--------|--------|--------|--------|
B|-1--1--1---1--1--1--1--------|--------|--------|--------|--------|--------|--------|
G|-2--2--2---2--2--2--2--------|--------|--------|--------|--------|--------|--------|
D|-3--3--3---3--3--3--3--------|--------|--------|--------|--------|--------|--------|
A|-3--3--3---3--3--3--3--------|--------|--------|--------|--------|--------|--------|
E|-1--1--1---1--1--1--1--------|--------|--------|--------|--------|--------|--------|


E|--------|-------3---3-------3---|-3-----3---3-------3---|-3----3--3--3---3---3-------3---|
B|--------|-------3---3-------2---|-2-----1---1-------0---|-0----0--1--2---3---3-------2---|
G|--------|-------0---0-------3---|-3-----2---2-------0---|-0----0--0--0---0---0-------3---|
D|--------|-----------------------|-----------------------|--------------------------------|
A|--------|-----------------------|-----------------------|--------------------------------|
E|--------|-----------------------|-----------------------|--------------------------------|


E|-3-----3---3-------3---|-3----3--3--3---3---3-------3---|-3-----3---3-------3---|
B|-2-----1---1-------0---|-0----0--1--2---3---3-------2---|-2-----1---1-------0---|
G|-3-----2---2-------0---|-0----0--0--0---0---0-------3---|-3-----2---2-------0---|
D|-----------------------|--------------------------------|-----------------------|
A|-----------------------|--------------------------------|-----------------------|
E|-----------------------|--------------------------------|-----------------------|


E|-3----3--3--3---3---3-------3---|-3-----3---3-------3---|-3------|--------|--------|
B|-0----0--1--2---3---3-------2---|-2-----1---1-------0---|-0------|--------|--------|
G|-0----0--0--0---0---0-------3---|-3-----2---2-------0---|-0------|--------|--------|
D|--------------------------------|-------------------0---|-0------|--------|--------|
A|--------------------------------|-----------------------|--------|--------|--------|
E|--------------------------------|-----------------------|--------|--------|--------|


E|--------|--------|--------|
B|--------|--------|--------|
G|--------|--------|--------|
D|--------|--------|--------|
A|--------|--------|--------|
E|--------|--------|--------|





Track 2: Gtr.II

E|--------|--------|--------|--------|--------|--------|--------|--------|--------|
B|--------|--------|--------|--------|--------|--------|--------|--------|--------|
G|--------|--------|--------|--------|--------|--------|--------|--------|--------|
D|--------|--------|--------|--------|--------|--------|--------|--------|--------|
A|--------|--------|--------|--------|--------|--------|--------|--------|--------|
E|--------|--------|--------|--------|--------|--------|--------|--------|--------|


E|--------|--------|--------|--------|--------|--------|--------|--------|--------|
B|--------|--------|--------|--------|--------|--------|--------|--------|--------|
G|--------|--------|--------|--------|--------|--------|--------|--------|--------|
D|--------|--------|--------|--------|--------|--------|--------|--------|--------|
A|--------|--------|--------|--------|--------|--------|--------|--------|--------|
E|--------|--------|--------|--------|--------|--------|--------|--------|--------|


E|--------|--------|--------|--------|--------|--------|--------|--------|--------|
B|--------|--------|--------|--------|--------|--------|--------|--------|--------|
G|--------|--------|--------|--------|--------|--------|--------|--------|--------|
D|--------|--------|--------|--------|--------|--------|--------|--------|--------|
A|--------|--------|--------|--------|--------|--------|--------|--------|--------|
E|--------|--------|--------|--------|--------|--------|--------|--------|--------|


E|--------|--------|--------|--------|--------|--------|--------|--------|--------|
B|--------|--------|--------|--------|--------|--------|--------|--------|--------|
G|--------|--------|--------|--------|--------|--------|--------|--------|--------|
D|--------|--------|--------|--------|--------|--------|--------|--------|--------|
A|--------|--------|--------|--------|--------|--------|--------|--------|--------|
E|--------|--------|--------|--------|--------|--------|--------|--------|--------|


E|--------|--------|--------|--------|--------|--------|--------|--------|--------|
B|--------|--------|--------|--------|--------|--------|--------|--------|--------|
G|--------|--------|--------|--------|--------|--------|--------|--------|--------|
D|--------|--------|--------|--------|--------|--------|--------|--------|--------|
A|--------|--------|--------|--------|--------|--------|--------|--------|--------|
E|--------|--------|--------|--------|--------|--------|--------|--------|--------|


E|--------|--------|-3---3---3--3--3--3--3---3---3--3--3--1--|-1---1---1----1--1--1--1---1--1--1--1--|
B|--------|--------|-3---3---3--3--3--3--3---3---3--3--3--1--|-1---1---1----1--1--1--1---1--1--1--1--|
G|--------|--------|-3---3---0--0--0--3--3---3---0--0--0--2--|-2---2---2----2--2--2--2---2--2--2--2--|
D|--------|--------|-1---1---5--5--5--1--1---1---5--5--5--3--|-3---3---3----3--3--3--3---3--3--3--3--|
A|--------|--------|-1---1---5--5--5--1--1---1---5--5--5--3--|-3---3---3----3--3--3--3---3--3--3--3--|
E|--------|--------|---------3--3--3-------------3--3--3--1--|-1---1---1----1--1--1--1---1--1--1--1--|


E|--------|--------|--------|--------|-----------------------------------------------|
B|--------|--------|--------|--------|----------3--------------------3---------------|
G|--------|--------|--------|--------|-0--2--4-----4--2-----2-----4-----------4---4--|
D|--------|--------|--------|--------|-------------------5-----3--------3-----3---3--|
A|--------|--------|--------|--------|-----------------------------------------------|
E|--------|--------|--------|--------|-----------------------------------------------|


E|-------------------------------------------|---------------------------------------------|
B|-------1---1---------------1--3--3--1------|----------3------------------3---------------|
G|----0---------0---------0---------------2--|-0--2--3-----3------------3-----------3---3--|
D|-2---------------2---1---------------------|----------------5--5---3--------3-----3---3--|
A|-------------------------------------------|---------------------------------------------|
E|-------------------------------------------|---------------------------------------------|


E|---------------------------------|-3---3-------3---3-----|-3---3-------3---3--------------|
B|-------1---1--------1--3----1----|-3---3-------2---2-----|-1---1-------0---0----0--1--2---|
G|----0---------0--------3----2----|-0---0-------3---3-----|-2---2-------0---0----0---------|
D|-2---------------2---------------|-----------------------|--------------------------------|
A|---------------------------------|-----------------------|--------------------------------|
E|---------------------------------|-----------------------|--------------------------------|


E|-3---3-------3---3-----|-3---3-------3---3--------------|-3---3-------3---3-----|
B|-3---3-------2---2-----|-1---1-------0---0----0--1--2---|-3---3-------2---2-----|
G|-0---0-------3---3-----|-2---2-------0---0----0---------|-0---0-------3---3-----|
D|-----------------------|--------------------------------|-----------------------|
A|-----------------------|--------------------------------|-----------------------|
E|-----------------------|--------------------------------|-----------------------|


E|-3---3-------3---3--------------|-3---3-------3---3-----|-3---3-------3---3-----|
B|-1---1-------0---0----0--1--2---|-3---3-------2---2-----|-1---1-------0---0-----|
G|-2---2-------0---0----0---------|-0---0-------3---3-----|-2---2-------0---0-----|
D|--------------------------------|-----------------------|-------------0---0-----|
A|--------------------------------|-----------------------|-----------------------|
E|--------------------------------|-----------------------|-----------------------|


E|--------|--------|--------|--------|--------|--------|-------3---3---3--3--3--3--|
B|--------|--------|--------|--------|--------|--------|-------3---3---3--3--3--3--|
G|--------|--------|--------|--------|--------|--------|-------3---3---0--0--0--3--|
D|--------|--------|--------|--------|--------|--------|-------1---1---5--5--5--1--|
A|--------|--------|--------|--------|--------|--------|-------1---1---5--5--5--1--|
E|--------|--------|--------|--------|--------|--------|---------------3--3--3-----|


E|-3---3---3--3--3--1--1---1---1----1--|-1--1--1---1--1--1--1--------|--------|--------|
B|-3---3---3--3--3--1--1---1---1----1--|-1--1--1---1--1--1--1--------|--------|--------|
G|-3---3---0--0--0--2--2---2---2----2--|-2--2--2---2--2--2--2--------|--------|--------|
D|-1---1---5--5--5--3--3---3---3----3--|-3--3--3---3--3--3--3--------|--------|--------|
A|-1---1---5--5--5--3--3---3---3----3--|-3--3--3---3--3--3--3--------|--------|--------|
E|---------3--3--3--1--1---1---1----1--|-1--1--1---1--1--1--1--------|--------|--------|


E|--------|-------------------------------|-------------------------------------------|
B|--------|----------------3--------------|-------3---------------------1---1---------|
G|--------|-------0--2--4-----4--2-----2--|----4-----------4---4-----0---------0------|
D|--------|-------------------------5-----|-3--------3-----3---3--2---------------2---|
A|--------|-------------------------------|-------------------------------------------|
E|--------|-------------------------------|-------------------------------------------|


E|-----------------------------------------------|---------------------------------------------|
B|-------1--3--3--1---------------3--------------|-------3---------------------1---1--------1--|
G|----0---------------2--0--2--3-----3-----3-----|----3-----------3---3-----0---------0--------|
D|-1------------------------------------5-----5--|-3--------3-----3---3--2---------------2-----|
A|-----------------------------------------------|---------------------------------------------|
E|-----------------------------------------------|---------------------------------------------|


E|-----------------|--------|--------|--------|--------|--------|--------|--------|
B|-3----1----------|--------|--------|--------|--------|--------|--------|--------|
G|-3----2----------|--------|--------|--------|--------|--------|--------|--------|
D|-----------------|--------|--------|--------|--------|--------|--------|--------|
A|-----------------|--------|--------|--------|--------|--------|--------|--------|
E|-----------------|--------|--------|--------|--------|--------|--------|--------|


E|--------|--------|--------|--------|--------|--------|
B|--------|--------|--------|--------|--------|--------|
G|--------|--------|--------|--------|--------|--------|
D|--------|--------|--------|--------|--------|--------|
A|--------|--------|--------|--------|--------|--------|
E|--------|--------|--------|--------|--------|--------|





Track 3: Gtr.III

E|--------|--------|--------|--------|--------|--------|--------|--------|--------|
B|--------|--------|--------|--------|--------|--------|--------|--------|--------|
G|--------|--------|--------|--------|--------|--------|--------|--------|--------|
D|--------|--------|--------|--------|--------|--------|--------|--------|--------|
A|--------|--------|--------|--------|--------|--------|--------|--------|--------|
E|--------|--------|--------|--------|--------|--------|--------|--------|--------|


E|--------|--------|--------|--------|--------|--------|--------|--------|--------|
B|--------|--------|--------|--------|--------|--------|--------|--------|--------|
G|--------|--------|--------|--------|--------|--------|--------|--------|--------|
D|--------|--------|--------|--------|--------|--------|--------|--------|--------|
A|--------|--------|--------|--------|--------|--------|--------|--------|--------|
E|--------|--------|--------|--------|--------|--------|--------|--------|--------|


E|--------|--------|--------|--------|--------|--------|--------|--------|--------|
B|--------|--------|--------|--------|--------|--------|--------|--------|--------|
G|--------|--------|--------|--------|--------|--------|--------|--------|--------|
D|--------|--------|--------|--------|--------|--------|--------|--------|--------|
A|--------|--------|--------|--------|--------|--------|--------|--------|--------|
E|--------|--------|--------|--------|--------|--------|--------|--------|--------|


E|--------|--------|--------|--------|--------|--------|--------|--------|--------|
B|--------|--------|--------|--------|--------|--------|--------|--------|--------|
G|--------|--------|--------|--------|--------|--------|--------|--------|--------|
D|--------|--------|--------|--------|--------|--------|--------|--------|--------|
A|--------|--------|--------|--------|--------|--------|--------|--------|--------|
E|--------|--------|--------|--------|--------|--------|--------|--------|--------|


E|--------|--------|--------|--------|--------|--------|--------|--------|--------|
B|--------|--------|--------|--------|--------|--------|--------|--------|--------|
G|--------|--------|--------|--------|--------|--------|--------|--------|--------|
D|--------|--------|--------|--------|--------|--------|--------|--------|--------|
A|--------|--------|--------|--------|--------|--------|--------|--------|--------|
E|--------|--------|--------|--------|--------|--------|--------|--------|--------|


E|--------|--------|--------|--------|-------------------3-----------------3---------|
B|--------|--------|--------|--------|-------------------3-----------------3---------|
G|--------|--------|--------|--------|-------------------0-----------------0---------|
D|--------|--------|--------|--------|-------------------5-----------------5---------|
A|--------|--------|--------|--------|-5--5--5--5--5-----5--5--3--3--3-----5--3---3--|
E|--------|--------|--------|--------|-3--3--3--3--3-----3--3--1--1--1-----3--1---1--|


E|-------------------3---------------------------|-------------------3-----------------3---------|
B|-------------------3---------------------------|-------------------3-----------------3---------|
G|-------------------0---------------------------|-------------------0-----------------0---------|
D|-------------------5--7--8--8--8--8--7--7--7---|-------------------5-----------------5---------|
A|-3--3--3--3--3-----5--5--6--6--6--6--5--5--5---|-5--5--5--5--5-----5--5--3--3--3-----5--3---3--|
E|-0--0--0--0--0-----3---------------------------|-3--3--3--3--3-----3--3--1--1--1-----3--1---1--|


E|-------------------3---------------------------|-------------------3-----------------3---------|
B|-------------------3---------------------------|-------------------3-----------------3---------|
G|-------------------0---------------------------|-------------------0-----------------0---------|
D|-------------------5--7--8--8--8--8--7--7--7---|-------------------5-----------------5---------|
A|-3--3--3--3--3-----5--5--6--6--6--6--5--5--5---|-5--5--5--5--5-----5--5--3--3--3-----5--3---3--|
E|-0--0--0--0--0-----3---------------------------|-3--3--3--3--3-----3--3--1--1--1-----3--1---1--|


E|-------------------3---------------------------|-------------------3-----------------3---------|
B|-------------------3---------------------------|-------------------3-----------------3---------|
G|-------------------0---------------------------|-------------------0-----------------0---------|
D|-------------------5--7--8--8--8--8--7--7--7---|-------------------5-----------------5---------|
A|-3--3--3--3--3-----5--5--6--6--6--6--5--5--5---|-5--5--5--5--5-----5--5--3--3--3-----5--3---3--|
E|-0--0--0--0--0-----3---------------------------|-3--3--3--3--3-----3--3--1--1--1-----3--1---1--|


E|-------------------3---------------|--------|--------|--------|--------|--------|
B|-------------------3---------------|--------|--------|--------|--------|--------|
G|-------------------0---------------|--------|--------|--------|--------|--------|
D|-------------------5--7--8----7----|--------|--------|--------|--------|--------|
A|-3--3--3--3--3-----5--5--6----5----|--------|--------|--------|--------|--------|
E|-0--0--0--0--0-----3---------------|--------|--------|--------|--------|--------|


E|--------|--------|--------|--------|--------|--------|--------|--------|--------|
B|--------|--------|--------|--------|--------|--------|--------|--------|--------|
G|--------|--------|--------|--------|--------|--------|--------|--------|--------|
D|--------|--------|--------|--------|--------|--------|--------|--------|--------|
A|--------|--------|--------|--------|--------|--------|--------|--------|--------|
E|--------|--------|--------|--------|--------|--------|--------|--------|--------|


E|--------|--------|-------------------------3-----|-------------3---------------------------3-----|
B|--------|--------|-------------------------3-----|-------------3---------------------------3-----|
G|--------|--------|-------------------------0-----|-------------0---------------------------0-----|
D|--------|--------|-------------------------5-----|-------------5---------------------------5--7--|
A|--------|--------|-------5--5--5--5--5-----5--5--|-3--3--3-----5--3---3--3--3--3--3--3-----5--5--|
E|--------|--------|-------3--3--3--3--3-----3--3--|-1--1--1-----3--1---1--0--0--0--0--0-----3-----|


E|-----------------------------------------3-----|-------------3---------------------------3-----|
B|-----------------------------------------3-----|-------------3---------------------------3-----|
G|-----------------------------------------0-----|-------------0---------------------------0-----|
D|-8--8--8--8--7--7--7---------------------5-----|-------------5---------------------------5--7--|
A|-6--6--6--6--5--5--5---5--5--5--5--5-----5--5--|-3--3--3-----5--3---3--3--3--3--3--3-----5--5--|
E|-----------------------3--3--3--3--3-----3--3--|-1--1--1-----3--1---1--0--0--0--0--0-----3-----|


E|-----------------------------------------3-----|-------------3---------------------------3-----|
B|-----------------------------------------3-----|-------------3---------------------------3-----|
G|-----------------------------------------0-----|-------------0---------------------------0-----|
D|-8--8--8--8--7--7--7---------------------5-----|-------------5---------------------------5--7--|
A|-6--6--6--6--5--5--5---5--5--5--5--5-----5--5--|-3--3--3-----5--3---3--3--3--3--3--3-----5--5--|
E|-----------------------3--3--3--3--3-----3--3--|-1--1--1-----3--1---1--0--0--0--0--0-----3-----|


E|-----------------------------------------3-----|-------------3---------------------------3-----|
B|-----------------------------------------3-----|-------------3---------------------------3-----|
G|-----------------------------------------0-----|-------------0---------------------------0-----|
D|-8--8--8--8--7--7--7---------------------5-----|-------------5---------------------------5--7--|
A|-6--6--6--6--5--5--5---5--5--5--5--5-----5--5--|-3--3--3-----5--3---3--3--3--3--3--3-----5--5--|
E|-----------------------3--3--3--3--3-----3--3--|-1--1--1-----3--1---1--0--0--0--0--0-----3-----|


E|-----------------|--------|--------|--------|--------|--------|--------|--------|
B|-----------------|--------|--------|--------|--------|--------|--------|--------|
G|-----------------|--------|--------|--------|--------|--------|--------|--------|
D|-8----7----------|--------|--------|--------|--------|--------|--------|--------|
A|-6----5----------|--------|--------|--------|--------|--------|--------|--------|
E|-----------------|--------|--------|--------|--------|--------|--------|--------|


E|--------|--------|--------|--------|--------|--------|
B|--------|--------|--------|--------|--------|--------|
G|--------|--------|--------|--------|--------|--------|
D|--------|--------|--------|--------|--------|--------|
A|--------|--------|--------|--------|--------|--------|
E|--------|--------|--------|--------|--------|--------|





Track 4: Gtr.I

E|--------|--------|--------|--------|--------|--------|--------|--------|--------|
B|--------|--------|--------|--------|--------|--------|--------|--------|--------|
G|--------|--------|--------|--------|--------|--------|--------|--------|--------|
D|--------|--------|--------|--------|--------|--------|--------|--------|--------|
A|--------|--------|--------|--------|--------|--------|--------|--------|--------|
E|--------|--------|--------|--------|--------|--------|--------|--------|--------|


E|--------|--------|--------|--------|--------|--------|--------|--------|--------|
B|--------|--------|--------|--------|--------|--------|--------|--------|--------|
G|--------|--------|--------|--------|--------|--------|--------|--------|--------|
D|--------|--------|--------|--------|--------|--------|--------|--------|--------|
A|--------|--------|--------|--------|--------|--------|--------|--------|--------|
E|--------|--------|--------|--------|--------|--------|--------|--------|--------|


E|--------|--------|--------|--------|--------|--------|--------|--------|--------|
B|--------|--------|--------|--------|--------|--------|--------|--------|--------|
G|--------|--------|--------|--------|--------|--------|--------|--------|--------|
D|--------|--------|--------|--------|--------|--------|--------|--------|--------|
A|--------|--------|--------|--------|--------|--------|--------|--------|--------|
E|--------|--------|--------|--------|--------|--------|--------|--------|--------|


E|--------|--------|--------|--------|--------|--------|--------|--------|--------|
B|--------|--------|--------|--------|--------|--------|--------|--------|--------|
G|--------|--------|--------|--------|--------|--------|--------|--------|--------|
D|--------|--------|--------|--------|--------|--------|--------|--------|--------|
A|--------|--------|--------|--------|--------|--------|--------|--------|--------|
E|--------|--------|--------|--------|--------|--------|--------|--------|--------|


E|--------|--------|--------|--------|--------|--------|--------|--------|--------|
B|--------|--------|--------|--------|--------|--------|--------|--------|--------|
G|--------|--------|--------|--------|--------|--------|--------|--------|--------|
D|--------|--------|--------|--------|--------|--------|--------|--------|--------|
A|--------|--------|--------|--------|--------|--------|--------|--------|--------|
E|--------|--------|--------|--------|--------|--------|--------|--------|--------|


E|--------|--------|--------|--------|-----------------------------------------------|
B|--------|--------|--------|--------|----------3--------------------3---------------|
G|--------|--------|--------|--------|-0--2--4-----4--2-----2-----4-----4-----4---4--|
D|--------|--------|--------|--------|-------------------5-----3--------------3---3--|
A|--------|--------|--------|--------|-----------------------------------------------|
E|--------|--------|--------|--------|-----------------------------------------------|


E|-------------------------------------------|-----------------------------------------------|
B|-------1---1---------------1--3--3--1------|----------3--------------------3---------------|
G|----0---------0---------0---------------2--|-0--2--3-----3-----3--------3-----------3---3--|
D|-2---------------2---1---------------------|----------------5-----5--3--------3-----3---3--|
A|-------------------------------------------|-----------------------------------------------|
E|-------------------------------------------|-----------------------------------------------|


E|-------------------------------------------|--------|--------|--------|--------|
B|-------1---1---------------1--3--3--1------|--------|--------|--------|--------|
G|----0---------0---------0---------------2--|--------|--------|--------|--------|
D|-2---------------2---1---------------------|--------|--------|--------|--------|
A|-------------------------------------------|--------|--------|--------|--------|
E|-------------------------------------------|--------|--------|--------|--------|


E|--------|--------|--------|--------|--------|--------|--------|--------|--------|
B|--------|--------|--------|--------|--------|--------|--------|--------|--------|
G|--------|--------|--------|--------|--------|--------|--------|--------|--------|
D|--------|--------|--------|--------|--------|--------|--------|--------|--------|
A|--------|--------|--------|--------|--------|--------|--------|--------|--------|
E|--------|--------|--------|--------|--------|--------|--------|--------|--------|


E|--------|--------|--------|--------|--------|--------|--------|--------|--------|
B|--------|--------|--------|--------|--------|--------|--------|--------|--------|
G|--------|--------|--------|--------|--------|--------|--------|--------|--------|
D|--------|--------|--------|--------|--------|--------|--------|--------|--------|
A|--------|--------|--------|--------|--------|--------|--------|--------|--------|
E|--------|--------|--------|--------|--------|--------|--------|--------|--------|


E|--------|--------|--------|--------|--------|--------|--------|--------|--------|
B|--------|--------|--------|--------|--------|--------|--------|--------|--------|
G|--------|--------|--------|--------|--------|--------|--------|--------|--------|
D|--------|--------|--------|--------|--------|--------|--------|--------|--------|
A|--------|--------|--------|--------|--------|--------|--------|--------|--------|
E|--------|--------|--------|--------|--------|--------|--------|--------|--------|


E|--------|--------|--------|--------|--------|--------|--------|--------|--------|
B|--------|--------|--------|--------|--------|--------|--------|--------|--------|
G|--------|--------|--------|--------|--------|--------|--------|--------|--------|
D|--------|--------|--------|--------|--------|--------|--------|--------|--------|
A|--------|--------|--------|--------|--------|--------|--------|--------|--------|
E|--------|--------|--------|--------|--------|--------|--------|--------|--------|


E|--------|--------|
B|--------|--------|
G|--------|--------|
D|--------|--------|
A|--------|--------|
E|--------|--------|





Track 5: Gtr.I

E|--------|--------|--------|--------|--------|--------|--------|--------|--------|
B|--------|--------|--------|--------|--------|--------|--------|--------|--------|
G|--------|--------|--------|--------|--------|--------|--------|--------|--------|
D|--------|--------|--------|--------|--------|--------|--------|--------|--------|
A|--------|--------|--------|--------|--------|--------|--------|--------|--------|
E|--------|--------|--------|--------|--------|--------|--------|--------|--------|


E|--------|--------|--------|--------|--------|--------|--------|--------|--------|
B|--------|--------|--------|--------|--------|--------|--------|--------|--------|
G|--------|--------|--------|--------|--------|--------|--------|--------|--------|
D|--------|--------|--------|--------|--------|--------|--------|--------|--------|
A|--------|--------|--------|--------|--------|--------|--------|--------|--------|
E|--------|--------|--------|--------|--------|--------|--------|--------|--------|


E|--------|--------|--------|--------|--------|--------|--------|--------|--------|
B|--------|--------|--------|--------|--------|--------|--------|--------|--------|
G|--------|--------|--------|--------|--------|--------|--------|--------|--------|
D|--------|--------|--------|--------|--------|--------|--------|--------|--------|
A|--------|--------|--------|--------|--------|--------|--------|--------|--------|
E|--------|--------|--------|--------|--------|--------|--------|--------|--------|


E|--------|--------|--------|--------|--------|--------|--------|--------|--------|
B|--------|--------|--------|--------|--------|--------|--------|--------|--------|
G|--------|--------|--------|--------|--------|--------|--------|--------|--------|
D|--------|--------|--------|--------|--------|--------|--------|--------|--------|
A|--------|--------|--------|--------|--------|--------|--------|--------|--------|
E|--------|--------|--------|--------|--------|--------|--------|--------|--------|


E|--------|--------|--------|--------|--------|--------|--------|--------|--------|
B|--------|--------|--------|--------|--------|--------|--------|--------|--------|
G|--------|--------|--------|--------|--------|--------|--------|--------|--------|
D|--------|--------|--------|--------|--------|--------|--------|--------|--------|
A|--------|--------|--------|--------|--------|--------|--------|--------|--------|
E|--------|--------|--------|--------|--------|--------|--------|--------|--------|


E|--------|--------|--------|--------|--------|--------|--------|--------|--------|
B|--------|--------|--------|--------|--------|--------|--------|--------|--------|
G|--------|--------|--------|--------|--------|--------|--------|--------|--------|
D|--------|--------|--------|--------|--------|--------|--------|--------|--------|
A|--------|--------|--------|--------|--------|--------|--------|--------|--------|
E|--------|--------|--------|--------|--------|--------|--------|--------|--------|


E|--------|--------|--------|--------|--------|--------|--------|--------|--------|
B|--------|--------|--------|--------|--------|--------|--------|--------|--------|
G|--------|--------|--------|--------|--------|--------|--------|--------|--------|
D|--------|--------|--------|--------|--------|--------|--------|--------|--------|
A|--------|--------|--------|--------|--------|--------|--------|--------|--------|
E|--------|--------|--------|--------|--------|--------|--------|--------|--------|


E|--------|--------|--------|--------|--------|--------|--------|--------|--------|
B|--------|--------|--------|--------|--------|--------|--------|--------|--------|
G|--------|--------|--------|--------|--------|--------|--------|--------|--------|
D|--------|--------|--------|--------|--------|--------|--------|--------|--------|
A|--------|--------|--------|--------|--------|--------|--------|--------|--------|
E|--------|--------|--------|--------|--------|--------|--------|--------|--------|


E|--------|-------------------------------|-------------------------------------------|
B|--------|----------------3--------------|-------3---------------------1---1---------|
G|--------|-------0--2--4-----4--2-----2--|----4-----4-----4---4-----0---------0------|
D|--------|-------------------------5-----|-3--------------3---3--2---------------2---|
A|--------|-------------------------------|-------------------------------------------|
E|--------|-------------------------------|-------------------------------------------|


E|-----------------------------------------------|-------------------------------------------|
B|-------1--3--3--1---------------3--------------|-------3---------------------1---1---------|
G|----0---------------2--0--2--3-----3-----3-----|----3-----------3---3-----0---------0------|
D|-1------------------------------------5-----5--|-3--------3-----3---3--2---------------2---|
A|-----------------------------------------------|-------------------------------------------|
E|-----------------------------------------------|-------------------------------------------|


E|-----------------------------|--------|--------|--------|--------|--------|--------|
B|-------1--3--3--1------------|--------|--------|--------|--------|--------|--------|
G|----0---------------2--------|--------|--------|--------|--------|--------|--------|
D|-1---------------------------|--------|--------|--------|--------|--------|--------|
A|-----------------------------|--------|--------|--------|--------|--------|--------|
E|-----------------------------|--------|--------|--------|--------|--------|--------|


E|--------|--------|--------|--------|--------|--------|--------|--------|--------|
B|--------|--------|--------|--------|--------|--------|--------|--------|--------|
G|--------|--------|--------|--------|--------|--------|--------|--------|--------|
D|--------|--------|--------|--------|--------|--------|--------|--------|--------|
A|--------|--------|--------|--------|--------|--------|--------|--------|--------|
E|--------|--------|--------|--------|--------|--------|--------|--------|--------|


E|--------|--------|
B|--------|--------|
G|--------|--------|
D|--------|--------|
A|--------|--------|
E|--------|--------|





Track 6: Bass

G|-------------------------------|-----------------------------------|-------------------------------|
D|-------------------------------|-----------------------------------|-------------------------------|
A|-------------1-----1--0--1--2--|-3---3-------------------2--3--4---|-5-----------1-----1--0--1--2--|
E|-3---3-------------------------|-------------3----3---3------------|-----3-------------------------|


G|-----------------------------------|-------------------------------|-----------------------------------|
D|-----------------------------------|-------------------------------|-----------------------------------|
A|-3---3-------------------2--3--4---|-5-----------1-----1--0--1--2--|-3---3-------------------2--3--4---|
E|-------------3----3---3------------|-----3-------------------------|-------------3----3---3------------|


G|-------------------------------|-----------------------|-----------------------|
D|-------------------------------|-----------------------|--------------------5--|
A|-5-----------1-----1--0--1--2--|-3---3-----------------|-----------------------|
E|-----3-------------------------|-------------3---3-----|-------3---3-----------|


G|---------------------------------|---------------------------------|---------------------------------------|
D|-4------------2--3---3--------3--|-2------------0--1---1-----------|-1--1-----1--3---3--3---------------5--|
A|-----5---------------------------|-----3------------------------1--|---------------------------------------|
E|---------------------------------|---------------------------------|-----------------------3---3-----------|


G|---------------------------------|---------------------------------|-----------------------------------------|
D|-4------------2--3---3--------3--|-2------------0--1---1-----------|-1--1-----1--3---3--3--------------------|
A|-----5---------------------------|-----3------------------------1--|-----------------------5---5--5--3----2--|
E|---------------------------------|---------------------------------|-----------------------------------------|


G|---------------------------------------|-------------------------------------------|
D|-------------3--4----------------------|-------------------------------------------|
A|-2---3----5--------5---5--5--3---3--2--|----5--------2--2--3--4--5---5--5--3----2--|
E|---------------------------------------|-------3--5--------------------------------|


G|-------------------------------------|-----------------------------------|---------------------------------------|
D|-------------3--4--------------------|-----------------------------------|-----------------10-8--7---------------|
A|-2---3----5--------5---5--5--3----2--|-2---3----5--3--5--6---6-----------|-6--6------6--10-----------8-----------|
E|-------------------------------------|--------------------------------6--|--------6---------------------------8--|


G|---------------------------------------|---------------------------------------|
D|---------------------------------------|-----------------10-8--7---------------|
A|-8--8--------10-8--7---6---6-----------|-6--6------6--10-----------8-----------|
E|----------8-------------------------6--|--------6---------------------------8--|


G|---------------------------------------|---------------------------------------|
D|---------------------------------------|-----------------10-8--7---------------|
A|-8--8------8--10-8--7--6---6-----------|-6--6------6--10-----------8-----------|
E|--------8---------------------------6--|--------6---------------------------8--|


G|---------------------------------------|---------------------------------------|
D|---------------------------------------|-----------------10-8--7---------------|
A|-8--8--------8--8--7---6---6-----------|-6--6------6--10-----------8-----------|
E|----------8-------------------------6--|--------6---------------------------8--|


G|---------------------------------------|----------------------------------|-------------------------------------|
D|---------------------------------------|----------------------------------|-------------------------------------|
A|-8--8--------8--8------------------1---|------1--0--1--2--3---3-----------|-----------2--3--4---5-----------1---|
E|----------8--------8---3---3-----------|------------------------------3---|----3---3----------------3-----------|


G|----------------------------------|--------|---------------------------------|---------------------------------|
D|----------------------------------|--------|--------------5--4------------2--|-3---3--------3--2------------0--|
A|------1--0--1--2--3---3-----------|--------|---------------------5-----------|---------------------3-----------|
E|------------------------------3---|-3------|-3---3---------------------------|---------------------------------|


G|---------------------------------------|---------------------------------|---------------------------------|
D|-1---1-----------1--1-----1--3---3--3--|--------------5--4------------2--|-3---3--------3--2------------0--|
A|--------------1------------------------|---------------------5-----------|---------------------3-----------|
E|---------------------------------------|-3---3---------------------------|---------------------------------|


G|---------------------------------------|-------------------------------------|-------------------------------------------|
D|-1---1-----------1--1-----1--3---3--3--|-------------------------------3--4--|-------------------------------------------|
A|--------------1------------------------|-5---5--5--3----2--2---3----5--------|-5---5--5--3---3--2---5--------2--2--3--4--|
E|---------------------------------------|-------------------------------------|-------------------------3--5--------------|


G|-------------------------------------|-------------------------------------|---------------------------------------|
D|-------------------------------3--4--|-------------------------------------|---------------------------------10-8--|
A|-5---5--5--3----2--2---3----5--------|-5---5--5--3----2--2---3----5--3--5--|-6---6-----------6--6------6--10-------|
E|-------------------------------------|-------------------------------------|--------------6---------6--------------|


G|---------------------------------------|---------------------------------------|
D|-7-------------------------------------|---------------------------------10-8--|
A|-----8-----------8--8--------10-8--7---|-6---6-----------6--6------6--10-------|
E|--------------8-----------8------------|--------------6---------6--------------|


G|---------------------------------------|---------------------------------------|
D|-7-------------------------------------|---------------------------------10-8--|
A|-----8-----------8--8------8--10-8--7--|-6---6-----------6--6------6--10-------|
E|--------------8---------8--------------|--------------6---------6--------------|


G|---------------------------------------|---------------------------------------|
D|-7-------------------------------------|---------------------------------10-8--|
A|-----8-----------8--8--------8--8--7---|-6---6-----------6--6------6--10-------|
E|--------------8-----------8------------|--------------6---------6--------------|


G|---------------------------------------|-----------------------------------------------|
D|-7-------------------------------------|-----------------------------------------------|
A|-----8-----------8--8-----8--8--8------|-----------------------------------------------|
E|--------------8--------8-----------8---|-3--3--3--3--3-----3--3--1--1--1-----1--1---1--|


G|-----------------------------------------------|-----------------------------------------------|
D|-----------------------------------------------|-----------------------------------------------|
A|----------------------5--6--6--6--6--5--5--5---|-----------------------------------------------|
E|-0--0--0--0--0-----0---------------------------|-3--3--3--3--3-----3--3--1--1--1-----1--1---1--|


G|-----------------------------------------------|-----------------------------------------------|
D|-----------------------------------------------|-----------------------------------------------|
A|----------------------5--6--6--6--6--5--5--5---|-----------------------------------------------|
E|-0--0--0--0--0-----0---------------------------|-3--3--3--3--3-----3--3--1--1--1-----1--1---1--|


G|-----------------------------------------------|-----------------------------------------------|
D|-----------------------------------------------|-----------------------------------------------|
A|----------------------5--6--6--6--6--5--5--5---|-----------------------------------------------|
E|-0--0--0--0--0-----0---------------------------|-3--3--3--3--3-----3--3--1--1--1-----1--1---1--|


G|-----------------------------------|-------------------------------|-----------------------------------|
D|-----------------------------------|-------------------------------|-----------------------------------|
A|----------------------5--6----5----|-------------1-----1--0--1--2--|-3---3-------------------2--3--4---|
E|-0--0--0--0--0-----0---------------|-3---3-------------------------|-------------3----3---3------------|


G|-------------------------------|-----------------------------------|-------------------------------|
D|-------------------------------|-----------------------------------|-------------------------------|
A|-5-----------1-----1--0--1--2--|-3---3-------------------2--3--4---|-5-----------1-----1--0--1--2--|
E|-----3-------------------------|-------------3----3---3------------|-----3-------------------------|


G|-----------------------------------|-------------------------------|-----------------------|
D|-----------------------------------|-------------------------------|-----------------------|
A|-3---3-------------------2--3--4---|-5-----------1-----1--0--1--2--|-3---3-----------------|
E|-------------3----3---3------------|-----3-------------------------|-------------3---3-----|


G|-----------------------|---------------------------------------|---------------------------------------|
D|-----------------------|-----------------10-8--7---------------|---------------------------------------|
A|-------6---6-----------|-6--6------6--10-----------8-----------|-8--8--------10-8--7---6---6-----------|
E|--------------------6--|--------6---------------------------8--|----------8-------------------------6--|


G|---------------------------------------|---------------------------------------|
D|-----------------10-8--7---------------|---------------------------------------|
A|-6--6------6--10-----------8-----------|-8--8------8--10-8--7--6---6-----------|
E|--------6---------------------------8--|--------8---------------------------6--|


G|---------------------------------------|---------------------------------------|
D|-----------------10-8--7---------------|---------------------------------------|
A|-6--6------6--10-----------8-----------|-8--8--------8--8--7---6---6-----------|
E|--------6---------------------------8--|----------8-------------------------6--|


G|---------------------------------------|---------------------------------------|
D|-----------------10-8--7---------------|---------------------------------------|
A|-6--6------6--10-----------8-----------|-8--8--------8--8------------------1---|
E|--------6---------------------------8--|----------8--------8---3---3-----------|


G|----------------------------------|-------------------------------------|----------------------------------|
D|----------------------------------|-------------------------------------|----------------------------------|
A|------1--0--1--2--3---3-----------|-----------2--3--4---5-----------1---|------1--0--1--2--3---3-----------|
E|------------------------------3---|----3---3----------------3-----------|------------------------------3---|


G|--------|---------------------------------------|-----------------------------------------------|
D|--------|-7-------------------------------------|-----------------------------------------------|
A|--------|-----8-----------8--8-----8--8--8------|-----------------------------------------------|
E|-3------|--------------8--------8-----------8---|-3--3--3--3--3-----3--3--1--1--1-----1--1---1--|


G|-----------------------------------------------|-----------------------------------------------|
D|-----------------------------------------------|-----------------------------------------------|
A|----------------------5--6--6--6--6--5--5--5---|-----------------------------------------------|
E|-0--0--0--0--0-----0---------------------------|-3--3--3--3--3-----3--3--1--1--1-----1--1---1--|


G|-----------------------------------------------|-----------------------------------------------|
D|-----------------------------------------------|-----------------------------------------------|
A|----------------------5--6--6--6--6--5--5--5---|-----------------------------------------------|
E|-0--0--0--0--0-----0---------------------------|-3--3--3--3--3-----3--3--1--1--1-----1--1---1--|


G|-----------------------------------------------|-----------------------------------------------|
D|-----------------------------------------------|-----------------------------------------------|
A|----------------------5--6--6--6--6--5--5--5---|-----------------------------------------------|
E|-0--0--0--0--0-----0---------------------------|-3--3--3--3--3-----3--3--1--1--1-----1--1---1--|


G|-----------------------------------|-------------------------------|-----------------------------------|
D|-----------------------------------|-------------------------------|-----------------------------------|
A|----------------------5--6----5----|-------------1-----1--0--1--2--|-3---3-------------------2--3--4---|
E|-0--0--0--0--0-----0---------------|-3---3-------------------------|-------------3----3---3------------|


G|-------------------------------|-----------------------------------|-------------------------------|
D|-------------------------------|-----------------------------------|-------------------------------|
A|-5-----------1-----1--0--1--2--|-3---3-------------------2--3--4---|-5-----------1-----1--0--1--2--|
E|-----3-------------------------|-------------3----3---3------------|-----3-------------------------|


G|-----------------------------------|-------------------------------|-----------------------|
D|-----------------------------------|-------------------------------|-----------------------|
A|-3---3-------------------2--3--4---|-5-----------1-----1--0--1--2--|-3---3-----------------|
E|-------------3----3---3------------|-----3-------------------------|-------------3---3-----|