Menu:

 

Search:

 

stone temple pilots - plush:

 



Title: Plush
Artist: 
Album: Core
Author: Weiland and Robert DeLeo


Track 1: Acoustic Guitar (Steel)

E|-3----3---------3----|-3------|-3----3---------3----|-3-----3---3---3----|-3----3---------3----|
B|-3----3---------2----|-2------|-1----1---------0----|-0-----0---1---2----|-3----3---------2----|
G|-0----0---------3----|-3------|-2----2---------0----|-0-----0---0---0----|-0----0---------3----|
D|---------------------|--------|---------------------|--------------------|---------------------|
A|---------------------|--------|---------------------|--------------------|---------------------|
E|---------------------|--------|---------------------|--------------------|---------------------|


E|-3------|-3----3---------3----|-3-----3---3---3----|-3----3---------3----|-3------|
B|-2------|-1----1---------0----|-0-----0---1---2----|-3----3---------2----|-2------|
G|-3------|-2----2---------0----|-0-----0---0---0----|-0----0---------3----|-3------|
D|--------|---------------------|--------------------|---------------------|--------|
A|--------|---------------------|--------------------|---------------------|--------|
E|--------|---------------------|--------------------|---------------------|--------|


E|-3----3---------3----|-3-----3---3---3----|-3----3---------3----|-3------|-3----3---------3----|
B|-1----1---------0----|-0-----0---1---2----|-3----3---------2----|-2------|-1----1---------0----|
G|-2----2---------0----|-0-----0---0---0----|-0----0---------3----|-3------|-2----2---------0----|
D|---------------------|--------------------|---------------------|--------|----------------0----|
A|---------------------|--------------------|---------------------|--------|---------------------|
E|---------------------|--------------------|---------------------|--------|---------------------|


E|-3------|-3------|-3----3--------------------|---------------------------|---------------------------|
B|-0------|-0------|-3----3------------0---3---|-3----3--------------------|-----------------------1---|
G|-0------|-0------|-0----0--------0---0---2---|-2----2--------10------2---|-2----2--------2---2---0---|
D|-0------|-0------|-0----0--------1-------0---|-0----0--------0-------3---|-3----3--------3---3---2---|
A|--------|--------|-2----2--------------------|-0----0----------------3---|-3----3----------------3---|
E|--------|--------|-3----3--------------------|-2----2------------2---1---|-1----1--------------------|


E|---------------------------|---------------------------|-----------------|-3----3--------------------|
B|-1----1----------------3---|-3----3----------------3---|-3---------1-----|-3----3------------0---3---|
G|-0----0--------0-------3---|-3----3----------------3---|-3-----3---2-----|-0----0--------0---0---2---|
D|-2----2----------------5---|-5----5--------5---5---5---|-5-----5---3-----|-0----0--------1-------0---|
A|-3----3------------6-------|-6----6--------------------|-6---------3-----|-2----2--------------------|
E|---------------------------|---------------------------|-----------------|-3----3--------------------|


E|---------------------------|---------------------------|---------------------------|
B|-3----3--------------------|-----------------------1---|-1----1----------------3---|
G|-2----2--------10------2---|-2----2--------2---2---0---|-0----0--------0-------3---|
D|-0----0--------0-------3---|-3----3--------3---3---2---|-2----2----------------5---|
A|-0----0----------------3---|-3----3----------------3---|-3----3------------6-------|
E|-2----2------------2---1---|-1----1--------------------|---------------------------|


E|---------------------------|-----------------|----------0---0------------|---------0----0---------------|
B|-3----3----------------3---|-3---------1-----|-3----3-------3----3-------|---------3----3---------------|
G|-3----3----------------3---|-3-----3---2-----|-2----2-------0----0-------|-----0---0----0---------------|
D|-5----5--------5---5---5---|-5-----5---3-----|-0----0-------0------------|------------------------------|
A|-6----6--------------------|-6---------3-----|-0------------3--------2---|-2-------3----3---2---3---0---|
E|---------------------------|-----------------|---------------------------|------------------------------|


E|----------0---0------------|---------0----0---------------|----------0---0------------|
B|-3----3-------3----3-------|---------3----3---------------|-3----3-------3----3-------|
G|-2----2-------0----0-------|-----0---0----0---------------|-2----2-------0----0-------|
D|-0----0-------0------------|------------------------------|-0----0-------0------------|
A|-0------------3--------2---|-2-------3----3---2---3---0---|-0------------3--------2---|
E|---------------------------|------------------------------|---------------------------|


E|---------0----0---------------|----------0---0------------|---------0----0-----|
B|---------3----3---------------|-3----3-------3----3-------|---------3----3-----|
G|-----0---0----0---------------|-2----2-------0----0-------|-----0---0----0-----|
D|------------------------------|-0----0-------0------------|--------------------|
A|-2-------3----3---2---3---0---|-0------------3--------2---|-2-------3----3-----|
E|------------------------------|---------------------------|--------------------|


E|---------------------------|---------------------------|---------------------------|
B|---------------------------|-----------------------1---|-----------------------1---|
G|-3----3--------3-------3---|-3----3--------3-------2---|-2---------------------2---|
D|-5----5----5-------5---5---|-5----5----5-----------3---|-3----3----3---3---3---3---|
A|-6----6----------------6---|-6----6----------------3---|-3----3------------3---3---|
E|---------------------------|-----------------------1---|-1----1--------------------|


E|---------------------------|---------------------------|---------------------------|
B|-----------------------3---|-3----3----------------3---|-3----3----------------1---|
G|-----------1---1---1---3---|-3----3----------------3---|-3----3----------------2---|
D|-3----3----0---0---0---5---|-5----5--------5-------5---|-5----5--------5-------3---|
A|-3----3----------------6---|-6----6----6-------6-------|-6----6----6-------3---3---|
E|-1----1--------------------|---------------------------|-----------------------1---|


E|---------------------------|------------------------|---------------------------|
B|-1-------------------------|-1----------------------|-----------------------3---|
G|-2---------------------2---|-2----------------------|-3----3----------------3---|
D|-3----3----------------3---|-3----3-----------3-----|-5----4----------------5---|
A|-3----3----------------3---|-3----3-----------3-----|-6----5----6---6-----------|
E|-1----1----1---0---0---1---|-1----1---0-------1-----|---------------------------|


E|------------------------|---------------------------|---------------------------|
B|-3----3-----------------|------1----------------1---|------1------------1-------|
G|-3----3-------------2---|-2----2--------3-------2---|-2----2--------------------|
D|-5----4---------3---3---|-3----3------------3---3---|-3----3------------3-------|
A|-6----5---------3---3---|-3----3----------------3---|-3----3----------------3---|
E|--------------------1---|-1----1----------------1---|-1----1----1---1-----------|


E|---------------------------|---------------------------|---------------------------|
B|-3----3----------------3---|-3----3----------------1---|------1----------------1---|
G|-3----3----------------3---|-3----3----------------2---|-2----2----------------2---|
D|-5----5--------5-------5---|-5----5--------5-------3---|-3----3--------3-------3---|
A|-6----6----6-------6-------|-6----6----6-------3---3---|-3----3------------3---3---|
E|---------------------------|-----------------------1---|-1----1----------------1---|


E|------------------------------|-3----3---------3----|-3------|-3----3---------3----|
B|------1---1-------1-------1---|-3----3---------2----|-2------|-1----1---------0----|
G|-2----2---2---2---2---2---2---|-0----0---------3----|-3------|-2----2---------0----|
D|-3----3-------3-------3-------|---------------------|--------|---------------------|
A|-3----3-------3-------3-------|---------------------|--------|---------------------|
E|-1----1-----------------------|---------------------|--------|---------------------|


E|-3-----3---3---3----|-3----3---------3----|-3------|-3----3---------3----|-3------|
B|-0-----0---1---2----|-3----3---------2----|-2------|-1----1---------0----|-0------|
G|-0-----0---0---0----|-0----0---------3----|-3------|-2----2---------0----|-0------|
D|--------------------|---------------------|--------|----------------0----|-0------|
A|--------------------|---------------------|--------|---------------------|--------|
E|--------------------|---------------------|--------|---------------------|--------|


E|-3------|-3----3--------------------|---------------------------|---------------------------|
B|-0------|-3----3------------0---3---|-3----3--------------------|-----------------------1---|
G|-0------|-0----0--------0---0---2---|-2----2--------10------2---|-2----2--------2---2---0---|
D|-0------|-0----0--------1-------0---|-0----0--------0-------3---|-3----3--------3---3---2---|
A|--------|-2----2--------------------|-0----0----------------3---|-3----3----------------3---|
E|--------|-3----3--------------------|-2----2------------2---1---|-1----1--------------------|


E|---------------------------|---------------------------|-----------------|-3----3--------------------|
B|-1----1----------------3---|-3----3----------------3---|-3---------1-----|-3----3------------0---3---|
G|-0----0--------0-------3---|-3----3----------------3---|-3-----3---2-----|-0----0--------0---0---2---|
D|-2----2----------------5---|-5----5--------5---5---5---|-5-----5---3-----|-0----0--------1-------0---|
A|-3----3------------6-------|-6----6--------------------|-6---------3-----|-2----2--------------------|
E|---------------------------|---------------------------|-----------------|-3----3--------------------|


E|---------------------------|---------------------------|---------------------------|
B|-3----3--------------------|-----------------------1---|-1----1----------------3---|
G|-2----2--------10------2---|-2----2--------2---2---0---|-0----0--------0-------3---|
D|-0----0--------0-------3---|-3----3--------3---3---2---|-2----2----------------5---|
A|-0----0----------------3---|-3----3----------------3---|-3----3------------6-------|
E|-2----2------------2---1---|-1----1--------------------|---------------------------|


E|---------------------------|-----------------|----------0---0------------|---------0----0---------------|
B|-3----3----------------3---|-3---------1-----|-3----3-------3----3-------|---------3----3---------------|
G|-3----3----------------3---|-3-----3---2-----|-2----2-------0----0-------|-----0---0----0---------------|
D|-5----5--------5---5---5---|-5-----5---3-----|-0----0-------0------------|------------------------------|
A|-6----6--------------------|-6---------3-----|-0------------3--------2---|-2-------3----3---2---3---0---|
E|---------------------------|-----------------|---------------------------|------------------------------|


E|----------0---0------------|---------0----0---------------|----------0---0------------|
B|-3----3-------3----3-------|---------3----3---------------|-3----3-------3----3-------|
G|-2----2-------0----0-------|-----0---0----0---------------|-2----2-------0----0-------|
D|-0----0-------0------------|------------------------------|-0----0-------0------------|
A|-0------------3--------2---|-2-------3----3---2---3---0---|-0------------3--------2---|
E|---------------------------|------------------------------|---------------------------|


E|---------0----0---------------|----------0---0------------|---------0----0-----|
B|---------3----3---------------|-3----3-------3----3-------|---------3----3-----|
G|-----0---0----0---------------|-2----2-------0----0-------|-----0---0----0-----|
D|------------------------------|-0----0-------0------------|--------------------|
A|-2-------3----3---2---3---0---|-0------------3--------2---|-2-------3----3-----|
E|------------------------------|---------------------------|--------------------|


E|---------------------------|---------------------------|---------------------------|
B|---------------------------|-----------------------1---|-----------------------1---|
G|-3----3--------3-------3---|-3----3--------3-------2---|-2---------------------2---|
D|-5----5----5-------5---5---|-5----5----5-----------3---|-3----3----3---3---3---3---|
A|-6----6----------------6---|-6----6----------------3---|-3----3------------3---3---|
E|---------------------------|-----------------------1---|-1----1--------------------|


E|---------------------------|---------------------------|---------------------------|
B|-----------------------3---|-3----3----------------3---|-3----3----------------1---|
G|-----------1---1---1---3---|-3----3----------------3---|-3----3----------------2---|
D|-3----3----0---0---0---5---|-5----5--------5-------5---|-5----5--------5-------3---|
A|-3----3----------------6---|-6----6----6-------6-------|-6----6----6-------3---3---|
E|-1----1--------------------|---------------------------|-----------------------1---|


E|---------------------------|------------------------|---------------------------|
B|-1-------------------------|-1----------------------|-----------------------3---|
G|-2---------------------2---|-2----------------------|-3----3----------------3---|
D|-3----3----------------3---|-3----3-----------3-----|-5----4----------------5---|
A|-3----3----------------3---|-3----3-----------3-----|-6----5----6---6-----------|
E|-1----1----1---0---0---1---|-1----1---0-------1-----|---------------------------|


E|------------------------|---------------------------|---------------------------|
B|-3----3-----------------|------1----------------1---|------1------------1-------|
G|-3----3-------------2---|-2----2--------3-------2---|-2----2--------------------|
D|-5----4---------3---3---|-3----3------------3---3---|-3----3------------3-------|
A|-6----5---------3---3---|-3----3----------------3---|-3----3----------------3---|
E|--------------------1---|-1----1----------------1---|-1----1----1---1-----------|


E|---------------------------|---------------------------|---------------------------|
B|-3----3----------------3---|-3----3----------------1---|------1----------------1---|
G|-3----3----------------3---|-3----3----------------2---|-2----2----------------2---|
D|-5----5--------5-------5---|-5----5--------5-------3---|-3----3--------3-------3---|
A|-6----6----6-------6-------|-6----6----6-------3---3---|-3----3------------3---3---|
E|---------------------------|-----------------------1---|-1----1----------------1---|


E|------------------------------|---------------------------------|---------------------------|
B|------1---1-------1-------1---|---------------------------------|---------------------------|
G|-2----2---2---2---2---2---2---|-------------------------1-------|---------------------------|
D|-3----3-------3-------3-------|-------------------------0-------|---------------------------|
A|-3----3-------3-------3-------|-5---5---5---5---5-----------5---|-3---3---3-----------3-----|
E|-1----1-----------------------|-3---3---3---3---3-----------3---|-1---1---1-----------1-----|


E|---------------------------------|---------------------|---------------------------------|
B|---------------------------------|---------------------|---------------------------------|
G|-----------------------------2---|-3-----3---2---------|-------------------------1-------|
D|-----------------------------0---|-1-----1---0---------|-------------------------0-------|
A|-3---3---3---3---3-------3-------|---------------------|-5---5---5---5---5-----------5---|
E|-0---0---0---0---0---------------|-----------------0---|-3---3---3---3---3-----------3---|


E|---------------------------|---------------------------------|-----------------|
B|---------------------------|---------------------------------|-----------------|
G|---------------------------|-----------------------------2---|-3-----3---2-----|
D|---------------------------|-----------------------------0---|-1-----1---0-----|
A|-3---3---3-----------3-----|-3---3---3---3---3-------3-------|-----------------|
E|-1---1---1-----------1-----|-0---0---0---0---0---------------|-----------------|


E|---------------------------------|---------------------------|---------------------------------|
B|---------------------------------|---------------------------|---------------------------------|
G|-------------------------1-------|---------------------------|-----------------------------2---|
D|-------------------------0-------|---------------------------|-----------------------------0---|
A|-5---5---5---5---5-----------5---|-3---3---3-----------3-----|-3---3---3---3---3-------3-------|
E|-3---3---3---3---3-----------3---|-1---1---1-----------1-----|-0---0---0---0---0---------------|


E|-------------|---------------------------------|------------------------|---------------------------------|
B|-------------|---------------------------------|------------------------|---------------------------------|
G|-3-----2-----|-------------------------1-------|------------------------|-----------------------------2---|
D|-1-----0-----|-------------------------0-------|------------------------|-----------------------------0---|
A|-------------|-5---5---5---5---5-----------5---|-3----3-----------3-----|-3---3---3---3---3-------3-------|
E|-------------|-3---3---3---3---3-----------3---|-1----1---1-------1-----|-0---0---0---0---0---------------|


E|-------------|-3----3---------3----|-3------|-3----3---------3----|-3-----3---3---3----|
B|-------------|-3----3---------2----|-2------|-1----1---------0----|-0-----0---1---2----|
G|-3-----2-----|-0----0---------3----|-3------|-2----2---------0----|-0-----0---0---0----|
D|-1-----0-----|---------------------|--------|---------------------|--------------------|
A|-------------|---------------------|--------|---------------------|--------------------|
E|-------------|---------------------|--------|---------------------|--------------------|


E|-3----3---------3----|-3------|-3----3---------3----|-3-----3---3---3----|-3----3---------3----|
B|-3----3---------2----|-2------|-1----1---------0----|-0-----0---1---2----|-3----3---------2----|
G|-0----0---------3----|-3------|-2----2---------0----|-0-----0---0---0----|-0----0---------3----|
D|---------------------|--------|---------------------|--------------------|---------------------|
A|---------------------|--------|---------------------|--------------------|---------------------|
E|---------------------|--------|---------------------|--------------------|---------------------|


E|-3------|-3----3---------3----|-3-----3---3---3----|-3----3---------3----|-3------|
B|-2------|-1----1---------0----|-0-----0---1---2----|-3----3---------2----|-2------|
G|-3------|-2----2---------0----|-0-----0---0---0----|-0----0---------3----|-3------|
D|--------|---------------------|--------------------|---------------------|--------|
A|--------|---------------------|--------------------|---------------------|--------|
E|--------|---------------------|--------------------|---------------------|--------|


E|-3----3---------3----|-3------|-3------|---------------------------|---------------------------|
B|-1----1---------0----|-0------|-0------|---------------------------|-----------------------1---|
G|-2----2---------0----|-0------|-0------|-3----3--------3-------3---|-3----3--------3-------2---|
D|----------------0----|-0------|-0------|-5----5----5-------5---5---|-5----5----5-----------3---|
A|---------------------|--------|--------|-6----6----------------6---|-6----6----------------3---|
E|---------------------|--------|--------|---------------------------|-----------------------1---|


E|---------------------------|---------------------------|---------------------------|
B|-----------------------1---|-----------------------3---|-3----3----------------3---|
G|-2---------------------2---|-----------1---1---1---3---|-3----3----------------3---|
D|-3----3----3---3---3---3---|-3----3----0---0---0---5---|-5----5--------5-------5---|
A|-3----3------------3---3---|-3----3----------------6---|-6----6----6-------6-------|
E|-1----1--------------------|-1----1--------------------|---------------------------|


E|---------------------------|---------------------------|------------------------|
B|-3----3----------------1---|-1-------------------------|-1----------------------|
G|-3----3----------------2---|-2---------------------2---|-2----------------------|
D|-5----5--------5-------3---|-3----3----------------3---|-3----3-----------3-----|
A|-6----6----6-------3---3---|-3----3----------------3---|-3----3-----------3-----|
E|-----------------------1---|-1----1----1---0---0---1---|-1----1---0-------1-----|


E|---------------------------|------------------------|---------------------------|
B|-----------------------3---|-3----3-----------------|------1----------------1---|
G|-3----3----------------3---|-3----3-------------2---|-2----2--------3-------2---|
D|-5----4----------------5---|-5----4---------3---3---|-3----3------------3---3---|
A|-6----5----6---6-----------|-6----5---------3---3---|-3----3----------------3---|
E|---------------------------|--------------------1---|-1----1----------------1---|


E|---------------------------|---------------------------|---------------------------|
B|------1------------1-------|-3----3----------------3---|-3----3----------------1---|
G|-2----2--------------------|-3----3----------------3---|-3----3----------------2---|
D|-3----3------------3-------|-5----5--------5-------5---|-5----5--------5-------3---|
A|-3----3----------------3---|-6----6----6-------6-------|-6----6----6-------3---3---|
E|-1----1----1---1-----------|---------------------------|-----------------------1---|


E|---------------------------|------------------------------|-3----3---------3----|
B|------1----------------1---|------1---1-------1-------1---|-3----3---------2----|
G|-2----2----------------2---|-2----2---2---2---2---2---2---|-0----0---------3----|
D|-3----3--------3-------3---|-3----3-------3-------3-------|---------------------|
A|-3----3------------3---3---|-3----3-------3-------3-------|---------------------|
E|-1----1----------------1---|-1----1-----------------------|---------------------|


E|-3------|-3----3---------3----|-3-----3---3---3----|-3----3---------3----|-3------|
B|-2------|-1----1---------0----|-0-----0---1---2----|-3----3---------2----|-2------|
G|-3------|-2----2---------0----|-0-----0---0---0----|-0----0---------3----|-3------|
D|--------|---------------------|--------------------|---------------------|--------|
A|--------|---------------------|--------------------|---------------------|--------|
E|--------|---------------------|--------------------|---------------------|--------|


E|-3----3---------3----|-3------|-3------|---------------------------------|---------------------------|
B|-1----1---------0----|-0------|-0------|---------------------------------|---------------------------|
G|-2----2---------0----|-0------|-0------|-------------------------1-------|---------------------------|
D|----------------0----|-0------|-0------|-------------------------0-------|---------------------------|
A|---------------------|--------|--------|-5---5---5---5---5-----------5---|-3---3---3-----------3-----|
E|---------------------|--------|--------|-3---3---3---3---3-----------3---|-1---1---1-----------1-----|


E|---------------------------------|---------------------|---------------------------------|
B|---------------------------------|---------------------|---------------------------------|
G|-----------------------------2---|-3-----3---2---------|-------------------------1-------|
D|-----------------------------0---|-1-----1---0---------|-------------------------0-------|
A|-3---3---3---3---3-------3-------|---------------------|-5---5---5---5---5-----------5---|
E|-0---0---0---0---0---------------|-----------------0---|-3---3---3---3---3-----------3---|


E|---------------------------|---------------------------------|-----------------|
B|---------------------------|---------------------------------|-----------------|
G|---------------------------|-----------------------------2---|-3-----3---2-----|
D|---------------------------|-----------------------------0---|-1-----1---0-----|
A|-3---3---3-----------3-----|-3---3---3---3---3-------3-------|-----------------|
E|-1---1---1-----------1-----|-0---0---0---0---0---------------|-----------------|


E|---------------------------------|---------------------------|---------------------------------|
B|---------------------------------|---------------------------|---------------------------------|
G|-------------------------1-------|---------------------------|-----------------------------2---|
D|-------------------------0-------|---------------------------|-----------------------------0---|
A|-5---5---5---5---5-----------5---|-3---3---3-----------3-----|-3---3---3---3---3-------3-------|
E|-3---3---3---3---3-----------3---|-1---1---1-----------1-----|-0---0---0---0---0---------------|


E|-------------|---------------------------------|------------------------|---------------------------------|
B|-------------|---------------------------------|------------------------|---------------------------------|
G|-3-----2-----|-------------------------1-------|------------------------|-----------------------------2---|
D|-1-----0-----|-------------------------0-------|------------------------|-----------------------------0---|
A|-------------|-5---5---5---5---5-----------5---|-3----3-----------3-----|-3---3---3---3---3-------3-------|
E|-------------|-3---3---3---3---3-----------3---|-1----1---1-------1-----|-0---0---0---0---0---------------|


E|-------------|-3----3---------3----|-3------|-3----3---------3----|-3-----3---3---3----|
B|-------------|-3----3---------2----|-2------|-1----1---------0----|-0-----0---1---2----|
G|-3-----2-----|-0----0---------3----|-3------|-2----2---------0----|-0-----0---0---0----|
D|-1-----0-----|---------------------|--------|---------------------|--------------------|
A|-------------|---------------------|--------|---------------------|--------------------|
E|-------------|---------------------|--------|---------------------|--------------------|


E|-3----3---------3----|-3------|-3----3---------3----|-3-----3---3---3----|-3----3---------3----|
B|-3----3---------2----|-2------|-1----1---------0----|-0-----0---1---2----|-3----3---------2----|
G|-0----0---------3----|-3------|-2----2---------0----|-0-----0---0---0----|-0----0---------3----|
D|---------------------|--------|---------------------|--------------------|---------------------|
A|---------------------|--------|---------------------|--------------------|---------------------|
E|---------------------|--------|---------------------|--------------------|---------------------|


E|-3------|-3----3---------3----|-3-----3---3---3----|-3----3---------3----|-3------|
B|-2------|-1----1---------0----|-0-----0---1---2----|-3----3---------2----|-2------|
G|-3------|-2----2---------0----|-0-----0---0---0----|-0----0---------3----|-3------|
D|--------|---------------------|--------------------|---------------------|--------|
A|--------|---------------------|--------------------|---------------------|--------|
E|--------|---------------------|--------------------|---------------------|--------|


E|-3----3---------3----|-3------|-3------|-3------|-3------|-3----------|-----------------|
B|-1----1---------0----|-0------|-0------|-0------|-0------|-0----------|-----------------|
G|-2----2---------0----|-0------|-0------|-0------|-0------|-0----------|-----------------|
D|----------------0----|-0------|-0------|-0------|-0------|-0----------|-7---------------|
A|---------------------|--------|--------|--------|--------|--------0---|-6---------------|
E|---------------------|--------|--------|--------|--------|--------0---|-----------------|





Track 2: Acoustic Guitar (Steel)

E|--------|--------|--------|--------|--------|--------|--------|--------|--------|
B|--------|--------|--------|--------|--------|--------|--------|--------|--------|
G|--------|--------|--------|--------|--------|--------|--------|--------|--------|
D|--------|--------|--------|--------|--------|--------|--------|--------|--------|
A|--------|--------|--------|--------|--------|--------|--------|--------|--------|
E|--------|--------|--------|--------|--------|--------|--------|--------|--------|


E|--------|--------|--------|--------|--------|--------|--------|--------|--------|
B|--------|--------|--------|--------|--------|--------|--------|--------|--------|
G|--------|--------|--------|--------|--------|--------|--------|--------|--------|
D|--------|--------|--------|--------|--------|--------|--------|--------|--------|
A|--------|--------|--------|--------|--------|--------|--------|--------|--------|
E|--------|--------|--------|--------|--------|--------|--------|--------|--------|


E|--------|--------|--------|--------|--------|--------|--------|--------|--------|
B|--------|--------|--------|--------|--------|--------|--------|--------|--------|
G|--------|--------|--------|--------|--------|--------|--------|--------|--------|
D|--------|--------|--------|--------|--------|--------|--------|--------|--------|
A|--------|--------|--------|--------|--------|--------|--------|--------|--------|
E|--------|--------|--------|--------|--------|--------|--------|--------|--------|


E|--------|--------|-0-----0---0-----0---|-0----0----0---0--------|-0-----0---0-----0---|
B|--------|--------|-3-----3---3-----3---|-3----3----3---3----3---|-3-----3---3-----3---|
G|--------|--------|-2---------0-----0---|-0----0----0---0----2---|-2---------0-----0---|
D|--------|--------|-0---------------0---|------------------------|-0---------------0---|
A|--------|--------|-----------3-----2---|-2----3----3------------|-----------3-----2---|
E|--------|--------|---------------------|------------------------|---------------------|


E|-0----0----0---0--------|-0-----0---0-----0---|-0----0----0---0--------|-0-----0---0-----0---|
B|-3----3----3---3----3---|-3-----3---3-----3---|-3----3----3---3----3---|-3-----3---3-----3---|
G|-0----0----0---0----2---|-2---------0-----0---|-0----0----0---0----2---|-2---------0-----0---|
D|------------------------|-0---------------0---|------------------------|-0---------------0---|
A|-2----3----3------------|-----------3-----2---|-2----3----3------------|-----------3-----2---|
E|------------------------|---------------------|------------------------|---------------------|


E|-0----0----0-----|---------------------------|------------------------------|------------------------|
B|-3----3----3-----|---------------------------|--------------------------1---|-1----1-------------1---|
G|-0----0----0-----|-3----3--------3---3---3---|-3----3---3-------3---3---2---|-2----2-------------2---|
D|-----------------|-5----5--------5---5---5---|-5----5---5-------5---5---3---|-3----3-------------3---|
A|-2----3----3-----|-6----6----------------6---|-6----6-------------------3---|-3----3---------3---3---|
E|-----------------|---------------------------|--------------------------1---|-1----1---------1---1---|


E|---------------------------|---------------------------|---------------------------|
B|-1----1----------------3---|-3----3----------------3---|-3----3----------------1---|
G|-2----2----------------3---|-3----3----------------3---|-3----3----------------2---|
D|-3----4--------5-------5---|-5----5--------5-------5---|-5----5--------5-------3---|
A|-3----3----3-------3-------|-6----6----6-------6-------|-6----6----6-------6---3---|
E|-1----2--------------------|---------------------------|-----------------------1---|


E|---------------------------|------------------------|---------------------------|
B|---------------------------|------------------------|-----------------------3---|
G|-2----2----------------2---|-2----2-----------2-----|-3----3----------------3---|
D|-3----3----------------3---|-3----3-----------3-----|-5----4----------------5---|
A|-3----3----------------3---|-3----3-----------3-----|-6----5----6---6-----------|
E|-1----1----1---0---0---1---|-1----1---0-------1-----|---------------------------|


E|------------------------|------------------------|------------------------|---------------------------|
B|-3----3-------------1---|------1-------------1---|------1-------------1---|-3----3----------------3---|
G|-3----3-------------2---|-2----2-------------2---|-2----2-------------2---|-3----3----------------3---|
D|-5----4---------3-------|-3----3-------------3---|-3----3---------3-------|-5----5--------5-------5---|
A|-6----5---------3-------|-3----3-------------3---|-3----3-----------------|-6----6----6-------6-------|
E|------------------------|-1----1-------------1---|-1----1-----------------|---------------------------|


E|---------------------------|------------------------|-----------------|--------|
B|-3----3--------------------|-1----1-------------1---|-----------1-----|--------|
G|-3----3----------------2---|-2----2-------------2---|-2---------2-----|--------|
D|-5----5------------3---3---|-3----3-------------3---|-3---------3-----|--------|
A|-6----6----6---6---3---3---|-3----3-------------3---|-3---------3-----|--------|
E|---------------------------|-1----1-------------1---|-1----1----1-----|--------|


E|--------|--------|--------|--------|--------|--------|--------|--------|--------|
B|--------|--------|--------|--------|--------|--------|--------|--------|--------|
G|--------|--------|--------|--------|--------|--------|--------|--------|--------|
D|--------|--------|--------|--------|--------|--------|--------|--------|--------|
A|--------|--------|--------|--------|--------|--------|--------|--------|--------|
E|--------|--------|--------|--------|--------|--------|--------|--------|--------|


E|--------|--------|--------|--------|--------|--------|--------|--------|--------|
B|--------|--------|--------|--------|--------|--------|--------|--------|--------|
G|--------|--------|--------|--------|--------|--------|--------|--------|--------|
D|--------|--------|--------|--------|--------|--------|--------|--------|--------|
A|--------|--------|--------|--------|--------|--------|--------|--------|--------|
E|--------|--------|--------|--------|--------|--------|--------|--------|--------|


E|--------|--------|-0-----0---0-----0---|-0----0----0---0--------|-0-----0---0-----0---|
B|--------|--------|-3-----3---3-----3---|-3----3----3---3----3---|-3-----3---3-----3---|
G|--------|--------|-2---------0-----0---|-0----0----0---0----2---|-2---------0-----0---|
D|--------|--------|-0---------------0---|------------------------|-0---------------0---|
A|--------|--------|-----------3-----2---|-2----3----3------------|-----------3-----2---|
E|--------|--------|---------------------|------------------------|---------------------|


E|-0----0----0---0--------|-0-----0---0-----0---|-0----0----0---0--------|-0-----0---0-----0---|
B|-3----3----3---3----3---|-3-----3---3-----3---|-3----3----3---3----3---|-3-----3---3-----3---|
G|-0----0----0---0----2---|-2---------0-----0---|-0----0----0---0----2---|-2---------0-----0---|
D|------------------------|-0---------------0---|------------------------|-0---------------0---|
A|-2----3----3------------|-----------3-----2---|-2----3----3------------|-----------3-----2---|
E|------------------------|---------------------|------------------------|---------------------|


E|-0----0----0-----|---------------------------|------------------------------|------------------------|
B|-3----3----3-----|---------------------------|--------------------------1---|-1----1-------------1---|
G|-0----0----0-----|-3----3--------3---3---3---|-3----3---3-------3---3---2---|-2----2-------------2---|
D|-----------------|-5----5--------5---5---5---|-5----5---5-------5---5---3---|-3----3-------------3---|
A|-2----3----3-----|-6----6----------------6---|-6----6-------------------3---|-3----3---------3---3---|
E|-----------------|---------------------------|--------------------------1---|-1----1---------1---1---|


E|---------------------------|---------------------------|---------------------------|
B|-1----1----------------3---|-3----3----------------3---|-3----3----------------1---|
G|-2----2----------------3---|-3----3----------------3---|-3----3----------------2---|
D|-3----4--------5-------5---|-5----5--------5-------5---|-5----5--------5-------3---|
A|-3----3----3-------3-------|-6----6----6-------6-------|-6----6----6-------6---3---|
E|-1----2--------------------|---------------------------|-----------------------1---|


E|---------------------------|------------------------|---------------------------|
B|---------------------------|------------------------|-----------------------3---|
G|-2----2----------------2---|-2----2-----------2-----|-3----3----------------3---|
D|-3----3----------------3---|-3----3-----------3-----|-5----4----------------5---|
A|-3----3----------------3---|-3----3-----------3-----|-6----5----6---6-----------|
E|-1----1----1---0---0---1---|-1----1---0-------1-----|---------------------------|


E|------------------------|------------------------|------------------------|---------------------------|
B|-3----3-------------1---|------1-------------1---|------1-------------1---|-3----3----------------3---|
G|-3----3-------------2---|-2----2-------------2---|-2----2-------------2---|-3----3----------------3---|
D|-5----4---------3-------|-3----3-------------3---|-3----3---------3-------|-5----5--------5-------5---|
A|-6----5---------3-------|-3----3-------------3---|-3----3-----------------|-6----6----6-------6-------|
E|------------------------|-1----1-------------1---|-1----1-----------------|---------------------------|


E|---------------------------|------------------------|-----------------|---------------------------------|
B|-3----3--------------------|-1----1-------------1---|-----------1-----|-------------3---3---------------|
G|-3----3----------------2---|-2----2-------------2---|-2---------2-----|-----2---4-----------4-------4---|
D|-5----5------------3---3---|-3----3-------------3---|-3---------3-----|-5-----------------------5-------|
A|-6----6----6---6---3---3---|-3----3-------------3---|-3---------3-----|---------------------------------|
E|---------------------------|-1----1-------------1---|-1----1----1-----|---------------------------------|


E|------------------------------|------------------------------|---------------------------|
B|---------3--------------------|---------1----1---------------|---------1----1--3---1-----|
G|-----4----------------0---2---|-----0------------0-------0---|-----0---------------------|
D|-3----------------3-----------|-2--------------------2-------|-1-------------------------|
A|------------------------------|------------------------------|---------------------------|
E|------------------------------|------------------------------|---------------------------|


E|---------------------------------|---------------------------|------------------------------|
B|-------------3-------------------|---------3-----------------|---------1----1---------------|
G|-----2---3-------3-------3-------|-----3-----------------2---|-----0------------0-------0---|
D|-5-------------------5-------5---|-3----------------5--------|-2--------------------2-------|
A|---------------------------------|---------------------------|------------------------------|
E|---------------------------------|---------------------------|------------------------------|


E|------------------------------|---------------------------------|------------------------------|
B|---------1---3---3---1--------|-------------3---3---------------|---------3--------------------|
G|-----0--------------------2---|-----2---4-----------4-------4---|-----4----------------0---2---|
D|-1----------------------------|-5-----------------------5-------|-3----------------3-----------|
A|------------------------------|---------------------------------|------------------------------|
E|------------------------------|---------------------------------|------------------------------|


E|------------------------------|---------------------------|---------------------------------|
B|---------1----1---------------|---------1----1--3---1-----|-------------3-------------------|
G|-----0------------0-------0---|-----0---------------------|-----2---3-------3-------3-------|
D|-2--------------------2-------|-1-------------------------|-5-------------------5-----------|
A|------------------------------|---------------------------|-----------------------------5---|
E|------------------------------|---------------------------|---------------------------------|


E|------------------------------|---------------------------------|-------------|--------|
B|---------3--------------------|---------1-------1---------------|-3-----1-----|--------|
G|-----3---------------0----2---|-----0---------------0-------0---|-4-----2-----|--------|
D|-3-----------3----------------|-2-----------2-----------2-------|-5-----0-----|--------|
A|------------------------------|---------------------------------|-------------|--------|
E|------------------------------|---------------------------------|-------------|--------|


E|--------|--------|--------|-3----3---------3----|-3------|-3----3---------3----|
B|--------|--------|--------|-3----3---------2----|-2------|-1----1---------0----|
G|--------|--------|--------|-0----0---------3----|-3------|-2----2---------0----|
D|--------|--------|--------|---------------------|--------|---------------------|
A|--------|--------|--------|---------------------|--------|---------------------|
E|--------|--------|--------|---------------------|--------|---------------------|


E|-3-----3---3---3----|--------|--------|--------|--------|--------|--------|--------|
B|-0-----0---1---2----|--------|--------|--------|--------|--------|--------|--------|
G|-0-----0---0---0----|--------|--------|--------|--------|--------|--------|--------|
D|--------------------|--------|--------|--------|--------|--------|--------|--------|
A|--------------------|--------|--------|--------|--------|--------|--------|--------|
E|--------------------|--------|--------|--------|--------|--------|--------|--------|


E|--------|--------|---------------------------|------------------------------|------------------------|
B|--------|--------|---------------------------|--------------------------1---|-1----1-------------1---|
G|--------|--------|-3----3--------3---3---3---|-3----3---3-------3---3---2---|-2----2-------------2---|
D|--------|--------|-5----5--------5---5---5---|-5----5---5-------5---5---3---|-3----3-------------3---|
A|--------|--------|-6----6----------------6---|-6----6-------------------3---|-3----3---------3---3---|
E|--------|--------|---------------------------|--------------------------1---|-1----1---------1---1---|


E|---------------------------|---------------------------|---------------------------|
B|-1----1----------------3---|-3----3----------------3---|-3----3----------------1---|
G|-2----2----------------3---|-3----3----------------3---|-3----3----------------2---|
D|-3----4--------5-------5---|-5----5--------5-------5---|-5----5--------5-------3---|
A|-3----3----3-------3-------|-6----6----6-------6-------|-6----6----6-------6---3---|
E|-1----2--------------------|---------------------------|-----------------------1---|


E|---------------------------|------------------------|---------------------------|
B|---------------------------|------------------------|-----------------------3---|
G|-2----2----------------2---|-2----2-----------2-----|-3----3----------------3---|
D|-3----3----------------3---|-3----3-----------3-----|-5----4----------------5---|
A|-3----3----------------3---|-3----3-----------3-----|-6----5----6---6-----------|
E|-1----1----1---0---0---1---|-1----1---0-------1-----|---------------------------|


E|------------------------|------------------------|------------------------|---------------------------|
B|-3----3-------------1---|------1-------------1---|------1-------------1---|-3----3----------------3---|
G|-3----3-------------2---|-2----2-------------2---|-2----2-------------2---|-3----3----------------3---|
D|-5----4---------3-------|-3----3-------------3---|-3----3---------3-------|-5----5--------5-------5---|
A|-6----5---------3-------|-3----3-------------3---|-3----3-----------------|-6----6----6-------6-------|
E|------------------------|-1----1-------------1---|-1----1-----------------|---------------------------|


E|---------------------------|------------------------|-----------------|--------|
B|-3----3--------------------|-1----1-------------1---|-----------1-----|--------|
G|-3----3----------------2---|-2----2-------------2---|-2---------2-----|--------|
D|-5----5------------3---3---|-3----3-------------3---|-3---------3-----|--------|
A|-6----6----6---6---3---3---|-3----3-------------3---|-3---------3-----|--------|
E|---------------------------|-1----1-------------1---|-1----1----1-----|--------|


E|--------|--------|--------|--------|--------|--------|--------|--------|---------------------------------|
B|--------|--------|--------|--------|--------|--------|--------|--------|-------------3---3---------------|
G|--------|--------|--------|--------|--------|--------|--------|--------|-----2---4-----------4-------4---|
D|--------|--------|--------|--------|--------|--------|--------|--------|-5-----------------------5-------|
A|--------|--------|--------|--------|--------|--------|--------|--------|---------------------------------|
E|--------|--------|--------|--------|--------|--------|--------|--------|---------------------------------|


E|------------------------------|------------------------------|---------------------------|
B|---------3--------------------|---------1----1---------------|---------1----1--3---1-----|
G|-----4----------------0---2---|-----0------------0-------0---|-----0---------------------|
D|-3----------------3-----------|-2--------------------2-------|-1-------------------------|
A|------------------------------|------------------------------|---------------------------|
E|------------------------------|------------------------------|---------------------------|


E|---------------------------------|---------------------------|------------------------------|
B|-------------3-------------------|---------3-----------------|---------1----1---------------|
G|-----2---3-------3-------3-------|-----3-----------------2---|-----0------------0-------0---|
D|-5-------------------5-------5---|-3----------------5--------|-2--------------------2-------|
A|---------------------------------|---------------------------|------------------------------|
E|---------------------------------|---------------------------|------------------------------|


E|------------------------------|---------------------------------|------------------------------|
B|---------1---3---3---1--------|-------------3---3---------------|---------3--------------------|
G|-----0--------------------2---|-----2---4-----------4-------4---|-----4----------------0---2---|
D|-1----------------------------|-5-----------------------5-------|-3----------------3-----------|
A|------------------------------|---------------------------------|------------------------------|
E|------------------------------|---------------------------------|------------------------------|


E|------------------------------|---------------------------|---------------------------------|
B|---------1----1---------------|---------1----1--3---1-----|-------------3-------------------|
G|-----0------------0-------0---|-----0---------------------|-----2---3-------3-------3-------|
D|-2--------------------2-------|-1-------------------------|-5-------------------5-----------|
A|------------------------------|---------------------------|-----------------------------5---|
E|------------------------------|---------------------------|---------------------------------|


E|------------------------------|---------------------------------|-------------|--------|
B|---------3--------------------|---------1-------1---------------|-3-----1-----|--------|
G|-----3---------------0----2---|-----0---------------0-------0---|-4-----2-----|--------|
D|-3-----------3----------------|-2-----------2-----------2-------|-5-----0-----|--------|
A|------------------------------|---------------------------------|-------------|--------|
E|------------------------------|---------------------------------|-------------|--------|


E|--------|--------|--------|-3----3---------3----|-3------|-3----3---------3----|
B|--------|--------|--------|-3----3---------2----|-2------|-1----1---------0----|
G|--------|--------|--------|-0----0---------3----|-3------|-2----2---------0----|
D|--------|--------|--------|---------------------|--------|---------------------|
A|--------|--------|--------|---------------------|--------|---------------------|
E|--------|--------|--------|---------------------|--------|---------------------|


E|-3-----3---3---3----|--------|--------|--------|--------|--------|--------|--------|
B|-0-----0---1---2----|--------|--------|--------|--------|--------|--------|--------|
G|-0-----0---0---0----|--------|--------|--------|--------|--------|--------|--------|
D|--------------------|--------|--------|--------|--------|--------|--------|--------|
A|--------------------|--------|--------|--------|--------|--------|--------|--------|
E|--------------------|--------|--------|--------|--------|--------|--------|--------|


E|--------|--------|--------|--------|--------|--------|
B|--------|--------|--------|--------|--------|--------|
G|--------|--------|--------|--------|--------|--------|
D|--------|--------|--------|--------|--------|--------|
A|--------|--------|--------|--------|--------|--------|
E|--------|--------|--------|--------|--------|--------|





Track 3: Untitled

G|--------|--------|--------|--------|--------|--------|--------|--------|--------|
D|--------|--------|--------|--------|--------|--------|--------|--------|--------|
A|--------|--------|--------|--------|--------|--------|--------|--------|--------|
E|--------|--------|--------|--------|--------|--------|--------|--------|--------|


G|--------|--------|--------|--------|--------|--------|--------|--------|--------|
D|--------|--------|--------|--------|--------|--------|--------|--------|--------|
A|--------|--------|--------|--------|--------|--------|--------|--------|--------|
E|--------|--------|--------|--------|--------|--------|--------|--------|--------|


G|--------|--------|--------|--------|--------|--------|--------|--------|--------|
D|--------|--------|--------|--------|--------|--------|--------|--------|--------|
A|--------|--------|--------|--------|--------|--------|--------|--------|--------|
E|--------|--------|--------|--------|--------|--------|--------|--------|--------|


G|--------|--------|--------|--------|--------|--------|--------|--------|--------|
D|--------|--------|--------|--------|--------|--------|--------|--------|--------|
A|--------|--------|--------|--------|--------|--------|--------|--------|--------|
E|--------|--------|--------|--------|--------|--------|--------|--------|--------|


G|--------|--------|--------|--------|--------|--------|--------|--------|--------|
D|--------|--------|--------|--------|--------|--------|--------|--------|--------|
A|--------|--------|--------|--------|--------|--------|--------|--------|--------|
E|--------|--------|--------|--------|--------|--------|--------|--------|--------|


G|--------|--------|--------|--------|--------|--------|--------|--------|--------|
D|--------|--------|--------|--------|--------|--------|--------|--------|--------|
A|--------|--------|--------|--------|--------|--------|--------|--------|--------|
E|--------|--------|--------|--------|--------|--------|--------|--------|--------|


G|--------|--------|--------|--------|--------|--------|--------|--------|--------|
D|--------|--------|--------|--------|--------|--------|--------|--------|--------|
A|--------|--------|--------|--------|--------|--------|--------|--------|--------|
E|--------|--------|--------|--------|--------|--------|--------|--------|--------|


G|--------|--------|--------|--------|--------|--------|--------|--------|--------|
D|--------|--------|--------|--------|--------|--------|--------|--------|--------|
A|--------|--------|--------|--------|--------|--------|--------|--------|--------|
E|--------|--------|--------|--------|--------|--------|--------|--------|--------|


G|--------|--------|--------|--------|--------|--------|--------|--------|--------|
D|--------|--------|--------|--------|--------|--------|--------|--------|--------|
A|--------|--------|--------|--------|--------|--------|--------|--------|--------|
E|--------|--------|--------|--------|--------|--------|--------|--------|--------|


G|--------|--------|--------|--------|--------|--------|--------|--------|--------|
D|--------|--------|--------|--------|--------|--------|--------|--------|--------|
A|--------|--------|--------|--------|--------|--------|--------|--------|--------|
E|--------|--------|--------|--------|--------|--------|--------|--------|--------|


G|--------|--------|--------|--------|--------|--------|--------|--------|--------|
D|--------|--------|--------|--------|--------|--------|--------|--------|--------|
A|--------|--------|--------|--------|--------|--------|--------|--------|--------|
E|--------|--------|--------|--------|--------|--------|--------|--------|--------|


G|--------|--------|--------|--------|--------|--------|--------|--------|--------|
D|--------|--------|--------|--------|--------|--------|--------|--------|--------|
A|--------|--------|--------|--------|--------|--------|--------|--------|--------|
E|--------|--------|--------|--------|--------|--------|--------|--------|--------|


G|--------|--------|--------|--------|--------|--------|--------|--------|--------|
D|--------|--------|--------|--------|--------|--------|--------|--------|--------|
A|--------|--------|--------|--------|--------|--------|--------|--------|--------|
E|--------|--------|--------|--------|--------|--------|--------|--------|--------|


G|--------|--------|--------|--------|--------|--------|--------|--------|--------|
D|--------|--------|--------|--------|--------|--------|--------|--------|--------|
A|--------|--------|--------|--------|--------|--------|--------|--------|--------|
E|--------|--------|--------|--------|--------|--------|--------|--------|--------|


G|--------|--------|--------|--------|--------|--------|--------|--------|--------|
D|--------|--------|--------|--------|--------|--------|--------|--------|--------|
A|--------|--------|--------|--------|--------|--------|--------|--------|--------|
E|--------|--------|--------|--------|--------|--------|--------|--------|--------|


G|--------|--------|--------|--------|--------|--------|--------|--------|--------|
D|--------|--------|--------|--------|--------|--------|--------|--------|--------|
A|--------|--------|--------|--------|--------|--------|--------|--------|--------|
E|--------|--------|--------|--------|--------|--------|--------|--------|--------|


G|--------|--------|--------|--------|--------|--------|--------|--------|--------|
D|--------|--------|--------|--------|--------|--------|--------|--------|--------|
A|--------|--------|--------|--------|--------|--------|--------|--------|--------|
E|--------|--------|--------|--------|--------|--------|--------|--------|--------|


G|--------|--------|--------|--------|--------|--------|--------|--------|--------|
D|--------|--------|--------|--------|--------|--------|--------|--------|--------|
A|--------|--------|--------|--------|--------|--------|--------|--------|--------|
E|--------|--------|--------|--------|--------|--------|--------|--------|--------|


G|--------|--------|--------|--------|--------|--------|--------|--------|--------|
D|--------|--------|--------|--------|--------|--------|--------|--------|--------|
A|--------|--------|--------|--------|--------|--------|--------|--------|--------|
E|--------|--------|--------|--------|--------|--------|--------|--------|--------|


G|--------|--------|--------|--------|--------|--------|--------|--------|--------|
D|--------|--------|--------|--------|--------|--------|--------|--------|--------|
A|--------|--------|--------|--------|--------|--------|--------|--------|--------|
E|--------|--------|--------|--------|--------|--------|--------|--------|--------|


G|--------|--------|--------|--------|--------|--------|--------|--------|--------|
D|--------|--------|--------|--------|--------|--------|--------|--------|--------|
A|--------|--------|--------|--------|--------|--------|--------|--------|--------|
E|--------|--------|--------|--------|--------|--------|--------|--------|--------|


G|--------|--------|--------|--------|
D|--------|--------|--------|--------|
A|--------|--------|--------|--------|
E|--------|--------|--------|--------|