Menu:

 

Search:

 

stone temple pilots - plush:

 



Title: Plush
Artist: 
Album: Core
Author: STP


Track 1: Guitar 1

E|-3---3-------3---3-----|-3---3-------3---3----3--3--3---|-3---3-------3---3-----|
B|-3---3-------2---2-----|-1---1-------0---0----0--1--2---|-3---3-------2---2-----|
G|-0---0-------3---3-----|-2---2-------0---0----0--0--0---|-0---0-------3---3-----|
D|-----------------------|--------------------------------|-----------------------|
A|-----------------------|--------------------------------|-----------------------|
E|-----------------------|--------------------------------|-----------------------|


E|-3---3-------3---3----3--3--3---|-3---3-------3---3-----|-3---3-------3---3----3--3--3---|
B|-1---1-------0---0----0--1--2---|-3---3-------2---2-----|-1---1-------0---0----0--1--2---|
G|-2---2-------0---0----0--0--0---|-0---0-------3---3-----|-2---2-------0---0----0--0--0---|
D|--------------------------------|-----------------------|--------------------------------|
A|--------------------------------|-----------------------|--------------------------------|
E|--------------------------------|-----------------------|--------------------------------|


E|-3---3-------3---3-----|-3---3-------3---3-----|-3------|-3---3-------------2---2-------------|
B|-3---3-------2---2-----|-1---1-------0---0-----|-0------|-3---3---3---3-----3---3---3---3-----|
G|-0---0-------3---3-----|-2---2-------0---0-----|-0------|-0---0---0---0--2--2---2---2---2-----|
D|-----------------------|-----------------------|--------|-0---0---0---0--0--0---0---0---0--3--|
A|-----------------------|-----------------------|--------|-2---2---2---2-------------0---0--3--|
E|-----------------------|-----------------------|--------|-3---3----------2--2---2----------1--|


E|-1---1-------------0---0-------------|-----------------------------------|-3---3-------------2---2-------------|
B|-1---1---1---1-----1---1---1--1--3---|-3---3---3---3--3--3---3---3-------|-3---3---3---3-----3---3---3---3-----|
G|-2---2---2---2--0--0---0---0--0--3---|-3---3---3---3--3--3---3---3--2----|-0---0---0---0--2--2---2---2---2-----|
D|-3---3---3---3--2--2---2---2--2--5---|-5---5---5---5--5--5---5---5--3----|-0---0---0---0--0--0---0---0---0--3--|
A|-3---3---3---3--3--3---3---3--3--6---|-6---6---6---6--6--6---6---6--3----|-2---2---2---2-------------0---0--3--|
E|-1---1-------------------------------|------------------------------1----|-3---3----------2--2---2----------1--|


E|-1---1-------------0---0-------------|-----------------------------------|-0----0---0--0--0--0--0----0---|
B|-1---1---1---1-----1---1---1--1--3---|-3---3---3---3--3--3---3---3-------|-3----3---3--3--3--3--3----3---|
G|-2---2---2---2--0--0---0---0--0--3---|-3---3---3---3--3--3---3---3--2----|-2----0---0--0--0--0--0----0---|
D|-3---3---3---3--2--2---2---2--2--5---|-5---5---5---5--5--5---5---5--3----|-0-----------------------------|
A|-3---3---3---3--3--3---3---3--3--6---|-6---6---6---6--6--6---6---6--3----|------3---3--2--2--2--3----3---|
E|-1---1-------------------------------|------------------------------1----|-------------------------------|


E|-0----0---0--0--0--0--0----0---|-0----0---0--0--0--0--0----0---|-0----0---0--0--0--0--0----0---|
B|-3----3---3--3--3--3--3----3---|-3----3---3--3--3--3--3----3---|-3----3---3--3--3--3--3----3---|
G|-2----0---0--0--0--0--0----0---|-2----0---0--0--0--0--0----0---|-2----0---0--0--0--0--0----0---|
D|-0-----------------------------|-0-----------------------------|-0-----------------------------|
A|------3---3--2--2--2--3----3---|------3---3--2--2--2--3----3---|------3---3--2--2--2--3----3---|
E|-------------------------------|-------------------------------|-------------------------------|


E|--------------------------------------1--|-1---1------------1--1---1---------------|
B|-3---3---3--3--3--3--3---3---3--3--3--1--|-1---1---1--1--1--1--1---1---1--1--1--3--|
G|-3---3---3--3--3--3--3---3---3--3--3--2--|-2---2---2--2--2--2--2---2---2--2--2--3--|
D|-5---5---5--5--5--5--5---5---5--5--5--3--|-3---3---3--3--3--3--3---3---3--3--3--5--|
A|-6---6---6--6--6--6--6---6---6--6--6--3--|-3---3---3--3--3--3--3---3---3--3--3--6--|
E|--------------------------------------1--|-1---1------------1--1---1---------------|


E|--------------------------------------1--|-1---1------------1--1--------------1--1--1--|
B|-3---3---3--3--3--3--3---3---3--3--3--1--|-1---1---1--1--1--1--1--1--1--1--1--1--1--1--|
G|-3---3---3--3--3--3--3---3---3--3--3--2--|-2---2---2--2--2--2--2--2--2--2--2--2--2--2--|
D|-5---5---5--5--5--5--5---5---5--5--5--3--|-3---3---3--3--3--3--3--3--3--3--3--3--3--3--|
A|-6---6---6--6--6--6--6---6---6--6--6--3--|-3---3---3--3--3--3--3--3--3--3--3--3--3--3--|
E|--------------------------------------1--|-1---1------------1--1--------------1--1--1--|


E|--------------------------------------1--|-1---1------------1--1---1---------------|
B|-3---3---3--3--3--3--3---3---3--3--3--1--|-1---1---1--1--1--1--1---1---1--1--1--3--|
G|-3---3---3--3--3--3--3---3---3--3--3--2--|-2---2---2--2--2--2--2---2---2--2--2--3--|
D|-5---5---5--5--5--5--5---5---5--5--5--3--|-3---3---3--3--3--3--3---3---3--3--3--5--|
A|-6---6---6--6--6--6--6---6---6--6--6--3--|-3---3---3--3--3--3--3---3---3--3--3--6--|
E|--------------------------------------1--|-1---1------------1--1---1---------------|


E|--------------------------------------1--|-1---1------------1--1---1---1--1--1--1--|
B|-3---3---3--3--3--3--3---3---3--3--3--1--|-1---1---1--1--1--1--1---1---1--1--1--1--|
G|-3---3---3--3--3--3--3---3---3--3--3--2--|-2---2---2--2--2--2--2---2---2--2--2--2--|
D|-5---5---5--5--5--5--5---5---5--5--5--3--|-3---3---3--3--3--3--3---3---3--3--3--3--|
A|-6---6---6--6--6--6--6---6---6--6--6--3--|-3---3---3--3--3--3--3---3---3--3--3--3--|
E|--------------------------------------1--|-1---1------------1--1---1---1--1--1--1--|


E|-3---3-------3---3-----|-3---3-------3---3----3--3--3---|-3---3-------3---3-----|
B|-3---3-------2---2-----|-1---1-------0---0----0--1--2---|-3---3-------2---2-----|
G|-0---0-------3---3-----|-2---2-------0---0----0--0--0---|-0---0-------3---3-----|
D|-----------------------|--------------------------------|-----------------------|
A|-----------------------|--------------------------------|-----------------------|
E|-----------------------|--------------------------------|-----------------------|


E|-3---3-------3---3-----|-3------|-3---3-------------2---2-------------|-1---1-------------0---0-------------|
B|-1---1-------0---0-----|-0------|-3---3---3---3-----3---3---3---3-----|-1---1---1---1-----1---1---1--1--3---|
G|-2---2-------0---0-----|-0------|-0---0---0---0--2--2---2---2---2-----|-2---2---2---2--0--0---0---0--0--3---|
D|-----------------------|--------|-0---0---0---0--0--0---0---0---0--3--|-3---3---3---3--2--2---2---2--2--5---|
A|-----------------------|--------|-2---2---2---2-------------0---0--3--|-3---3---3---3--3--3---3---3--3--6---|
E|-----------------------|--------|-3---3----------2--2---2----------1--|-1---1-------------------------------|


E|-----------------------------------|-3---3-------------2---2-------------|-1---1-------------0---0-------------|
B|-3---3---3---3--3--3---3---3-------|-3---3---3---3-----3---3---3---3-----|-1---1---1---1-----1---1---1--1--3---|
G|-3---3---3---3--3--3---3---3--2----|-0---0---0---0--2--2---2---2---2-----|-2---2---2---2--0--0---0---0--0--3---|
D|-5---5---5---5--5--5---5---5--3----|-0---0---0---0--0--0---0---0---0--3--|-3---3---3---3--2--2---2---2--2--5---|
A|-6---6---6---6--6--6---6---6--3----|-2---2---2---2-------------0---0--3--|-3---3---3---3--3--3---3---3--3--6---|
E|------------------------------1----|-3---3----------2--2---2----------1--|-1---1-------------------------------|


E|-----------------------------------|-0----0---0--0--0--0--0----0---|-0----0---0--0--0--0--0----0---|
B|-3---3---3---3--3--3---3---3-------|-3----3---3--3--3--3--3----3---|-3----3---3--3--3--3--3----3---|
G|-3---3---3---3--3--3---3---3--2----|-2----0---0--0--0--0--0----0---|-2----0---0--0--0--0--0----0---|
D|-5---5---5---5--5--5---5---5--3----|-0-----------------------------|-0-----------------------------|
A|-6---6---6---6--6--6---6---6--3----|------3---3--2--2--2--3----3---|------3---3--2--2--2--3----3---|
E|------------------------------1----|-------------------------------|-------------------------------|


E|-0----0---0--0--0--0--0----0---|-0----0---0--0--0--0--0----0---|--------------------------------------1--|
B|-3----3---3--3--3--3--3----3---|-3----3---3--3--3--3--3----3---|-3---3---3--3--3--3--3---3---3--3--3--1--|
G|-2----0---0--0--0--0--0----0---|-2----0---0--0--0--0--0----0---|-3---3---3--3--3--3--3---3---3--3--3--2--|
D|-0-----------------------------|-0-----------------------------|-5---5---5--5--5--5--5---5---5--5--5--3--|
A|------3---3--2--2--2--3----3---|------3---3--2--2--2--3----3---|-6---6---6--6--6--6--6---6---6--6--6--3--|
E|-------------------------------|-------------------------------|--------------------------------------1--|


E|-1---1------------1--1---1---------------|--------------------------------------1--|
B|-1---1---1--1--1--1--1---1---1--1--1--3--|-3---3---3--3--3--3--3---3---3--3--3--1--|
G|-2---2---2--2--2--2--2---2---2--2--2--3--|-3---3---3--3--3--3--3---3---3--3--3--2--|
D|-3---3---3--3--3--3--3---3---3--3--3--5--|-5---5---5--5--5--5--5---5---5--5--5--3--|
A|-3---3---3--3--3--3--3---3---3--3--3--6--|-6---6---6--6--6--6--6---6---6--6--6--3--|
E|-1---1------------1--1---1---------------|--------------------------------------1--|


E|-1---1------------1--1--------------1--1--1--|--------------------------------------1--|
B|-1---1---1--1--1--1--1--1--1--1--1--1--1--1--|-3---3---3--3--3--3--3---3---3--3--3--1--|
G|-2---2---2--2--2--2--2--2--2--2--2--2--2--2--|-3---3---3--3--3--3--3---3---3--3--3--2--|
D|-3---3---3--3--3--3--3--3--3--3--3--3--3--3--|-5---5---5--5--5--5--5---5---5--5--5--3--|
A|-3---3---3--3--3--3--3--3--3--3--3--3--3--3--|-6---6---6--6--6--6--6---6---6--6--6--3--|
E|-1---1------------1--1--------------1--1--1--|--------------------------------------1--|


E|-1---1------------1--1---1---------------|--------------------------------------1--|
B|-1---1---1--1--1--1--1---1---1--1--1--3--|-3---3---3--3--3--3--3---3---3--3--3--1--|
G|-2---2---2--2--2--2--2---2---2--2--2--3--|-3---3---3--3--3--3--3---3---3--3--3--2--|
D|-3---3---3--3--3--3--3---3---3--3--3--5--|-5---5---5--5--5--5--5---5---5--5--5--3--|
A|-3---3---3--3--3--3--3---3---3--3--3--6--|-6---6---6--6--6--6--6---6---6--6--6--3--|
E|-1---1------------1--1---1---------------|--------------------------------------1--|


E|-1---1------------1--1---1---1--1--1--1--|-----------------------------------------|
B|-1---1---1--1--1--1--1---1---1--1--1--1--|-----------------------------------------|
G|-2---2---2--2--2--2--2---2---2--2--2--2--|---------------------------------2-------|
D|-3---3---3--3--3--3--3---3---3--3--3--3--|---------------------------------3-------|
A|-3---3---3--3--3--3--3---3---3--3--3--3--|-5--5--5--5--5------5--3--3--3---3--3----|
E|-1---1------------1--1---1---1--1--1--1--|-3--3--3--3--3------3--1--1--1------1----|


E|-------------------------------------------|-----------------------------------------|
B|-------------------------------------------|-----------------------------------------|
G|-------------------------------------------|---------------------------------2-------|
D|------------------7--8--8--8--8--7--7--7---|---------------------------------3-------|
A|-3--3--3--3--3----5--6--6--6--6--5--5--5---|-5--5--5--5--5------5--3--3--3---3--3----|
E|-0--0--0--0--0-----------------------------|-3--3--3--3--3------3--1--1--1------1----|


E|-------------------------------------------|-----------------------------------------|
B|-------------------------------------------|-----------------------------------------|
G|-------------------------------------------|---------------------------------2-------|
D|------------------7--8--8--8--8--7--7--7---|---------------------------------3-------|
A|-3--3--3--3--3----5--6--6--6--6--5--5--5---|-5--5--5--5--5------5--3--3--3---3--3----|
E|-0--0--0--0--0-----------------------------|-3--3--3--3--3------3--1--1--1------1----|


E|-------------------------------------------|-----------------------------------------|
B|-------------------------------------------|-----------------------------------------|
G|-------------------------------------------|---------------------------------2-------|
D|------------------7--8--8--8--8--7--7--7---|---------------------------------3-------|
A|-3--3--3--3--3----5--6--6--6--6--5--5--5---|-5--5--5--5--5------5--3--3--3---3--3----|
E|-0--0--0--0--0-----------------------------|-3--3--3--3--3------3--1--1--1------1----|


E|-------------------------------|-3---3-------3---3-----|-3---3-------3---3----3--3--3---|
B|-------------------------------|-3---3-------2---2-----|-1---1-------0---0----0--1--2---|
G|-------------------------------|-0---0-------3---3-----|-2---2-------0---0----0--0--0---|
D|------------------7--8----7----|-----------------------|--------------------------------|
A|-3--3--3--3--3----5--6----5----|-----------------------|--------------------------------|
E|-0--0--0--0--0-----------------|-----------------------|--------------------------------|


E|-3---3-------3---3-----|-3---3-------3---3----3--3--3---|-3---3-------3---3-----|
B|-3---3-------2---2-----|-1---1-------0---0----0--1--2---|-3---3-------2---2-----|
G|-0---0-------3---3-----|-2---2-------0---0----0--0--0---|-0---0-------3---3-----|
D|-----------------------|--------------------------------|-----------------------|
A|-----------------------|--------------------------------|-----------------------|
E|-----------------------|--------------------------------|-----------------------|


E|-3---3-------3---3----3--3--3---|-3---3-------3---3-----|-3---3-------3---3-----|
B|-1---1-------0---0----0--1--2---|-3---3-------2---2-----|-1---1-------0---0-----|
G|-2---2-------0---0----0--0--0---|-0---0-------3---3-----|-2---2-------0---0-----|
D|--------------------------------|-----------------------|-----------------------|
A|--------------------------------|-----------------------|-----------------------|
E|--------------------------------|-----------------------|-----------------------|


E|-3------|--------------------------------------1--|-1---1------------1--1---1---------------|
B|-0------|-3---3---3--3--3--3--3---3---3--3--3--1--|-1---1---1--1--1--1--1---1---1--1--1--3--|
G|-0------|-3---3---3--3--3--3--3---3---3--3--3--2--|-2---2---2--2--2--2--2---2---2--2--2--3--|
D|--------|-5---5---5--5--5--5--5---5---5--5--5--3--|-3---3---3--3--3--3--3---3---3--3--3--5--|
A|--------|-6---6---6--6--6--6--6---6---6--6--6--3--|-3---3---3--3--3--3--3---3---3--3--3--6--|
E|--------|--------------------------------------1--|-1---1------------1--1---1---------------|


E|--------------------------------------1--|-1---1------------1--1--------------1--1--1--|
B|-3---3---3--3--3--3--3---3---3--3--3--1--|-1---1---1--1--1--1--1--1--1--1--1--1--1--1--|
G|-3---3---3--3--3--3--3---3---3--3--3--2--|-2---2---2--2--2--2--2--2--2--2--2--2--2--2--|
D|-5---5---5--5--5--5--5---5---5--5--5--3--|-3---3---3--3--3--3--3--3--3--3--3--3--3--3--|
A|-6---6---6--6--6--6--6---6---6--6--6--3--|-3---3---3--3--3--3--3--3--3--3--3--3--3--3--|
E|--------------------------------------1--|-1---1------------1--1--------------1--1--1--|


E|--------------------------------------1--|-1---1------------1--1---1---------------|
B|-3---3---3--3--3--3--3---3---3--3--3--1--|-1---1---1--1--1--1--1---1---1--1--1--3--|
G|-3---3---3--3--3--3--3---3---3--3--3--2--|-2---2---2--2--2--2--2---2---2--2--2--3--|
D|-5---5---5--5--5--5--5---5---5--5--5--3--|-3---3---3--3--3--3--3---3---3--3--3--5--|
A|-6---6---6--6--6--6--6---6---6--6--6--3--|-3---3---3--3--3--3--3---3---3--3--3--6--|
E|--------------------------------------1--|-1---1------------1--1---1---------------|


E|--------------------------------------1--|-1---1------------1--1---1---1--1--1--1--|
B|-3---3---3--3--3--3--3---3---3--3--3--1--|-1---1---1--1--1--1--1---1---1--1--1--1--|
G|-3---3---3--3--3--3--3---3---3--3--3--2--|-2---2---2--2--2--2--2---2---2--2--2--2--|
D|-5---5---5--5--5--5--5---5---5--5--5--3--|-3---3---3--3--3--3--3---3---3--3--3--3--|
A|-6---6---6--6--6--6--6---6---6--6--6--3--|-3---3---3--3--3--3--3---3---3--3--3--3--|
E|--------------------------------------1--|-1---1------------1--1---1---1--1--1--1--|


E|-----------------------------------------|-------------------------------------------|
B|-----------------------------------------|-------------------------------------------|
G|---------------------------------2-------|-------------------------------------------|
D|---------------------------------3-------|------------------7--8--8--8--8--7--7--7---|
A|-5--5--5--5--5------5--3--3--3---3--3----|-3--3--3--3--3----5--6--6--6--6--5--5--5---|
E|-3--3--3--3--3------3--1--1--1------1----|-0--0--0--0--0-----------------------------|


E|-----------------------------------------|-------------------------------------------|
B|-----------------------------------------|-------------------------------------------|
G|---------------------------------2-------|-------------------------------------------|
D|---------------------------------3-------|------------------7--8--8--8--8--7--7--7---|
A|-5--5--5--5--5------5--3--3--3---3--3----|-3--3--3--3--3----5--6--6--6--6--5--5--5---|
E|-3--3--3--3--3------3--1--1--1------1----|-0--0--0--0--0-----------------------------|


E|-----------------------------------------|-------------------------------------------|
B|-----------------------------------------|-------------------------------------------|
G|---------------------------------2-------|-------------------------------------------|
D|---------------------------------3-------|------------------7--8--8--8--8--7--7--7---|
A|-5--5--5--5--5------5--3--3--3---3--3----|-3--3--3--3--3----5--6--6--6--6--5--5--5---|
E|-3--3--3--3--3------3--1--1--1------1----|-0--0--0--0--0-----------------------------|


E|-----------------------------------------|-------------------------------|-3---3-------3---3-----|
B|-----------------------------------------|-------------------------------|-3---3-------2---2-----|
G|---------------------------------2-------|-------------------------------|-0---0-------3---3-----|
D|---------------------------------3-------|------------------7--8----7----|-----------------------|
A|-5--5--5--5--5------5--3--3--3---3--3----|-3--3--3--3--3----5--6----5----|-----------------------|
E|-3--3--3--3--3------3--1--1--1------1----|-0--0--0--0--0-----------------|-----------------------|


E|-3---3-------3---3----3--3--3---|-3---3-------3---3-----|-3---3-------3---3----3--3--3---|
B|-1---1-------0---0----0--1--2---|-3---3-------2---2-----|-1---1-------0---0----0--1--2---|
G|-2---2-------0---0----0--0--0---|-0---0-------3---3-----|-2---2-------0---0----0--0--0---|
D|--------------------------------|-----------------------|--------------------------------|
A|--------------------------------|-----------------------|--------------------------------|
E|--------------------------------|-----------------------|--------------------------------|


E|-3---3-------3---3-----|-3---3-------3---3----3--3--3---|-3---3-------3---3-----|
B|-3---3-------2---2-----|-1---1-------0---0----0--1--2---|-3---3-------2---2-----|
G|-0---0-------3---3-----|-2---2-------0---0----0--0--0---|-0---0-------3---3-----|
D|-----------------------|--------------------------------|-----------------------|
A|-----------------------|--------------------------------|-----------------------|
E|-----------------------|--------------------------------|-----------------------|


E|-3---3-------3---3-----|-3------|
B|-1---1-------0---0-----|-0------|
G|-2---2-------0---0-----|-0------|
D|-----------------------|--------|
A|-----------------------|--------|
E|-----------------------|--------|





Track 2: Bass

G|---------------------------------------|-------------------------------------|---------------------------------------|
D|---------------------------------------|-------------------------------------|---------------------------------------|
A|-5-----------1---1--1--1---1-----1--2--|-3---3---------------------2--3--4---|-5-----------1---1--1--1---1-----1--2--|
E|-3---3------------------------3--------|-------------3---3---3--3------------|-3---3------------------------3--------|


G|-------------------------------------|---------------------------------------|-------------------------------------|
D|-------------------------------------|---------------------------------------|-------------------------------------|
A|-3---3---------------------2--3--4---|-5-----------1---1--1--1---1-----1--2--|-3---3---------------------2--3--4---|
E|-------------3---3---3--3------------|-3---3------------------------3--------|-------------3---3---3--3------------|


G|---------------------------------------|-----------------------|--------|-------------------------------------|
D|---------------------------------------|-----------------------|--------|-------------------------------------|
A|-5-----------1---1--1--1---1-----1--2--|-3---3-----------------|--------|-------------------------------------|
E|-3---3------------------------3--------|-------------3---3-----|-3------|-3---3----------2--2---2----------1--|


G|-----------------------------------|-----------------------------------|-------------------------------------|
D|-----------------------------------|-----------------------------------|-------------------------------------|
A|----------------3--3---3-------6---|-6---6----------6--6---6-----------|-------------------------------------|
E|-1---1-----------------------------|------------------------------1----|-3---3----------2--2---2----------1--|


G|-----------------------------------|-----------------------------------|-------------------------------|
D|-----------------------------------|-----------------------------------|-------------------------------|
A|----------------3--3---3-------6---|-6---6----------6--6---6-----------|------3---3--2--2--2--3----3---|
E|-1---1-----------------------------|------------------------------1----|-3-----------------------------|


G|-------------------------------|-------------------------------|-------------------------------|
D|-------------------------------|-------------------------------|-------------------------------|
A|------3---3--2--2--2--3----3---|------3---3--2--2--2--3----3---|------3---3--2--2--2--3----3---|
E|-3-----------------------------|-3-----------------------------|-3-----------------------------|


G|-------------------------------------|-------------------------------------|-------------------------------------|
D|-------------------------------------|-------------------------------------|-------------------------------------|
A|-6---6----------6--6---6-------------|----------------------------------6--|-6---6----------6--6---6-------------|
E|----------------------------------1--|-1---1----------1--1---1-------------|----------------------------------1--|


G|------------------------------------|-------------------------------------|-------------------------------------|
D|------------------------------------|-------------------------------------|-------------------------------------|
A|------------------------------------|-6---6----------6--6---6-------------|----------------------------------6--|
E|-1---1----------1--1-------1--1--1--|----------------------------------1--|-1---1----------1--1---1-------------|


G|-------------------------------------|---------------------------------------|---------------------------------------|
D|-------------------------------------|---------------------------------------|---------------------------------------|
A|-6---6----------6--6---6-------------|---------------------------------------|-------------1---1--1--1---1-----1--2--|
E|----------------------------------1--|-1---1----------1--1---1---1--1--1--1--|-3---3------------------------3--------|


G|-------------------------------------|---------------------------------------|-----------------------|
D|-------------------------------------|---------------------------------------|-----------------------|
A|-3---3---------------------2--3--4---|-5-----------1---1--1--1---1-----1--2--|-3---3-----------------|
E|-------------3---3---3--3------------|-3---3------------------------3--------|-------------3---3-----|


G|--------|-------------------------------------|-----------------------------------|
D|--------|-------------------------------------|-----------------------------------|
A|--------|-------------------------------------|----------------3--3---3-------6---|
E|-3------|-3---3----------2--2---2----------1--|-1---1-----------------------------|


G|-----------------------------------|-------------------------------------|-----------------------------------|
D|-----------------------------------|-------------------------------------|-----------------------------------|
A|-6---6----------6--6---6-----------|-------------------------------------|----------------3--3---3-------6---|
E|------------------------------1----|-3---3----------2--2---2----------1--|-1---1-----------------------------|


G|-----------------------------------|-------------------------------|-------------------------------|
D|-----------------------------------|-------------------------------|-------------------------------|
A|-6---6----------6--6---6-----------|------3---3--2--2--2--3----3---|------3---3--2--2--2--3----3---|
E|------------------------------1----|-3-----------------------------|-3-----------------------------|


G|-------------------------------|-------------------------------|-------------------------------------|
D|-------------------------------|-------------------------------|-------------------------------------|
A|------3---3--2--2--2--3----3---|------3---3--2--2--2--3----3---|-6---6----------6--6---6-------------|
E|-3-----------------------------|-3-----------------------------|----------------------------------1--|


G|-------------------------------------|-------------------------------------|------------------------------------|
D|-------------------------------------|-------------------------------------|------------------------------------|
A|----------------------------------6--|-6---6----------6--6---6-------------|------------------------------------|
E|-1---1----------1--1---1-------------|----------------------------------1--|-1---1----------1--1-------1--1--1--|


G|-------------------------------------|-------------------------------------|-------------------------------------|
D|-------------------------------------|-------------------------------------|-------------------------------------|
A|-6---6----------6--6---6-------------|----------------------------------6--|-6---6----------6--6---6-------------|
E|----------------------------------1--|-1---1----------1--1---1-------------|----------------------------------1--|


G|---------------------------------------|-----------------------------------------|
D|---------------------------------------|-----------------------------------------|
A|---------------------------------------|-----------------------------------------|
E|-1---1----------1--1---1---1--1--1--1--|-3--3--3--3--3------3--1--1--1------1----|


G|-------------------------------------------|-----------------------------------------|
D|-------------------------------------------|-----------------------------------------|
A|------------------5--6--6--6--6--5--5--5---|-----------------------------------------|
E|-0--0--0--0--0-----------------------------|-3--3--3--3--3------3--1--1--1------1----|


G|-------------------------------------------|-----------------------------------------|
D|-------------------------------------------|-----------------------------------------|
A|------------------5--6--6--6--6--5--5--5---|-----------------------------------------|
E|-0--0--0--0--0-----------------------------|-3--3--3--3--3------3--1--1--1------1----|


G|-------------------------------------------|-----------------------------------------|
D|-------------------------------------------|-----------------------------------------|
A|------------------5--6--6--6--6--5--5--5---|-----------------------------------------|
E|-0--0--0--0--0-----------------------------|-3--3--3--3--3------3--1--1--1------1----|


G|-------------------------------|---------------------------------------|-------------------------------------|
D|-------------------------------|---------------------------------------|-------------------------------------|
A|------------------5--6----5----|-5-----------1---1--1--1---1-----1--2--|-3---3---------------------2--3--4---|
E|-0--0--0--0--0-----------------|-3---3------------------------3--------|-------------3---3---3--3------------|


G|---------------------------------------|-------------------------------------|---------------------------------------|
D|---------------------------------------|-------------------------------------|---------------------------------------|
A|-5-----------1---1--1--1---1-----1--2--|-3---3---------------------2--3--4---|-5-----------1---1--1--1---1-----1--2--|
E|-3---3------------------------3--------|-------------3---3---3--3------------|-3---3------------------------3--------|


G|-------------------------------------|---------------------------------------|-----------------------|
D|-------------------------------------|---------------------------------------|-----------------------|
A|-3---3---------------------2--3--4---|-5-----------1---1--1--1---1-----1--2--|-3---3-----------------|
E|-------------3---3---3--3------------|-3---3------------------------3--------|-------------3---3-----|


G|--------|-------------------------------------|-------------------------------------|
D|--------|-------------------------------------|-------------------------------------|
A|--------|-6---6----------6--6---6-------------|----------------------------------6--|
E|-3------|----------------------------------1--|-1---1----------1--1---1-------------|


G|-------------------------------------|------------------------------------|-------------------------------------|
D|-------------------------------------|------------------------------------|-------------------------------------|
A|-6---6----------6--6---6-------------|------------------------------------|-6---6----------6--6---6-------------|
E|----------------------------------1--|-1---1----------1--1-------1--1--1--|----------------------------------1--|


G|-------------------------------------|-------------------------------------|---------------------------------------|
D|-------------------------------------|-------------------------------------|---------------------------------------|
A|----------------------------------6--|-6---6----------6--6---6-------------|---------------------------------------|
E|-1---1----------1--1---1-------------|----------------------------------1--|-1---1----------1--1---1---1--1--1--1--|


G|-----------------------------------------|-------------------------------------------|
D|-----------------------------------------|-------------------------------------------|
A|-----------------------------------------|------------------5--6--6--6--6--5--5--5---|
E|-3--3--3--3--3------3--1--1--1------1----|-0--0--0--0--0-----------------------------|


G|-----------------------------------------|-------------------------------------------|
D|-----------------------------------------|-------------------------------------------|
A|-----------------------------------------|------------------5--6--6--6--6--5--5--5---|
E|-3--3--3--3--3------3--1--1--1------1----|-0--0--0--0--0-----------------------------|


G|-----------------------------------------|-------------------------------------------|
D|-----------------------------------------|-------------------------------------------|
A|-----------------------------------------|------------------5--6--6--6--6--5--5--5---|
E|-3--3--3--3--3------3--1--1--1------1----|-0--0--0--0--0-----------------------------|


G|-----------------------------------------|-------------------------------|---------------------------------------|
D|-----------------------------------------|-------------------------------|---------------------------------------|
A|-----------------------------------------|------------------5--6----5----|-5-----------1---1--1--1---1-----1--2--|
E|-3--3--3--3--3------3--1--1--1------1----|-0--0--0--0--0-----------------|-3---3------------------------3--------|


G|-------------------------------------|---------------------------------------|-------------------------------------|
D|-------------------------------------|---------------------------------------|-------------------------------------|
A|-3---3---------------------2--3--4---|-5-----------1---1--1--1---1-----1--2--|-3---3---------------------2--3--4---|
E|-------------3---3---3--3------------|-3---3------------------------3--------|-------------3---3---3--3------------|


G|---------------------------------------|-------------------------------------|---------------------------------------|
D|---------------------------------------|-------------------------------------|---------------------------------------|
A|-5-----------1---1--1--1---1-----1--2--|-3---3---------------------2--3--4---|-5-----------1---1--1--1---1-----1--2--|
E|-3---3------------------------3--------|-------------3---3---3--3------------|-3---3------------------------3--------|


G|-----------------------|--------|
D|-----------------------|--------|
A|-3---3-----------------|--------|
E|-------------3---3-----|-3------|





Track 3: Guitar 2

E|--------|--------|--------|--------|--------|--------|--------|--------|--------|
B|--------|--------|--------|--------|--------|--------|--------|--------|--------|
G|--------|--------|--------|--------|--------|--------|--------|--------|--------|
D|--------|--------|--------|--------|--------|--------|--------|--------|--------|
A|--------|--------|--------|--------|--------|--------|--------|--------|--------|
E|--------|--------|--------|--------|--------|--------|--------|--------|--------|


E|--------|--------|--------|--------|--------|--------|--------|--------|--------|
B|--------|--------|--------|--------|--------|--------|--------|--------|--------|
G|--------|--------|--------|--------|--------|--------|--------|--------|--------|
D|--------|--------|--------|--------|--------|--------|--------|--------|--------|
A|--------|--------|--------|--------|--------|--------|--------|--------|--------|
E|--------|--------|--------|--------|--------|--------|--------|--------|--------|


E|--------|--------|--------|--------|--------|--------|--------|--------|--------|
B|--------|--------|--------|--------|--------|--------|--------|--------|--------|
G|--------|--------|--------|--------|--------|--------|--------|--------|--------|
D|--------|--------|--------|--------|--------|--------|--------|--------|--------|
A|--------|--------|--------|--------|--------|--------|--------|--------|--------|
E|--------|--------|--------|--------|--------|--------|--------|--------|--------|


E|--------|--------|--------|--------|--------|--------|--------|--------|--------|
B|--------|--------|--------|--------|--------|--------|--------|--------|--------|
G|--------|--------|--------|--------|--------|--------|--------|--------|--------|
D|--------|--------|--------|--------|--------|--------|--------|--------|--------|
A|--------|--------|--------|--------|--------|--------|--------|--------|--------|
E|--------|--------|--------|--------|--------|--------|--------|--------|--------|


E|--------|--------|--------|--------|--------|--------|--------|--------|--------|
B|--------|--------|--------|--------|--------|--------|--------|--------|--------|
G|--------|--------|--------|--------|--------|--------|--------|--------|--------|
D|--------|--------|--------|--------|--------|--------|--------|--------|--------|
A|--------|--------|--------|--------|--------|--------|--------|--------|--------|
E|--------|--------|--------|--------|--------|--------|--------|--------|--------|


E|--------|--------|--------|--------|--------|-----------------------------------------------|
B|--------|--------|--------|--------|--------|-----------------------------------------------|
G|--------|--------|--------|--------|--------|----------7-----------7--------7---------------|
D|--------|--------|--------|--------|--------|----7--9-----9-----9--------9-----9-----5---7--|
A|--------|--------|--------|--------|--------|-10-------------10-------8--------------8------|
E|--------|--------|--------|--------|--------|-----------------------------------------------|


E|-------------------------------------------|-----------------------------------------------|
B|-------------------------------------------|-----------------------------------------------|
G|-------5-----5---------------5--7--7--5----|----------7-----------7--------7---------------|
D|----5-----5-----5---------5-----------5----|----7--8-----8-----8--------8-----8-----5---7--|
A|-7-----------------7---6--------------5----|-10-------------10-------8--------------8------|
E|-------------------------------------------|-----------------------------------------------|


E|-------------------------------------------|-----------------------------------------------|
B|-------------------------------------------|-----------------------------------------------|
G|-------5-----5---------------5--7--7--5----|----------7-----------7--------7---------------|
D|----5-----5-----5---------5-----------5----|----7--9-----9-----9--------9-----9-----5---7--|
A|-7-----------------7---6--------------5----|-10-------------10-------8--------------8------|
E|-------------------------------------------|-----------------------------------------------|


E|-------------------------------------------|-----------------------------------------------|
B|-------------------------------------------|-----------------------------------------------|
G|-------5-----5---------------5--7--7--5----|----------7-----------7--------7---------------|
D|----5-----5-----5---------5-----------5----|----7--8-----8-----8--------8-----8-----5---7--|
A|-7-----------------7---6--------------5----|-10-------------10-------8--------------8------|
E|-------------------------------------------|-----------------------------------------------|


E|---------------------------------|--------|--------|--------|--------|--------|--------|
B|---------------------------------|--------|--------|--------|--------|--------|--------|
G|-------5-----5-------------------|--------|--------|--------|--------|--------|--------|
D|----5-----5-----5------8----7----|--------|--------|--------|--------|--------|--------|
A|-7-----------------7---6----5----|--------|--------|--------|--------|--------|--------|
E|---------------------------------|--------|--------|--------|--------|--------|--------|


E|--------|--------|--------|--------|--------|--------|--------|--------|--------|
B|--------|--------|--------|--------|--------|--------|--------|--------|--------|
G|--------|--------|--------|--------|--------|--------|--------|--------|--------|
D|--------|--------|--------|--------|--------|--------|--------|--------|--------|
A|--------|--------|--------|--------|--------|--------|--------|--------|--------|
E|--------|--------|--------|--------|--------|--------|--------|--------|--------|


E|--------|--------|-----------------------------------------------|-------------------------------------------|
B|--------|--------|-----------------------------------------------|-------------------------------------------|
G|--------|--------|----------7-----------7--------7---------------|-------5-----5---------------5--7--7--5----|
D|--------|--------|----7--9-----9-----9--------9-----9-----5---7--|----5-----5-----5---------5-----------5----|
A|--------|--------|-10-------------10-------8--------------8------|-7-----------------7---6--------------5----|
E|--------|--------|-----------------------------------------------|-------------------------------------------|


E|-----------------------------------------------|-------------------------------------------|
B|-----------------------------------------------|-------------------------------------------|
G|----------7-----------7--------7---------------|-------5-----5---------------5--7--7--5----|
D|----7--8-----8-----8--------8-----8-----5---7--|----5-----5-----5---------5-----------5----|
A|-10-------------10-------8--------------8------|-7-----------------7---6--------------5----|
E|-----------------------------------------------|-------------------------------------------|


E|-----------------------------------------------|-------------------------------------------|
B|-----------------------------------------------|-------------------------------------------|
G|----------7-----------7--------7---------------|-------5-----5---------------5--7--7--5----|
D|----7--9-----9-----9--------9-----9-----5---7--|----5-----5-----5---------5-----------5----|
A|-10-------------10-------8--------------8------|-7-----------------7---6--------------5----|
E|-----------------------------------------------|-------------------------------------------|


E|-----------------------------------------------|---------------------------------|
B|-----------------------------------------------|---------------------------------|
G|----------7-----------7--------7---------------|-------5-----5-------------------|
D|----7--8-----8-----8--------8-----8-----5---7--|----5-----5-----5------8----7----|
A|-10-------------10-------8--------------8------|-7-----------------7---6----5----|
E|-----------------------------------------------|---------------------------------|


E|--------|--------|--------|--------|--------|--------|--------|--------|--------|
B|--------|--------|--------|--------|--------|--------|--------|--------|--------|
G|--------|--------|--------|--------|--------|--------|--------|--------|--------|
D|--------|--------|--------|--------|--------|--------|--------|--------|--------|
A|--------|--------|--------|--------|--------|--------|--------|--------|--------|
E|--------|--------|--------|--------|--------|--------|--------|--------|--------|