Menu:

 

Search:

 

stone temple pilots - piece of pie:

 



Title: Piece of Pie
Artist: 
Album: Core
Author: 


Track 1: Guitar 1

E|-------------------------------0---0----|-----------------------------0---0----|
B|-------------------------------3---3----|-----------------------------3---3----|
G|-------------------------------2---2----|-----------------------------1---1----|
D|----5--3-----2--3--3--0--0--------------|----5--3-----2--3--3--0--0------------|
A|----5--3--0--2--3--3--0--0--------------|----5--3--0--2--3--3--0--0------------|
D|----5--3--0--2--3--3--0--0--0-----------|----5--3--0--2--3--3--0--0------------|


E|-----------------------------0--0--0----|-------------------------------0---0----|
B|-----------------------------3--3--3----|-------------------------------3---3----|
G|-----------------------------2--1--1----|-------------------------------2---2----|
D|----5--3-----2--3--3--0--0--------------|----5--3-----2--3--3--0--0--------------|
A|----5--3--0--2--3--3--0--0--------------|----5--3--0--2--3--3--0--0--------------|
D|----5--3--0--2--3--3--0--0--------------|----5--3--0--2--3--3--0--0--0-----------|


E|---------------------------------------------|---------------------------------------------|
B|---------------------------------------------|---------------------------------------------|
G|---------------------------------------------|---------------------------------------------|
D|-5-----3-----0--0--5-----3-----0-----0---0---|-5-----3-----0--0--5-----3-----0-----0---0---|
A|-5-----3-----0--0--5-----3-----0-----0---0---|-5-----3-----0--0--5-----3-----0-----0---0---|
D|-5--0--3--0--0--0--5--0--3--0--0--0--0---0---|-5--0--3--0--0--0--5--0--3--0--0--0--0---0---|


E|---------------------------------------------|---------------------------------------------|
B|---------------------------------------------|---------------------------------------------|
G|---------------------------------------------|---------------------------------------------|
D|-5-----3-----0--0--5-----3-----0-----0---0---|-5-----3-----0--0--5-----3-----0-----0---0---|
A|-5-----3-----0--0--5-----3-----0-----0---0---|-5-----3-----0--0--5-----3-----0-----0---0---|
D|-5--0--3--0--0--0--5--0--3--0--0--0--0---0---|-5--0--3--0--0--0--5--0--3--0--0--0--0---0---|


E|-------------------------------------0---0---|-------------------------------------0---0---|
B|-------------------------------------3---3---|-------------------------------------3---3---|
G|-------------------------------------1---2---|-------------------------------------1---2---|
D|-5-----3-----0--0--5-----3-----0-------------|-5-----3-----0--0--5-----3-----0-------------|
A|-5-----3-----0--0--5-----3-----0-------------|-5-----3-----0--0--5-----3-----0-------------|
D|-5--0--3--0--0--0--5--0--3--0--0--0----------|-5--0--3--0--0--0--5--0--3--0--0--0----------|


E|-------------------------------------0---0---|-------------------------------------0---0---|
B|-------------------------------------3---3---|-------------------------------------3---3---|
G|-------------------------------------1---2---|-------------------------------------1---2---|
D|-5-----3-----0--0--5-----3-----0-------------|-5-----3-----0--0--5-----3-----0-------------|
A|-5-----3-----0--0--5-----3-----0-------------|-5-----3-----0--0--5-----3-----0-------------|
D|-5--0--3--0--0--0--5--0--3--0--0--0----------|-5--0--3--0--0--0--5--0--3--0--0--0----------|


E|-------------------------------------0---0---|-------------------------------------0---0---|
B|-------------------------------------3---3---|-------------------------------------3---3---|
G|-------------------------------------1---2---|-------------------------------------1---2---|
D|-5-----3-----0--0--5-----3-----0-------------|-5-----3-----0--0--5-----3-----0-------------|
A|-5-----3-----0--0--5-----3-----0-------------|-5-----3-----0--0--5-----3-----0-------------|
D|-5--0--3--0--0--0--5--0--3--0--0--0----------|-5--0--3--0--0--0--5--0--3--0--0--0----------|


E|-------------------------------------0---0---|-------------------------------------0---0---|
B|-------------------------------------3---3---|-------------------------------------3---3---|
G|-------------------------------------1---2---|-------------------------------------1---2---|
D|-5-----3-----0--0--5-----3-----0-------------|-5-----3-----0--0--5-----3-----0-------------|
A|-5-----3-----0--0--5-----3-----0-------------|-5-----3-----0--0--5-----3-----0-------------|
D|-5--0--3--0--0--0--5--0--3--0--0--0----------|-5--0--3--0--0--0--5--0--3--0--0--0----------|


E|-0-------------------------------------------|-------------------------------0---0----|
B|-3-------------------------------------------|-------------------------------3---3----|
G|-2-------------------------------------------|-------------------------------2---2----|
D|----5--3-----2--3---------5--3-----2--3------|----5--3-----2--3--3--0--0--0-----------|
A|----5--3--0--2--3---------5--3--0--2--3------|----5--3--0--2--3--3--0--0--0-----------|
D|----5--3--0--2--3---------5--3--0--2--3------|----5--3--0--2--3--3--0--0--0-----------|


E|-------------------------------------------|---------------------------------------------|
B|-------------------------------------------|---------------------------------------------|
G|-------------------------------------------|---------------------------------------------|
D|-------------5--7------------------5---5---|-------------5--7------------------5--7--7---|
A|-------------3--5------------0--2--3---2---|-------------3--5------------------3--5--5---|
D|-3--4--0--0---------0-----0----------------|-3--4--0--0---------3-----4--0--0------------|


E|-------------------------------------------|---------------------------------------------|
B|-------------------------------------------|---------------------------------------------|
G|-------------------------------------------|---------------------------------------------|
D|-------------5--7------------------5---5---|-------------5--7------------------5--7--7---|
A|-------------3--5------------0--2--3---2---|-------------3--5------------------3--5--5---|
D|-3--4--0--0---------0-----0----------------|----5--3--0---------3-----4--0--0------------|


E|-------------------------------------------|---------------------------------------------|
B|-------------------------------------------|---------------------------------------------|
G|-------------------------------------------|---------------------------------------------|
D|-------------5--7------------------5---5---|-------------5--7------------------5--7--7---|
A|-------------3--5------------0--2--3---2---|-------------3--5------------------3--5--5---|
D|-3--4--0--0---------0-----0----------------|-3--4--0--0---------3-----4--0--0------------|


E|-------------------------------------------|---------------------------------------------|
B|-------------------------------------------|---------------------------------------------|
G|-------------------------------------------|---------------------------------------------|
D|-------------5--7------------------5---5---|-------------5--7------------------5--7--7---|
A|-------------3--5------------0--2--3---2---|-------------3--5------------------3--5--5---|
D|-3--4--0--0---------0-----0----------------|----5--3--0---------3-----4--0--0------------|


E|-----------------------------------0----|-----------------------------0--0--0----|
B|-----------------------------------3----|-----------------------------3--3--3----|
G|--------------------------------2--2----|-----------------------------2--1--1----|
D|----5--3-----2--3--3--0--0--------------|----5--3-----2--3--3--0--0--------------|
A|----5--3--0--2--3--3--0--0--------------|----5--3--0--2--3--3--0--0--------------|
D|----5--3--0--2--3--3--0--0--0-----------|----5--3--0--2--3--3--0--0--------------|


E|---------------------------------------------|---------------------------------------------|
B|---------------------------------------------|---------------------------------------------|
G|---------------------------------------------|---------------------------------------------|
D|-5-----3-----0--0--5-----3-----0-----0---0---|-5-----3-----0--0--5-----3-----0-----0---0---|
A|-5-----3-----0--0--5-----3-----0-----0---0---|-5-----3-----0--0--5-----3-----0-----0---0---|
D|-5--0--3--0--0--0--5--0--3--0--0--0--0---0---|-5--0--3--0--0--0--5--0--3--0--0--0--0---0---|


E|---------------------------------------------|---------------------------------------------|
B|---------------------------------------------|---------------------------------------------|
G|---------------------------------------------|---------------------------------------------|
D|-5-----3-----0--0--5-----3-----0-----0---0---|-5-----3-----0--0--5-----3-----0-----0---0---|
A|-5-----3-----0--0--5-----3-----0-----0---0---|-5-----3-----0--0--5-----3-----0-----0---0---|
D|-5--0--3--0--0--0--5--0--3--0--0--0--0---0---|-5--0--3--0--0--0--5--0--3--0--0--0--0---0---|


E|-------------------------------------0---0---|-------------------------------------0---0---|
B|-------------------------------------3---3---|-------------------------------------3---3---|
G|-------------------------------------1---2---|-------------------------------------1---2---|
D|-5-----3-----0--0--5-----3-----0-------------|-5-----3-----0--0--5-----3-----0-------------|
A|-5-----3-----0--0--5-----3-----0-------------|-5-----3-----0--0--5-----3-----0-------------|
D|-5--0--3--0--0--0--5--0--3--0--0--0----------|-5--0--3--0--0--0--5--0--3--0--0--0----------|


E|-------------------------------------0---0---|-------------------------------------0---0---|
B|-------------------------------------3---3---|-------------------------------------3---3---|
G|-------------------------------------1---2---|-------------------------------------1---2---|
D|-5-----3-----0--0--5-----3-----0-------------|-5-----3-----0--0--5-----3-----0-------------|
A|-5-----3-----0--0--5-----3-----0-------------|-5-----3-----0--0--5-----3-----0-------------|
D|-5--0--3--0--0--0--5--0--3--0--0--0----------|-5--0--3--0--0--0--5--0--3--0--0--0----------|


E|-0-------------------------------------------|-------------------------------0---0----|
B|-3-------------------------------------------|-------------------------------3---3----|
G|-2-------------------------------------------|-------------------------------2---2----|
D|----5--3-----2--3---------5--3-----2--3------|----5--3-----2--3--3--0--0--0-----------|
A|----5--3--0--2--3---------5--3--0--2--3------|----5--3--0--2--3--3--0--0--0-----------|
D|----5--3--0--2--3---------5--3--0--2--3------|----5--3--0--2--3--3--0--0--0-----------|


E|-------------------------------------------|---------------------------------------------|
B|-------------------------------------------|---------------------------------------------|
G|-------------------------------------------|---------------------------------------------|
D|-------------5--7------------------5---5---|-------------5--7------------------5--7--7---|
A|-------------3--5------------0--2--3---2---|-------------3--5------------------3--5--5---|
D|-3--4--0--0---------0-----0----------------|-3--4--0--0---------3-----4--0--0------------|


E|-------------------------------------------|---------------------------------------------|
B|-------------------------------------------|---------------------------------------------|
G|-------------------------------------------|---------------------------------------------|
D|-------------5--7------------------5---5---|-------------5--7------------------5--7--7---|
A|-------------3--5------------0--2--3---2---|-------------3--5------------------3--5--5---|
D|-3--4--0--0---------0-----0----------------|----5--3--0---------3-----4--0--0------------|


E|-------------------------------------------|---------------------------------------------|
B|-------------------------------------------|---------------------------------------------|
G|-------------------------------------------|---------------------------------------------|
D|-------------5--7------------------5---5---|-------------5--7------------------5--7--7---|
A|-------------3--5------------0--2--3---2---|-------------3--5------------------3--5--5---|
D|-3--4--0--0---------0-----0----------------|-3--4--0--0---------3-----4--0--0------------|


E|-------------------------------------------|---------------------------------------------|
B|-------------------------------------------|---------------------------------------------|
G|-------------------------------------------|---------------------------------------------|
D|-------------5--7------------------5---5---|-------------5--7------------------5--7--7---|
A|-------------3--5------------0--2--3---2---|-------------3--5------------------3--5--5---|
D|-3--4--0--0---------0-----0----------------|----5--3--0---------3-----4--0--0------------|


E|---------------------------------|---------------------------------|---------------------------------|
B|---------1---------------1-------|---------1-----------------------|---------1-----------------------|
G|-----2---------------1-----------|-----2-------------------5-------|-------------1---1-------1-------|
D|-1-----------1---2-----------2---|-1-----------1-------4-----------|-----0---------------------------|
A|---------------------------------|-----------------5-----------5---|-1-------------------1-------1---|
D|---------------------------------|---------------------------------|---------------------------------|


E|---------------------------------|---------------------------------|---------------------------------|
B|---------------------------------|---------1---------------1-------|---------1-----------------------|
G|-----3---3---7---7-------7-------|-----2---------------1-----------|-----2-------------------5-------|
D|-------------7---7---------------|-1-----------1---2-----------2---|-1-----------1-------4-----------|
A|-3-----------5---5---5-------5---|---------------------------------|-----------------5-----------5---|
D|---------------------------------|---------------------------------|---------------------------------|


E|---------------------------------|---------------------------------|---------------------------------------------|
B|---------1-----------------------|-3---3---3---3---3---3---3---3---|---------------------------------------------|
G|-------------1---1-------1-------|-3---3---3---3---3---3---3---3---|---------------------------------------------|
D|-----0---------------------------|-2---2---2---2---2---2---2---2---|-5-----3-----0--0--5-----3-----0-----0---0---|
A|-1-------------------1-------1---|-3---3---3---3---3---3---3---3---|-5-----3-----0--0--5-----3-----0-----0---0---|
D|---------------------------------|---------------------------------|-5--0--3--0--0--0--5--0--3--0--0--0--0---0---|


E|---------------------------------------------|---------------------------------------------|
B|---------------------------------------------|---------------------------------------------|
G|---------------------------------------------|---------------------------------------------|
D|-5-----3-----0--0--5-----3-----0-----0---0---|-5-----3-----0--0--5-----3-----0-----0---0---|
A|-5-----3-----0--0--5-----3-----0-----0---0---|-5-----3-----0--0--5-----3-----0-----0---0---|
D|-5--0--3--0--0--0--5--0--3--0--0--0--0---0---|-5--0--3--0--0--0--5--0--3--0--0--0--0---0---|


E|---------------------------------------------|---------------------------------------------|
B|---------------------------------------------|---------------------------------------------|
G|---------------------------------------------|---------------------------------------------|
D|-5-----3-----0--0--5-----3-----0-----0---0---|-5-----3-----0--0--5-----3-----0-----0---0---|
A|-5-----3-----0--0--5-----3-----0-----0---0---|-5-----3-----0--0--5-----3-----0-----0---0---|
D|-5--0--3--0--0--0--5--0--3--0--0--0--0---0---|-5--0--3--0--0--0--5--0--3--0--0--0--0---0---|


E|---------------------------------------------|---------------------------------------------|
B|---------------------------------------------|---------------------------------------------|
G|---------------------------------------------|---------------------------------------------|
D|-5-----3-----0--0--5-----3-----0-----0---0---|-5-----3-----0--0--5-----3-----0-----0---0---|
A|-5-----3-----0--0--5-----3-----0-----0---0---|-5-----3-----0--0--5-----3-----0-----0---0---|
D|-5--0--3--0--0--0--5--0--3--0--0--0--0---0---|-5--0--3--0--0--0--5--0--3--0--0--0--0---0---|


E|-------------------------------------0---0---|-0-------------------------------------------|
B|-------------------------------------3---3---|-3-------------------------------------------|
G|-------------------------------------1---2---|-2-------------------------------------------|
D|-5-----3-----0--0--5-----3-----0-------------|----5--3-----2--3---------5--3-----2--3------|
A|-5-----3-----0--0--5-----3-----0-------------|----5--3--0--2--3---------5--3--0--2--3------|
D|-5--0--3--0--0--0--5--0--3--0--0--0----------|----5--3--0--2--3---------5--3--0--2--3------|


E|-------------------------------0---0----|-------------------------------------------|
B|-------------------------------3---3----|-------------------------------------------|
G|-------------------------------2---2----|-------------------------------------------|
D|----5--3-----2--3--3--0--0--0-----------|-------------5--7------------------5---5---|
A|----5--3--0--2--3--3--0--0--0-----------|-------------3--5------------0--2--3---2---|
D|----5--3--0--2--3--3--0--0--0-----------|-3--4--0--0---------0-----0----------------|


E|---------------------------------------------|-------------------------------------------|
B|---------------------------------------------|-------------------------------------------|
G|---------------------------------------------|-------------------------------------------|
D|-------------5--7------------------5--7--7---|-------------5--7------------------5---5---|
A|-------------3--5------------------3--5--5---|-------------3--5------------0--2--3---2---|
D|-3--4--0--0---------3-----4--0--0------------|-3--4--0--0---------0-----0----------------|


E|---------------------------------------------|-------------------------------------------|
B|---------------------------------------------|-------------------------------------------|
G|---------------------------------------------|-------------------------------------------|
D|-------------5--7------------------5--7--7---|-------------5--7------------------5---5---|
A|-------------3--5------------------3--5--5---|-------------3--5------------0--2--3---2---|
D|----5--3--0---------3-----4--0--0------------|-3--4--0--0---------0-----0----------------|


E|---------------------------------------------|-------------------------------------------|
B|---------------------------------------------|-------------------------------------------|
G|---------------------------------------------|-------------------------------------------|
D|-------------5--7------------------5--7--7---|-------------5--7------------------5---5---|
A|-------------3--5------------------3--5--5---|-------------3--5------------0--2--3---2---|
D|-3--4--0--0---------3-----4--0--0------------|-3--4--0--0---------0-----0----------------|


E|---------------------------------------------|-------------------------------------------|
B|---------------------------------------------|-------------------------------------------|
G|---------------------------------------------|-------------------------------------------|
D|-------------5--7------------------5--7--7---|-------------5--7------------------5---5---|
A|-------------3--5------------------3--5--5---|-------------3--5------------0--2--3---2---|
D|----5--3--0---------3-----4--0--0------------|-3--4--0--0---------0-----0----------------|


E|---------------------------------------------|-------------------------------------------|
B|---------------------------------------------|-------------------------------------------|
G|---------------------------------------------|-------------------------------------------|
D|-------------5--7------------------5--7--7---|-------------5--7------------------5---5---|
A|-------------3--5------------------3--5--5---|-------------3--5------------0--2--3---2---|
D|-3--4--0--0---------3-----4--0--0------------|-3--4--0--0---------0-----0----------------|


E|---------------------------------------------|-------------------------------------------|
B|---------------------------------------------|-------------------------------------------|
G|---------------------------------------------|-------------------------------------------|
D|-------------5--7------------------5--7--7---|-------------5--7------------------5---5---|
A|-------------3--5------------------3--5--5---|-------------3--5------------0--2--3---2---|
D|----5--3--0---------3-----4--0--0------------|-3--4--0--0---------0-----0----------------|


E|---------------------------------------------|-------------------------------------------|
B|---------------------------------------------|-------------------------------------------|
G|---------------------------------------------|-------------------------------------------|
D|-------------5--7------------------5--7--7---|-------------5--7------------------5---5---|
A|-------------3--5------------------3--5--5---|-------------3--5------------0--2--3---2---|
D|-3--4--0--0---------3-----4--0--0------------|-3--4--0--0---------0-----0----------------|


E|---------------------------------------------|---------------------------------|
B|---------------------------------------------|---------1---------------1-------|
G|---------------------------------------------|-----2---------------1-----------|
D|-------------5--7------------------5--7--7---|-1-----------1---2-----------2---|
A|-------------3--5------------------3--5--5---|---------------------------------|
D|----5--3--0---------3-----4--0--0------------|---------------------------------|


E|---------------------------------|---------------------------------|---------------------------------|
B|---------1-----------------------|---------1-----------------------|---------------------------------|
G|-----2-------------------5-------|-------------1---1-------1-------|-----3---3---7---7-------7-------|
D|-1-----------1-------4-----------|-----0---------------------------|-------------7---7---------------|
A|-----------------5-----------5---|-1-------------------1-------1---|-3-----------5---5---5-------5---|
D|---------------------------------|---------------------------------|---------------------------------|


E|---------------------------------|---------------------------------|---------------------------------|
B|---------1---------------1-------|---------1-----------------------|---------1-----------------------|
G|-----2---------------1-----------|-----2-------------------5-------|-------------1---1-------1-------|
D|-1-----------1---2-----------2---|-1-----------1-------4-----------|-----0---------------------------|
A|---------------------------------|-----------------5-----------5---|-1-------------------1-------1---|
D|---------------------------------|---------------------------------|---------------------------------|


E|---------------------------------|---------------------------------|---------------------------------|
B|---------------------------------|---------1---------------1-------|---------1-----------------------|
G|-----3---3---7---7-------7-------|-----2---------------1-----------|-----2-------------------5-------|
D|-------------7---7---------------|-1-----------1---2-----------2---|-1-----------1-------4-----------|
A|-3-----------5---5---5-------5---|---------------------------------|-----------------5-----------5---|
D|---------------------------------|---------------------------------|---------------------------------|


E|---------------------------------|---------------------------------|---------------------------------|
B|---------1-----------------------|---------------------------------|---------1---------------1-------|
G|-------------1---1-------1-------|-----3---3---7---7-------7-------|-----2---------------1-----------|
D|-----0---------------------------|-------------7---7---------------|-1-----------1---2-----------2---|
A|-1-------------------1-------1---|-3-----------5---5---5-------5---|---------------------------------|
D|---------------------------------|---------------------------------|---------------------------------|


E|---------------------------------|---------------------------------|-----------------------|
B|---------1-----------------------|---------1-----------------------|-----------------------|
G|-----2-------------------5-------|-------------1---1-------1-------|-----3---3---7---7-----|
D|-1-----------1-------4-----------|-----0---------------------------|-------------7---7-----|
A|-----------------5-----------5---|-1-------------------1-------1---|-3-----------5---5-----|
D|---------------------------------|---------------------------------|-----------------------|


E|--------|--------|
B|--------|--------|
G|-7------|-7------|
D|-7------|-7------|
A|-5------|-5------|
D|--------|--------|





Track 2: Guitar 2

E|-------------------------------|-------------------------------|-------------------------------|
B|-------------------------------|-------------------------------|-------------------------------|
G|-------------------------------|-------------------------------|-------------------------------|
D|----5--3-----2--3--3--0--0-----|----5--3-----2--3--3--0--0-----|----5--3-----2--3--3--0--0-----|
A|----5--3--0--2--3--3--0--0-----|----5--3--0--2--3--3--0--0-----|----5--3--0--2--3--3--0--0-----|
D|----5--3--0--2--3--3--0--0-----|----5--3--0--2--3--3--0--0-----|----5--3--0--2--3--3--0--0-----|


E|-------------------------------|--------|--------|--------|--------|---------------------------------------------|
B|-------------------------------|--------|--------|--------|--------|---------------------------------------------|
G|-------------------------------|--------|--------|--------|--------|---------------------------------------------|
D|----5--3-----2--3--3--0--0-----|--------|--------|--------|--------|-5-----3-----0--0--5-----3-----0-----0---0---|
A|----5--3--0--2--3--3--0--0-----|--------|--------|--------|--------|-5-----3-----0--0--5-----3-----0-----0---0---|
D|----5--3--0--2--3--3--0--0-----|--------|--------|--------|--------|-5--0--3--0--0--0--5--0--3--0--0--0--0---0---|


E|---------------------------------------------|---------------------------------------------|
B|---------------------------------------------|---------------------------------------------|
G|---------------------------------------------|---------------------------------------------|
D|-5-----3-----0--0--5-----3-----0-----0---0---|-5-----3-----0--0--5-----3-----0-----0---0---|
A|-5-----3-----0--0--5-----3-----0-----0---0---|-5-----3-----0--0--5-----3-----0-----0---0---|
D|-5--0--3--0--0--0--5--0--3--0--0--0--0---0---|-5--0--3--0--0--0--5--0--3--0--0--0--0---0---|


E|---------------------------------------------|---------------------------------------------|
B|---------------------------------------------|---------------------------------------------|
G|---------------------------------------------|---------------------------------------------|
D|-5-----3-----0--0--5-----3-----0-----0---0---|-5-----3-----0--0--5-----3-----0-----0---0---|
A|-5-----3-----0--0--5-----3-----0-----0---0---|-5-----3-----0--0--5-----3-----0-----0---0---|
D|-5--0--3--0--0--0--5--0--3--0--0--0--0---0---|-5--0--3--0--0--0--5--0--3--0--0--0--0---0---|


E|---------------------------------------------|---------------------------------------------|
B|---------------------------------------------|---------------------------------------------|
G|---------------------------------------------|---------------------------------------------|
D|-5-----3-----0--0--5-----3-----0-----0---0---|-5-----3-----0--0--5-----3-----0-----0---0---|
A|-5-----3-----0--0--5-----3-----0-----0---0---|-5-----3-----0--0--5-----3-----0-----0---0---|
D|-5--0--3--0--0--0--5--0--3--0--0--0--0---0---|-5--0--3--0--0--0--5--0--3--0--0--0--0---0---|


E|---------------------------------------------|---------------------------------------------|
B|---------------------------------------------|---------------------------------------------|
G|---------------------------------------------|---------------------------------------------|
D|-5-----3-----0--0--5-----3-----0-----0---0---|-0--5--3-----2--3---------5--3-----2--3------|
A|-5-----3-----0--0--5-----3-----0-----0---0---|-0--5--3--0--2--3---------5--3--0--2--3------|
D|-5--0--3--0--0--0--5--0--3--0--0--0--0---0---|-0--5--3--0--2--3---------5--3--0--2--3------|


E|-------------------------------|--------|--------|--------|--------|--------|--------|
B|-------------------------------|--------|--------|--------|--------|--------|--------|
G|-------------------------------|--------|--------|--------|--------|--------|--------|
D|----5--3-----2--3--3--0--0-----|--------|--------|--------|--------|--------|--------|
A|----5--3--0--2--3--3--0--0-----|--------|--------|--------|--------|--------|--------|
D|----5--3--0--2--3--3--0--0-----|--------|--------|--------|--------|--------|--------|


E|--------|--------|-------------------------------|-------------------------------|
B|--------|--------|-------------------------------|-------------------------------|
G|--------|--------|-------------------------------|-------------------------------|
D|--------|--------|----5--3-----2--3--3--0--0-----|----5--3-----2--3--3--0--0-----|
A|--------|--------|----5--3-----2--3--3--0--0-----|----5--3--0--2--3--3--0--0-----|
D|--------|--------|----5--3--0--2--3--3--0--0-----|----5--3--0--2--3--3--0--0-----|


E|--------|--------|--------|--------|---------------------------------------------|
B|--------|--------|--------|--------|---------------------------------------------|
G|--------|--------|--------|--------|---------------------------------------------|
D|--------|--------|--------|--------|-5-----3-----0--0--5-----3-----0-----0---0---|
A|--------|--------|--------|--------|-5-----3-----0--0--5-----3-----0-----0---0---|
D|--------|--------|--------|--------|-5--0--3--0--0--0--5--0--3--0--0--0--0---0---|


E|---------------------------------------------|---------------------------------------------|
B|---------------------------------------------|---------------------------------------------|
G|---------------------------------------------|---------------------------------------------|
D|-5-----3-----0--0--5-----3-----0-----0---0---|-5-----3-----0--0--5-----3-----0-----0---0---|
A|-5-----3-----0--0--5-----3-----0-----0---0---|-5-----3-----0--0--5-----3-----0-----0---0---|
D|-5--0--3--0--0--0--5--0--3--0--0--0--0---0---|-5--0--3--0--0--0--5--0--3--0--0--0--0---0---|


E|---------------------------------------------|---------------------------------------------|
B|---------------------------------------------|---------------------------------------------|
G|---------------------------------------------|---------------------------------------------|
D|-5-----3-----0--0--5-----3-----0-----0---0---|-0--5--3-----2--3---------5--3-----2--3------|
A|-5-----3-----0--0--5-----3-----0-----0---0---|-0--5--3--0--2--3---------5--3--0--2--3------|
D|-5--0--3--0--0--0--5--0--3--0--0--0--0---0---|-0--5--3--0--2--3---------5--3--0--2--3------|


E|-------------------------------|--------|--------|--------|--------|--------|--------|
B|-------------------------------|--------|--------|--------|--------|--------|--------|
G|-------------------------------|--------|--------|--------|--------|--------|--------|
D|----5--3-----2--3--3--0--0-----|--------|--------|--------|--------|--------|--------|
A|----5--3--0--2--3--3--0--0-----|--------|--------|--------|--------|--------|--------|
D|----5--3--0--2--3--3--0--0-----|--------|--------|--------|--------|--------|--------|


E|--------|--------|--------|--------|--------|--------|--------|--------|--------|
B|--------|--------|--------|--------|--------|--------|--------|--------|--------|
G|--------|--------|--------|--------|--------|--------|--------|--------|--------|
D|--------|--------|--------|--------|--------|--------|--------|--------|--------|
A|--------|--------|--------|--------|--------|--------|--------|--------|--------|
D|--------|--------|--------|--------|--------|--------|--------|--------|--------|


E|--------|--------|--------|--------|--------|--------|--------|---------------------------------------------|
B|--------|--------|--------|--------|--------|--------|--------|---------------------------------------------|
G|--------|--------|--------|--------|--------|--------|--------|---------------------------------------------|
D|--------|--------|--------|--------|--------|--------|--------|-5-----3-----0--0--5-----3-----0-----0---0---|
A|--------|--------|--------|--------|--------|--------|--------|-5-----3-----0--0--5-----3-----0-----0---0---|
D|--------|--------|--------|--------|--------|--------|--------|-5--0--3--0--0--0--5--0--3--0--0--0--0---0---|


E|---------------------------------------------|---------------------------------------------|
B|---------------------------------------------|---------------------------------------------|
G|---------------------------------------------|---------------------------------------------|
D|-5-----3-----0--0--5-----3-----0-----0---0---|-0--5--3-----2--3---------5--3-----2--3------|
A|-5-----3-----0--0--5-----3-----0-----0---0---|-0--5--3--0--2--3---------5--3--0--2--3------|
D|-5--0--3--0--0--0--5--0--3--0--0--0--0---0---|-0--5--3--0--2--3---------5--3--0--2--3------|


E|-------------------------------|--------|--------|--------|--------|--------|--------|
B|-------------------------------|--------|--------|--------|--------|--------|--------|
G|-------------------------------|--------|--------|--------|--------|--------|--------|
D|----5--3-----2--3--3--0--0-----|--------|--------|--------|--------|--------|--------|
A|----5--3--0--2--3--3--0--0-----|--------|--------|--------|--------|--------|--------|
D|----5--3--0--2--3--3--0--0-----|--------|--------|--------|--------|--------|--------|


E|--------|--------|--------|--------|--------|--------|--------|--------|--------|
B|--------|--------|--------|--------|--------|--------|--------|--------|--------|
G|--------|--------|--------|--------|--------|--------|--------|--------|--------|
D|--------|--------|--------|--------|--------|--------|--------|--------|--------|
A|--------|--------|--------|--------|--------|--------|--------|--------|--------|
D|--------|--------|--------|--------|--------|--------|--------|--------|--------|


E|--------|--------|--------|--------|--------|--------|--------|--------|--------|
B|--------|--------|--------|--------|--------|--------|--------|--------|--------|
G|--------|--------|--------|--------|--------|--------|--------|--------|--------|
D|--------|--------|--------|--------|--------|--------|--------|--------|--------|
A|--------|--------|--------|--------|--------|--------|--------|--------|--------|
D|--------|--------|--------|--------|--------|--------|--------|--------|--------|


E|--------|--------|--------|--------|--------|--------|--------|--------|--------|
B|--------|--------|--------|--------|--------|--------|--------|--------|--------|
G|--------|--------|--------|--------|--------|--------|--------|--------|--------|
D|--------|--------|--------|--------|--------|--------|--------|--------|--------|
A|--------|--------|--------|--------|--------|--------|--------|--------|--------|
D|--------|--------|--------|--------|--------|--------|--------|--------|--------|


E|--------|
B|--------|
G|--------|
D|--------|
A|--------|
D|--------|





Track 3: Guitar 3

E|--------|--------|--------|--------|--------|--------|--------|--------|--------|
B|--------|--------|--------|--------|--------|--------|--------|--------|--------|
G|--------|--------|--------|--------|--------|--------|--------|--------|--------|
D|--------|--------|--------|--------|--------|--------|--------|--------|--------|
A|--------|--------|--------|--------|--------|--------|--------|--------|--------|
D|--------|--------|--------|--------|--------|--------|--------|--------|--------|


E|--------|--------|--------|--------|--------|--------|--------|--------|--------|
B|--------|--------|--------|--------|--------|--------|--------|--------|--------|
G|--------|--------|--------|--------|--------|--------|--------|--------|--------|
D|--------|--------|--------|--------|--------|--------|--------|--------|--------|
A|--------|--------|--------|--------|--------|--------|--------|--------|--------|
D|--------|--------|--------|--------|--------|--------|--------|--------|--------|


E|--------|--------|--------|--------|--------|--------|--------|--------|--------|
B|--------|--------|--------|--------|--------|--------|--------|--------|--------|
G|--------|--------|--------|--------|--------|--------|--------|--------|--------|
D|--------|--------|--------|--------|--------|--------|--------|--------|--------|
A|--------|--------|--------|--------|--------|--------|--------|--------|--------|
D|--------|--------|--------|--------|--------|--------|--------|--------|--------|


E|--------|--------|--------|--------|--------|--------|--------|--------|--------|
B|--------|--------|--------|--------|--------|--------|--------|--------|--------|
G|--------|--------|--------|--------|--------|--------|--------|--------|--------|
D|--------|--------|--------|--------|--------|--------|--------|--------|--------|
A|--------|--------|--------|--------|--------|--------|--------|--------|--------|
D|--------|--------|--------|--------|--------|--------|--------|--------|--------|


E|--------|--------|--------|--------|--------|--------|--------|--------|--------|
B|--------|--------|--------|--------|--------|--------|--------|--------|--------|
G|--------|--------|--------|--------|--------|--------|--------|--------|--------|
D|--------|--------|--------|--------|--------|--------|--------|--------|--------|
A|--------|--------|--------|--------|--------|--------|--------|--------|--------|
D|--------|--------|--------|--------|--------|--------|--------|--------|--------|


E|--------|--------|----------------|-16--16-15-15-15-13--13----|---------------------|
B|--------|-15-----|-18-----18--13--|---------------------------|---------------------|
G|--------|--------|----------------|---------------------------|-5-----7---7----7----|
D|--------|--------|----------------|---------------------------|---------------------|
A|--------|--------|----------------|---------------------------|---------------------|
D|--------|--------|----------------|---------------------------|---------------------|


E|----------------|-13-----13---|-16--16-15-15-15-13--------|-----------------|-------------------------------|
B|----------------|-------------|---------------------15----|-15----3---15----|-12-12-12-12-------------------|
G|-7------7---5---|-------------|---------------------------|-----------------|-12-12-12-12-10-12---12----12--|
D|----------------|-------------|---------------------------|-----------------|-------------------------------|
A|----------------|-------------|---------------------------|-----------------|-------------------------------|
D|----------------|-------------|---------------------------|-----------------|-------------------------------|


E|-----------------------------------------|----------------------------------------|
B|-----------------------------------------|----------------------------------------|
G|-10-12-10-------10-10--------------------|----------------------------------------|
D|----------12-10-------12--12-------3-----|-3-----3--5--5---3--3--3----------------|
A|-------------------------------5------5--|----5-----------------------0-----------|
D|-----------------------------------------|-------------------------------6--5--3--|


E|-------------------------18-|-18---18---18-18-18---18---|-18-17-16-15-13-15-15-15-13-15----13----------------|
B|----------------------------|---------------------------|-------------------------------15----15----10-13-13-|
G|----------------------19----|---------------------------|----------------------------------------------------|
D|-------------------17-------|---------------------------|----------------------------------------------------|
A|----------------------------|---------------------------|----------------------------------------------------|
D|-3----3----3----17----------|---------------------------|----------------------------------------------------|


E|-----------------10-------------------|---------------------------------|-----------------|
B|-13---13-13------------13-------------|----------------------------12---|-----------------|
G|--------------12----12----12-10----10-|-10-------------------------12---|-5---------------|
D|--------------------------------12----|----12-10-------------------12---|-5---------------|
A|--------------------------------------|----------12-10-8--10--10--------|-5---------------|
D|--------------------------------------|---------------------------------|-----------------|


E|--------|--------|--------|--------|--------|--------|--------|--------|------------------------------------|
B|--------|--------|--------|--------|--------|--------|--------|--------|----13---13-13--13-13-13-13-13-10---|
G|--------|--------|--------|--------|--------|--------|--------|--------|------------------------------------|
D|--------|--------|--------|--------|--------|--------|--------|--------|------------------------------------|
A|--------|--------|--------|--------|--------|--------|--------|--------|------------------------------------|
D|--------|--------|--------|--------|--------|--------|--------|--------|------------------------------------|


E|-----------------------|-----------------------------------------|---------------------------------|
B|-10--------------------|-----------------------12-12-12-12-12-10-|-12-10---------------------------|
G|------------12-12-12---|-12-12-10--------------12-12-12-12-12-10-|-12-10---------------------------|
D|-----------------------|----------12--12---12--------------------|-------12--12--0----0----0----12-|
A|-----------------------|-----------------------------------------|---------------------------------|
D|-----------------------|-----------------------------------------|---------------------------------|


E|-------10------------------13--13---|-13---13------------------|---------------13--13------|
B|----10----13-13--13--13-10----------|----------------12--12-10-|-12--10--10----12--12--10--|
G|-12---------------------------------|----------------12--12-10-|-12--10--10------------10--|
D|------------------------------------|--------------------------|---------------------------|
A|------------------------------------|--------------------------|---------------------------|
D|------------------------------------|--------------------------|---------------------------|


E|-------------------------------|-----------------------|--------|----------------|
B|-12-10-------------------------|-13---13-13--13--13----|-15-----|----------------|
G|-12-10-------------------10----|-----------------------|--------|-10-----10--5---|
D|-------12--12---12---12-----12-|-----------------------|--------|----------------|
A|-------------------------------|-----------------------|--------|----------------|
D|-------------------------------|-----------------------|--------|----------------|


E|---------------------------|------------------------------|------------------------|
B|---------------------------|------------------------------|------------------------|
G|-13--13-12-12-12-10--10----|-7---7---0---7---7----7---7---|-7----7---5---5-----5---|
D|---------------------------|------------------------------|------------------------|
A|---------------------------|------------------------------|------------------------|
D|---------------------------|------------------------------|------------------------|


E|----------------|---------------------------|---------------------|-----------------------|
B|----------------|---------------------------|---------------------|-----------------------|
G|-10-----10--10--|-13--13-12-12-12-10--10----|-5-----7---7-----7---|-7---7---5---7---5-----|
D|----------------|---------------------------|---------------------|-----------------------|
A|----------------|---------------------------|---------------------|-----------------------|
D|----------------|---------------------------|---------------------|-----------------------|


E|-----------------------|---------------------------|---------------------|-----------------------------|
B|-----------------------|---------------------------|---------------------|-15---15--13-15-15-13---13---|
G|-10---10-10--10--10----|-13--13--12--10--10----10--|-7-----7---7-----7---|-----------------------------|
D|-----------------------|---------------------------|---------------------|-----------------------------|
A|-----------------------|---------------------------|---------------------|-----------------------------|
D|-----------------------|---------------------------|---------------------|-----------------------------|


E|---------------------------|-16--16-15-15-15-13--13----13--|--------------------|
B|---------------------------|-------------------------------|-15---15--15--15----|
G|-10--10--10--10--10----10--|-------------------------------|--------------------|
D|---------------------------|-------------------------------|--------------------|
A|---------------------------|-------------------------------|--------------------|
D|---------------------------|-------------------------------|--------------------|


E|--------|--------|
B|-15-----|-15-----|
G|--------|--------|
D|--------|--------|
A|--------|--------|
D|--------|--------|





Track 4: Untitled

G|-------------------------------|-------------------------------|-------------------------------|
D|-------------------------------|-------------------------------|-------------------------------|
A|-------------------------------|-------------------------------|-------------------------------|
D|----5--3--0--2--3--3--0--0-----|----5--3--0--2--3--3--0--0-----|----5--3--0--2--3--3--0--0-----|


G|-------------------------------|---------------------------------------------|---------------------------------------------|
D|-------------------------------|---------------------------------------------|---------------------------------------------|
A|-------------------------------|---------------------------------------------|---------------------------------------------|
D|----5--3--0--2--3--3--0--0-----|-5--0--3--0--0--0--5--0--3--0--0--0--0---0---|-5--0--3--0--0--0--5--0--3--0--0--0--0---0---|


G|---------------------------------------------|---------------------------------------------|
D|---------------------------------------------|---------------------------------------------|
A|---------------------------------------------|---------------------------------------------|
D|-5--0--3--0--0--0--5--0--3--0--0--0--0---0---|-5--0--3--0--0--0--5--0--3--0--0--0--0---0---|


G|---------------------------------------------|---------------------------------------------|
D|---------------------------------------------|---------------------------------------------|
A|---------------------------------------------|---------------------------------------------|
D|-5--0--3--0--0--0--5--0--3--0--0--0--0---0---|-5--0--3--0--0--0--5--0--3--0--0--0--0---0---|


G|---------------------------------------------|---------------------------------------------|
D|---------------------------------------------|---------------------------------------------|
A|---------------------------------------------|---------------------------------------------|
D|-5--0--3--0--0--0--5--0--3--0--0--0--0---0---|-5--0--3--0--0--0--5--0--3--0--0--0--0---0---|


G|---------------------------------------------|---------------------------------------------|
D|---------------------------------------------|---------------------------------------------|
A|---------------------------------------------|---------------------------------------------|
D|-5--0--3--0--0--0--5--0--3--0--0--0--0---0---|-5--0--3--0--0--0--5--0--3--0--0--0--0---0---|


G|---------------------------------------------|---------------------------------------------|
D|---------------------------------------------|---------------------------------------------|
A|---------------------------------------------|---------------------------------------------|
D|-5--0--3--0--0--0--5--0--3--0--0--0--0---0---|-5--0--3--0--0--0--5--0--3--0--0--0--0---0---|


G|---------------------------------------------|-------------------------------|-------------------------------------------|
D|---------------------------------------------|-------------------------------|-------------------------------------------|
A|---------------------------------------------|-------------------------------|-------------3--5------------0--2--3---2---|
D|-0--5--3--0--2--3---------5--3--0--2--3------|----5--3--0--2--3--3--0--0-----|-3--5--0--0---------0-----0----------------|


G|---------------------------------------------|-------------------------------------------|
D|--------------------3-----4--0--0------------|-------------------------------------------|
A|-------------3--5---3--------------3--5--5---|-------------3--5------------0--2--3---2---|
D|-3--5--0--0----------------------------------|-3--5--0--0---------0-----0----------------|


G|---------------------------------------------|-------------------------------------------|
D|--------------------3-----4--0--0------------|-------------------------------------------|
A|-------------3--5---3--------------3--5--5---|-------------3--5------------0--2--3---2---|
D|----5--0--0----------------------------------|-3--5--0--0---------0-----0----------------|


G|---------------------------------------------|-------------------------------------------|
D|--------------------3-----4--0--0------------|-------------------------------------------|
A|-------------3--5---3--------------3--5--5---|-------------3--5------------0--2--3---2---|
D|-3--5--0--0----------------------------------|-3--5--0--0---------0-----0----------------|


G|---------------------------------------------|-------------------------------|-------------------------------|
D|--------------------3-----4--0--0------------|-------------------------------|-------------------------------|
A|-------------3--5---3--------------3--5--5---|-5-----------------------------|-------------------------------|
D|----5--0--0----------------------------------|----5--3--0--2--3--3--0--0-----|----5--3--0--2--3--3--0--0-----|


G|---------------------------------------------|---------------------------------------------|
D|---------------------------------------------|---------------------------------------------|
A|---------------------------------------------|---------------------------------------------|
D|-5--0--3--0--0--0--5--0--3--0--0--0--0---0---|-5--0--3--0--0--0--5--0--3--0--0--0--0---0---|


G|---------------------------------------------|---------------------------------------------|
D|---------------------------------------------|---------------------------------------------|
A|---------------------------------------------|---------------------------------------------|
D|-5--0--3--0--0--0--5--0--3--0--0--0--0---0---|-5--0--3--0--0--0--5--0--3--0--0--0--0---0---|


G|---------------------------------------------|---------------------------------------------|
D|---------------------------------------------|---------------------------------------------|
A|---------------------------------------------|---------------------------------------------|
D|-5--0--3--0--0--0--5--0--3--0--0--0--0---0---|-5--0--3--0--0--0--5--0--3--0--0--0--0---0---|


G|---------------------------------------------|---------------------------------------------|
D|---------------------------------------------|---------------------------------------------|
A|---------------------------------------------|---------------------------------------------|
D|-5--0--3--0--0--0--5--0--3--0--0--0--0---0---|-5--0--3--0--0--0--5--0--3--0--0--0--0---0---|


G|---------------------------------------------|-------------------------------|-------------------------------------------|
D|---------------------------------------------|-------------------------------|-------------------------------------------|
A|---------------------------------------------|-------------------------------|-------------3--5------------0--2--3---2---|
D|-0--5--3--0--2--3---------5--3--0--2--3------|----5--3--0--2--3--3--0--0-----|-3--5--0--0---------0-----0----------------|


G|---------------------------------------------|-------------------------------------------|
D|--------------------3-----4--0--0------------|-------------------------------------------|
A|-------------3--5---3--------------3--5--5---|-------------3--5------------0--2--3---2---|
D|-3--5--0--0----------------------------------|-3--5--0--0---------0-----0----------------|


G|---------------------------------------------|-------------------------------------------|
D|--------------------3-----4--0--0------------|-------------------------------------------|
A|-------------3--5---3--------------3--5--5---|-------------3--5------------0--2--3---2---|
D|----5--0--0----------------------------------|-3--5--0--0---------0-----0----------------|


G|---------------------------------------------|-------------------------------------------|
D|--------------------3-----4--0--0------------|-------------------------------------------|
A|-------------3--5---3--------------3--5--5---|-------------3--5------------0--2--3---2---|
D|-3--5--0--0----------------------------------|-3--5--0--0---------0-----0----------------|


G|---------------------------------------------|-------------------------------------------------|
D|--------------------3-----4--0--0------------|-------------------------------------------------|
A|-------------3--5---3--------------3--5--5---|-8--8--8--8--8--8--8--8--7--7--7--7--7--7--7--7--|
D|----5--0--0----------------------------------|-------------------------------------------------|


G|-------------------------------------------------|------------------------------------------|
D|-------------------------------------------------|------------------------------------------|
A|-6--6--6--6--6--6--6--6--5--5--5--5--5--5--5--5--|-1----1-----1--1--1-----1--1--1--1--1--1--|
D|-------------------------------------------------|---------3-----------3--------------------|


G|---------------------------------|-------------------------------------------------|
D|---------------------------------|-------------------------------------------------|
A|-3---3---3---5---5---5---5---5---|-8--8--8--8--8--8--8--8--7--7--7--7--7--7--7--7--|
D|---------------------------------|-------------------------------------------------|


G|-------------------------------------------------|------------------------------------------|
D|-------------------------------------------------|------------------------------------------|
A|-6--6--6--6--6--6--6--6--5--5--5--5--5--5--5--5--|-1----1-----1--1--1-----1--1--1--1--1--1--|
D|-------------------------------------------------|---------3-----------3--------------------|


G|---------------------------------|---------------------------------------------|
D|---------------------------------|---------------------------------------------|
A|-3---3---3---3---3---3---3---3---|---------------------------------------------|
D|---------------------------------|-5--0--3--0--0--0--5--0--3--0--0--0--0---0---|


G|---------------------------------------------|---------------------------------------------|
D|---------------------------------------------|---------------------------------------------|
A|---------------------------------------------|---------------------------------------------|
D|-5--0--3--0--0--0--5--0--3--0--0--0--0---0---|-5--0--3--0--0--0--5--0--3--0--0--0--0---0---|


G|---------------------------------------------|---------------------------------------------|
D|---------------------------------------------|---------------------------------------------|
A|---------------------------------------------|---------------------------------------------|
D|-5--0--3--0--0--0--5--0--3--0--0--0--0---0---|-5--0--3--0--0--0--5--0--3--0--0--0--0---0---|


G|---------------------------------------------|---------------------------------------------|
D|---------------------------------------------|---------------------------------------------|
A|---------------------------------------------|---------------------------------------------|
D|-5--0--3--0--0--0--5--0--3--0--0--0--0---0---|-5--0--3--0--0--0--5--0--3--0--0--0--0---0---|


G|---------------------------------------------|---------------------------------------------|
D|---------------------------------------------|---------------------------------------------|
A|---------------------------------------------|---------------------------------------------|
D|-5--0--3--0--0--0--5--0--3--0--0--0--0---0---|-0--5--3--0--2--3---------5--3--0--2--3------|


G|-------------------------------|-------------------------------------------|---------------------------------------------|
D|-------------------------------|-------------------------------------------|--------------------3-----4--0--0------------|
A|-------------------------------|-------------3--5------------0--2--3---2---|-------------3--5---3--------------3--5--5---|
D|----5--3--0--2--3--3--0--0-----|-3--5--0--0---------0-----0----------------|-3--5--0--0----------------------------------|


G|-------------------------------------------|---------------------------------------------|
D|-------------------------------------------|--------------------3-----4--0--0------------|
A|-------------3--5------------0--2--3---2---|-------------3--5---3--------------3--5--5---|
D|-3--5--0--0---------0-----0----------------|----5--0--0----------------------------------|


G|-------------------------------------------|---------------------------------------------|
D|-------------------------------------------|--------------------3-----4--0--0------------|
A|-------------3--5------------0--2--3---2---|-------------3--5---3--------------3--5--5---|
D|-3--5--0--0---------0-----0----------------|-3--5--0--0----------------------------------|


G|-------------------------------------------|---------------------------------------------|
D|-------------------------------------------|--------------------3-----4--0--0------------|
A|-------------3--5------------0--2--3---2---|-------------3--5---3--------------3--5--5---|
D|-3--5--0--0---------0-----0----------------|----5--0--0----------------------------------|


G|-------------------------------------------|---------------------------------------------|
D|-------------------------------------------|--------------------3-----4--0--0------------|
A|-------------3--5------------0--2--3---2---|-------------3--5---3--------------3--5--5---|
D|-3--5--0--0---------0-----0----------------|-3--5--0--0----------------------------------|


G|-------------------------------------------|---------------------------------------------|
D|-------------------------------------------|--------------------3-----4--0--0------------|
A|-------------3--5------------0--2--3---2---|-------------3--5---3--------------3--5--5---|
D|-3--5--0--0---------0-----0----------------|----5--0--0----------------------------------|


G|-------------------------------------------|---------------------------------------------|
D|-------------------------------------------|--------------------3-----4--0--0------------|
A|-------------3--5------------0--2--3---2---|-------------3--5---3--------------3--5--5---|
D|-3--5--0--0---------0-----0----------------|-3--5--0--0----------------------------------|


G|-------------------------------------------|---------------------------------------------|
D|-------------------------------------------|--------------------3-----4--0--0------------|
A|-------------3--5------------0--2--3---2---|-------------3--5---3--------------3--5--5---|
D|-3--5--0--0---------0-----0----------------|----5--0--0----------------------------------|


G|-------------------------------------------------|-------------------------------------------------|
D|-------------------------------------------------|-------------------------------------------------|
A|-8--8--8--8--8--8--8--8--7--7--7--7--7--7--7--7--|-6--6--6--6--6--6--6--6--5--5--5--5--5--5--5--5--|
D|-------------------------------------------------|-------------------------------------------------|


G|------------------------------------------|---------------------------------|-------------------------------------------------|
D|------------------------------------------|---------------------------------|-------------------------------------------------|
A|-1----1-----1--1--1-----1--1--1--1--1--1--|-3---3---3---5---5---5---5---5---|-8--8--8--8--8--8--8--8--7--7--7--7--7--7--7--7--|
D|---------3-----------3--------------------|---------------------------------|-------------------------------------------------|


G|-------------------------------------------------|------------------------------------------|
D|-------------------------------------------------|------------------------------------------|
A|-6--6--6--6--6--6--6--6--5--5--5--5--5--5--5--5--|-1----1-----1--1--1-----1--1--1--1--1--1--|
D|-------------------------------------------------|---------3-----------3--------------------|


G|---------------------------------|-------------------------------------------------|
D|---------------------------------|-------------------------------------------------|
A|-3---3---3---5---5---5---5---5---|-8--8--8--8--8--8--8--8--7--7--7--7--7--7--7--7--|
D|---------------------------------|-------------------------------------------------|


G|-------------------------------------------------|------------------------------------------|
D|-------------------------------------------------|------------------------------------------|
A|-6--6--6--6--6--6--6--6--5--5--5--5--5--5--5--5--|-1----1-----1--1--1-----1--1--1--1--1--1--|
D|-------------------------------------------------|---------3-----------3--------------------|


G|---------------------------------|-------------------------------------------------|
D|---------------------------------|-------------------------------------------------|
A|-3---3---3---5---5---5---5---5---|-8--8--8--8--8--8--8--8--7--7--7--7--7--7--7--7--|
D|---------------------------------|-------------------------------------------------|


G|-------------------------------------------------|------------------------------------------|
D|-------------------------------------------------|------------------------------------------|
A|-6--6--6--6--6--6--6--6--5--5--5--5--5--5--5--5--|-1----1-----1--1--1-----1--1--1--1--1--1--|
D|-------------------------------------------------|---------3-----------3--------------------|


G|-----------------------|--------|--------|
D|-----------------------|--------|--------|
A|-3---3---3---5---5-----|-5------|-5------|
D|-----------------------|--------|--------|