Menu:

 

Search:

 

stone temple pilots - no memory:

 



Title: No Memory
Artist: 
Album: Core
Author: Dean Deleo


Track 1: Acoustic Guitar

E|---------------------------------|---------------------------------|---------------------------------|
B|-------------0---1---------------|-----1-----------------------2---|-3-------------------------------|
G|---------2-----------2-----------|-0-------0---------------4-------|-----4---------------4-----------|
D|-----2-----------------------2---|-------------2-------4-----------|-----------------4-------4-------|
A|-0-----------------------3-------|-----------------2---------------|-------------5---------------5---|
E|---------------------------------|---------------------------------|---------3-----------------------|


E|---------------------------------|---------------------------------|---------------------|
B|---------------------------------|---------------------------------|-----3---1-----0-----|
G|-------------2-------------------|-----7-----------------------0---|-----0---0-----0-----|
D|---------2-------2---------------|-7-------7---------------2-------|-----2---2-----2-----|
A|-----3---------------3-------8---|-------------8-------2-----------|---------------------|
E|-1-----------------------6-------|-----------------0---------------|---------------------|


E|---------------------------------|---------------------------------|---------------------------------|
B|-------------0---1---------------|-----1-----------------------2---|-3-------------------------------|
G|---------2-----------2-----------|-0-------0---------------4-------|-----4---------------4-----------|
D|-----2-----------------------2---|-------------2-------4-----------|-----------------4-------4-------|
A|-0-----------------------3-------|-----------------2---------------|-------------5---------------5---|
E|---------------------------------|---------------------------------|---------3-----------------------|


E|---------------------------------|---------------------------------|---------------------|
B|---------------------------------|---------------------------------|-----3---1-----0-----|
G|-------------2-------------------|-----7-----------------------0---|-----0---0-----0-----|
D|---------2-------2---------------|-7-------7---------------2-------|-----2---2-----2-----|
A|-----3---------------3-------8---|-------------8-------2-----------|---------------------|
E|-1-----------------------6-------|-----------------0---------------|---------------------|


E|-------------------------------------|---------------------------------|---------------------------------|
B|-------------0--1--0--1--------------|-----1-----------------------2---|-3-------------------------------|
G|---------2---------------2-----------|-0-------0---------------4-------|-----4---------------4-----------|
D|-----2---------------------------2---|-------------2-------4-----------|-----------------4-------4-------|
A|-0---------------------------3-------|-----------------2---------------|-------------5---------------5---|
E|-------------------------------------|---------------------------------|---------3-----------------------|


E|---------------------------------|---------------------------------|---------------0-----|
B|---------------------------------|---------------------------------|-----3---1-----0-----|
G|-------------2-------------------|-----7-----------------------0---|-----0---0-----0-----|
D|---------2-------2---------------|-7-------7---------------2-------|-----2---2-----2-----|
A|-----3---------------3-------8---|-------------8-------2-----------|---------------------|
E|-1-----------------------6-------|-----------------0---------------|---------------------|


E|-------------------------------|---------------------------------|-----2---------------------------|
B|-------0--1--0--1--------------|-----1-----------------------2---|-3-------------------------------|
G|-2-----------------2-----------|-0-------0---------------4-------|---------------------4-----------|
D|-2-------------------------2---|---------------------4-----------|-----------------4-------4-------|
A|-0---------------------3-------|-------------3---2---------------|-------------5---------------5---|
E|-------------------------------|---------------------------------|---------3-----------------------|


E|---------------------------------|---------------------------------|---------------------|
B|---------------------------------|---------------------------------|-----3---1-----0-----|
G|-------------2-------------------|-----7-----------------------0---|-----0---0-----------|
D|---------2-------2---------------|-7-------7---------------2-------|-----2---2-----------|
A|-----3---------------3-------8---|-------------8-------2-----------|---------------------|
E|-1-----------------------6-------|-----------------0---------------|---------------------|


E|---------------------------------|-------------------------------------|---------------------------------|
B|-------------0---1---------------|---------------------------------2---|-3-------------------------------|
G|---------2-----------2-----------|-0---17-16-0--17-------------4-------|-----4---------------4-----------|
D|-----2-----------------------2---|-------------------------4-----------|-----------------4-------4-------|
A|-0-----------------------3-------|-----------------3---2---------------|-------------5---------------5---|
E|---------------------------------|-------------------------------------|---------3-----------------------|


E|---------------------------------|---------------------------------|---------------------|
B|---------------------------------|---------------------------------|-----3---1-----0-----|
G|-------------2-------------------|-----7-----------------------0---|-----0---0-----0-----|
D|---------2-------2---------------|-7-------7---------------2-------|-----2---2-----2-----|
A|-----3---------------3-------8---|-------------8-------2-----------|---------------------|
E|-1-----------------------6-------|-----------------0---------------|---------------------|





Track 2: Clean Elec.

E|--------|--------|--------|--------|--------|--------|--------|--------|--------|
B|--------|--------|--------|--------|--------|--------|--------|--------|--------|
G|--------|--------|--------|--------|--------|--------|--------|--------|--------|
D|--------|--------|--------|--------|--------|--------|--------|--------|--------|
A|--------|--------|--------|--------|--------|--------|--------|--------|--------|
E|--------|--------|--------|--------|--------|--------|--------|--------|--------|


E|--------|--------|--------|---------------------------------|---------------------------------|
B|--------|--------|--------|-------------0---1---------------|-----1-----------------------2---|
G|--------|--------|--------|---------2-----------2-----------|-0-------0---------------4-------|
D|--------|--------|--------|-----2-----------------------2---|-------------2-------4-----------|
A|--------|--------|--------|-0-----------------------3-------|-----------------2---------------|
E|--------|--------|--------|---------------------------------|---------------------------------|


E|---------------------------------|---------------------------------|---------------------------------|
B|-3-------------------------------|---------------------------------|---------------------------------|
G|-----4---------------4-----------|-------------2-------------------|-----7-----------------------0---|
D|-----------------4-------4-------|---------2-------2---------------|-7-------7---------------2-------|
A|-------------5---------------5---|-----3---------------3-------8---|-------------8-------2-----------|
E|---------3-----------------------|-1-----------------------6-------|-----------------0---------------|


E|---------------------|---------------------------------|---------------------------------|
B|-----3---1-----0-----|-------------0---1---------------|-----1-----------------------2---|
G|-----0---0-----0-----|---------2-----------2-----------|-0-------0---------------4-------|
D|-----2---2-----2-----|-----2-----------------------2---|-------------2-------4-----------|
A|---------------------|-0-----------------------3-------|-----------------2---------------|
E|---------------------|---------------------------------|---------------------------------|


E|-----2---------------------------|---------------------------------|---------------------------------|
B|-3-------------------------------|---------------------------------|---------------------------------|
G|---------------------4-----------|-------------2-------------------|-----7-----------------------0---|
D|-----------------4-------4-------|---------2-------2---------------|-7-------7---------------2-------|
A|-------------5---------------5---|-----3---------------3-------8---|-------------8-------2-----------|
E|---------3-----------------------|-1-----------------------6-------|-----------------0---------------|


E|---------------------|---------------------------------|---------------------------------|
B|-----3---1-----0-----|-------------0---1---------------|-----1-----------------------2---|
G|-----0---0-----------|---------2-----------2-----------|-0-------0---------------4-------|
D|-----2---2-----------|-----2-----------------------2---|-------------2-------4-----------|
A|---------------------|-0-----------------------3-------|-----------------2---------------|
E|---------------------|---------------------------------|---------------------------------|


E|---------------------------------|---------------------------------|---------------------------------|
B|-3-------------------------------|---------------------------------|---------------------------------|
G|-----4---------------4-----------|-------------2-------------------|-----7-----------------------0---|
D|-----------------4-------4-------|---------2-------2---------------|-7-------7---------------2-------|
A|-------------5---------------5---|-----3---------------3-------8---|-------------8-------2-----------|
E|---------3-----------------------|-1-----------------------6-------|-----------------0---------------|


E|---------------------|
B|-----3---1-----0-----|
G|-----0---0-----0-----|
D|-----2---2-----2-----|
A|---------------------|
E|---------------------|





Track 3: Untitled

G|--------|--------|--------|--------|--------|--------|--------|--------|--------|
D|--------|--------|--------|--------|--------|--------|--------|--------|--------|
A|--------|--------|--------|--------|--------|--------|--------|--------|--------|
E|--------|--------|--------|--------|--------|--------|--------|--------|--------|


G|--------|--------|--------|--------|--------|--------|--------|--------|--------|
D|--------|--------|--------|--------|--------|--------|--------|--------|--------|
A|--------|--------|--------|--------|--------|--------|--------|--------|--------|
E|--------|--------|--------|--------|--------|--------|--------|--------|--------|


G|--------|--------|--------|--------|--------|--------|--------|--------|--------|
D|--------|--------|--------|--------|--------|--------|--------|--------|--------|
A|--------|--------|--------|--------|--------|--------|--------|--------|--------|
E|--------|--------|--------|--------|--------|--------|--------|--------|--------|


G|--------|--------|--------|
D|--------|--------|--------|
A|--------|--------|--------|
E|--------|--------|--------|