Menu:

 

Search:

 

stone temple pilots - naked sunday:

 



Title: Naked Sunday
Artist: 
Album: Core
Author: 


Track 1: Guitar 1

E|--------|--------|--------|--------|--------|--------|--------|--------|------------------------------------|
B|--------|--------|--------|--------|--------|--------|--------|--------|-4---4--4--4--4--4---4----4---8--8--|
G|--------|--------|--------|--------|--------|--------|--------|--------|-5---5--5--5--5--5---5----5---9--9--|
D|--------|--------|--------|--------|--------|--------|--------|--------|-6---6--6--6--6--6---6----6---10-10-|
A|--------|--------|--------|--------|--------|--------|--------|--------|-6---6--6--6--6--6---6----6---10-10-|
E|--------|--------|--------|--------|--------|--------|--------|--------|-4---4--4--4--4--4---4----4---8--8--|


E|----------------|------------------------------------|----------------|------------------------------------|
B|-8------8----4--|-4---4--4--4--4--4---4----4---8--8--|-8------8----4--|-4---4--4--4--4--4---4----4---8--8--|
G|-9------9----5--|-5---5--5--5--5--5---5----5---9--9--|-9------9----5--|-5---5--5--5--5--5---5----5---9--9--|
D|-10-----10---6--|-6---6--6--6--6--6---6----6---10-8--|-8------8----6--|-6---6--6--6--6--6---6----6---10-10-|
A|-10-----10---6--|-6---6--6--6--6--6---6----6---10-10-|-10-----10---6--|-6---6--6--6--6--6---6----6---10-10-|
E|-8------8----4--|-4---4--4--4--4--4---4----4---8--8--|-8------8----4--|-4---4--4--4--4--4---4----4---8--8--|


E|----------------|------------------------------------|----------------|--------------------------------------|
B|-8------8----4--|-4---4--4--4--4--4---4----4---8--8--|-8------8----4--|-4----4---4--4--4--4--4--4--4---4--4--|
G|-9------9----5--|-5---5--5--5--5--5---5----5---9--9--|-9------9----5--|-5----5---5--5--5--5--5--5--5---5--5--|
D|-10-----10---6--|-6---6--6--6--6--6---6----6---10-8--|-8------8----6--|-6----6---6--6--6--6--6--6--6---6--6--|
A|-10-----10---6--|-6---6--6--6--6--6---6----6---10-10-|-10-----10---6--|-6----6---6--6--6--6--6--6--6---6--6--|
E|-8------8----4--|-4---4--4--4--4--4---4----4---8--8--|-8------8----4--|-4----4---4--4--4--4--4--4--4---4--4--|


E|--------------------------------------|--------------------------------------|------------------|
B|-8----8---8--8--8--8--8--8--8---8--8--|-4----4---4--4--4--4--4--4--4---4--4--|-8------8---4--4--|
G|-9----9---9--9--9--9--9--9--9---9--9--|-5----5---5--5--5--5--5--5--5---5--5--|-9------9---5--5--|
D|-10---10--10-10-10-10-10-10-10--10-10-|-6----6---6--6--6--6--6--6--6---6--6--|-8------8---6--6--|
A|-10---10--10-10-10-10-10-10-10--10-10-|-6----6---6--6--6--6--6--6--6---6--6--|-10-----10--6--6--|
E|-8----8---8--8--8--8--8--8--8---8--8--|-4----4---4--4--4--4--4--4--4---4--4--|-8------8---4--4--|


E|--------------------------------------|--------------------------------------|--------------------------------------|
B|-4----4---4--4--4--4--4--4--4---4--4--|-8----8---8--8--8--8--8--8--8---8--8--|-4----4---4--4--4--4--4--4--4---4--4--|
G|-5----5---5--5--5--5--5--5--5---5--5--|-9----9---9--9--9--9--9--9--9---9--9--|-5----5---5--5--5--5--5--5--5---5--5--|
D|-6----6---6--6--6--6--6--6--6---6--6--|-10---10--10-10-10-10-10-10-10--10-10-|-6----6---6--6--6--6--6--6--6---6--6--|
A|-6----6---6--6--6--6--6--6--6---6--6--|-10---10--10-10-10-10-10-10-10--10-10-|-6----6---6--6--6--6--6--6--6---6--6--|
E|-4----4---4--4--4--4--4--4--4---4--4--|-8----8---8--8--8--8--8--8--8---8--8--|-4----4---4--4--4--4--4--4--4---4--4--|


E|------------------|------------------------------------|----------------|------------------------------------|
B|-8------8---4--4--|-4---4--4--4--4--4---4----4---8--8--|-8------8----4--|-4---4--4--4--4--4---4----4---8--8--|
G|-9------9---5--5--|-5---5--5--5--5--5---5----5---9--9--|-9------9----5--|-5---5--5--5--5--5---5----5---9--9--|
D|-8------8---6--6--|-6---6--6--6--6--6---6----6---10-10-|-10-----10---6--|-6---6--6--6--6--6---6----6---10-8--|
A|-10-----10--6--6--|-6---6--6--6--6--6---6----6---10-10-|-10-----10---6--|-6---6--6--6--6--6---6----6---10-10-|
E|-8------8---4--4--|-4---4--4--4--4--4---4----4---8--8--|-8------8----4--|-4---4--4--4--4--4---4----4---8--8--|


E|----------------|------------------------------------|----------------|------------------------------------|
B|-8------8----4--|-4---4--4--4--4--4---4----4---8--8--|-8------8----4--|-4---4--4--4--4--4---4----4---8--8--|
G|-9------9----5--|-5---5--5--5--5--5---5----5---9--9--|-9------9----5--|-5---5--5--5--5--5---5----5---9--9--|
D|-8------8----6--|-6---6--6--6--6--6---6----6---10-10-|-10-----10---6--|-6---6--6--6--6--6---6----6---10-8--|
A|-10-----10---6--|-6---6--6--6--6--6---6----6---10-10-|-10-----10---6--|-6---6--6--6--6--6---6----6---10-10-|
E|-8------8----4--|-4---4--4--4--4--4---4----4---8--8--|-8------8----4--|-4---4--4--4--4--4---4----4---8--8--|


E|----------------|--------------------|--------------------|--------------------|
B|-8------8----4--|-4----4-----4----8--|-8----8-----8----4--|-4----4-----4----8--|
G|-9------9----5--|-5----5-----5----9--|-9----9-----9----5--|-5----5-----5----9--|
D|-8------8----6--|-6----6-----6----10-|-10---10----10---6--|-6----6-----6----10-|
A|-10-----10---6--|-6----6-----6----10-|-10---10----10---6--|-6----6-----6----10-|
E|-8------8----4--|-4----4-----4----8--|-8----8-----8----4--|-4----4-----4----8--|


E|--------------------|--------------------|--------------------|--------------------|
B|-8----8-----8----4--|-4----4-----4----8--|-8----8-----8----4--|-4----4-----4----8--|
G|-9----9-----9----5--|-5----5-----5----9--|-9----9-----9----5--|-5----5-----5----9--|
D|-8----8-----8----6--|-6----6-----6----10-|-10---10----10---6--|-6----6-----6----10-|
A|-10---10----10---6--|-6----6-----6----10-|-10---10----10---6--|-6----6-----6----10-|
E|-8----8-----8----4--|-4----4-----4----8--|-8----8-----8----4--|-4----4-----4----8--|


E|--------------------|--------------------------------------|--------------------------------------|
B|-8----8-----8----4--|-4----4---4--4--4--4--4--4--4---4--4--|-8----8---8--8--8--8--8--8--8---8--8--|
G|-9----9-----9----5--|-5----5---5--5--5--5--5--5--5---5--5--|-9----9---9--9--9--9--9--9--9---9--9--|
D|-8----8-----8----6--|-6----6---6--6--6--6--6--6--6---6--6--|-10---10--10-10-10-10-10-10-10--10-10-|
A|-10---10----10---6--|-6----6---6--6--6--6--6--6--6---6--6--|-10---10--10-10-10-10-10-10-10--10-10-|
E|-8----8-----8----4--|-4----4---4--4--4--4--4--4--4---4--4--|-8----8---8--8--8--8--8--8--8---8--8--|


E|--------------------------------------|------------------|--------------------------------------|
B|-4----4---4--4--4--4--4--4--4---4--4--|-8------8---4--4--|-4----4---4--4--4--4--4--4--4---4--4--|
G|-5----5---5--5--5--5--5--5--5---5--5--|-9------9---5--5--|-5----5---5--5--5--5--5--5--5---5--5--|
D|-6----6---6--6--6--6--6--6--6---6--6--|-8------8---6--6--|-6----6---6--6--6--6--6--6--6---6--6--|
A|-6----6---6--6--6--6--6--6--6---6--6--|-10-----10--6--6--|-6----6---6--6--6--6--6--6--6---6--6--|
E|-4----4---4--4--4--4--4--4--4---4--4--|-8------8---4--4--|-4----4---4--4--4--4--4--4--4---4--4--|


E|--------------------------------------|--------------------------------------|------------------|
B|-8----8---8--8--8--8--8--8--8---8--8--|-4----4---4--4--4--4--4--4--4---4--4--|-8------8---4--4--|
G|-9----9---9--9--9--9--9--9--9---9--9--|-5----5---5--5--5--5--5--5--5---5--5--|-9------9---5--5--|
D|-10---10--10-10-10-10-10-10-10--10-10-|-6----6---6--6--6--6--6--6--6---6--6--|-8------8---6--6--|
A|-10---10--10-10-10-10-10-10-10--10-10-|-6----6---6--6--6--6--6--6--6---6--6--|-10-----10--6--6--|
E|-8----8---8--8--8--8--8--8--8---8--8--|-4----4---4--4--4--4--4--4--4---4--4--|-8------8---4--4--|


E|------------------------------------|----------------|------------------------------------|
B|-4---4--4--4--4--4---4----4---8--8--|-8------8----4--|-4---4--4--4--4--4---4----4---8--8--|
G|-5---5--5--5--5--5---5----5---9--9--|-9------9----5--|-5---5--5--5--5--5---5----5---9--9--|
D|-6---6--6--6--6--6---6----6---10-10-|-10-----10---6--|-6---6--6--6--6--6---6----6---10-8--|
A|-6---6--6--6--6--6---6----6---10-10-|-10-----10---6--|-6---6--6--6--6--6---6----6---10-10-|
E|-4---4--4--4--4--4---4----4---8--8--|-8------8----4--|-4---4--4--4--4--4---4----4---8--8--|


E|----------------|------------------------------------|----------------|------------------------------------|
B|-8------8----4--|-4---4--4--4--4--4---4----4---8--8--|-8------8----4--|-4---4--4--4--4--4---4----4---8--8--|
G|-9------9----5--|-5---5--5--5--5--5---5----5---9--9--|-9------9----5--|-5---5--5--5--5--5---5----5---9--9--|
D|-8------8----6--|-6---6--6--6--6--6---6----6---10-10-|-10-----10---6--|-6---6--6--6--6--6---6----6---10-8--|
A|-10-----10---6--|-6---6--6--6--6--6---6----6---10-10-|-10-----10---6--|-6---6--6--6--6--6---6----6---10-10-|
E|-8------8----4--|-4---4--4--4--4--4---4----4---8--8--|-8------8----4--|-4---4--4--4--4--4---4----4---8--8--|


E|----------------|------------------------------------|----------------|------------------------------------|
B|-8------8----4--|-4---4--4--4--4--4---4----4---8--8--|-8------8----4--|-4---4--4--4--4--4---4----4---8--8--|
G|-9------9----5--|-5---5--5--5--5--5---5----5---9--9--|-9------9----5--|-5---5--5--5--5--5---5----5---9--9--|
D|-8------8----6--|-6---6--6--6--6--6---6----6---10-10-|-10-----10---6--|-6---6--6--6--6--6---6----6---10-8--|
A|-10-----10---6--|-6---6--6--6--6--6---6----6---10-10-|-10-----10---6--|-6---6--6--6--6--6---6----6---10-10-|
E|-8------8----4--|-4---4--4--4--4--4---4----4---8--8--|-8------8----4--|-4---4--4--4--4--4---4----4---8--8--|


E|----------------|--------------------|--------------------|--------------------|
B|-8------8----4--|-4----4-----4----8--|-8----8-----8----4--|-4----4-----4----8--|
G|-9------9----5--|-5----5-----5----9--|-9----9-----9----5--|-5----5-----5----9--|
D|-8------8----6--|-6----6-----6----10-|-10---10----10---6--|-6----6-----6----10-|
A|-10-----10---6--|-6----6-----6----10-|-10---10----10---6--|-6----6-----6----10-|
E|-8------8----4--|-4----4-----4----8--|-8----8-----8----4--|-4----4-----4----8--|


E|--------------------|--------------------|--------------------|--------------------|
B|-8----8-----8----4--|-4----4-----4----8--|-8----8-----8----4--|-4----4-----4----8--|
G|-9----9-----9----5--|-5----5-----5----9--|-9----9-----9----5--|-5----5-----5----9--|
D|-8----8-----8----6--|-6----6-----6----10-|-10---10----10---6--|-6----6-----6----10-|
A|-10---10----10---6--|-6----6-----6----10-|-10---10----10---6--|-6----6-----6----10-|
E|-8----8-----8----4--|-4----4-----4----8--|-8----8-----8----4--|-4----4-----4----8--|


E|--------------------|--------------------------------------|--------------------------------------|
B|-8----8-----8----4--|-4----4---4--4--4--4--4--4--4---4--4--|-8----8---8--8--8--8--8--8--8---8--8--|
G|-9----9-----9----5--|-5----5---5--5--5--5--5--5--5---5--5--|-9----9---9--9--9--9--9--9--9---9--9--|
D|-8----8-----8----6--|-6----6---6--6--6--6--6--6--6---6--6--|-10---10--10-10-10-10-10-10-10--10-10-|
A|-10---10----10---6--|-6----6---6--6--6--6--6--6--6---6--6--|-10---10--10-10-10-10-10-10-10--10-10-|
E|-8----8-----8----4--|-4----4---4--4--4--4--4--4--4---4--4--|-8----8---8--8--8--8--8--8--8---8--8--|


E|--------------------------------------|------------------|--------------------------------------|
B|-4----4---4--4--4--4--4--4--4---4--4--|-8------8---4--4--|-4----4---4--4--4--4--4--4--4---4--4--|
G|-5----5---5--5--5--5--5--5--5---5--5--|-9------9---5--5--|-5----5---5--5--5--5--5--5--5---5--5--|
D|-6----6---6--6--6--6--6--6--6---6--6--|-8------8---6--6--|-6----6---6--6--6--6--6--6--6---6--6--|
A|-6----6---6--6--6--6--6--6--6---6--6--|-10-----10--6--6--|-6----6---6--6--6--6--6--6--6---6--6--|
E|-4----4---4--4--4--4--4--4--4---4--4--|-8------8---4--4--|-4----4---4--4--4--4--4--4--4---4--4--|


E|--------------------------------------|--------------------------------------|------------------|
B|-8----8---8--8--8--8--8--8--8---8--8--|-4----4---4--4--4--4--4--4--4---4--4--|-8------8---4--4--|
G|-9----9---9--9--9--9--9--9--9---9--9--|-5----5---5--5--5--5--5--5--5---5--5--|-9------9---5--5--|
D|-10---10--10-10-10-10-10-10-10--10-10-|-6----6---6--6--6--6--6--6--6---6--6--|-8------8---6--6--|
A|-10---10--10-10-10-10-10-10-10--10-10-|-6----6---6--6--6--6--6--6--6---6--6--|-10-----10--6--6--|
E|-8----8---8--8--8--8--8--8--8---8--8--|-4----4---4--4--4--4--4--4--4---4--4--|-8------8---4--4--|


E|--------|--------|--------|--------|--------|--------|--------|--------|------------------------------------|
B|--------|--------|--------|--------|--------|--------|--------|--------|-4---4--4--4--4--4---4----4---8--8--|
G|--------|--------|--------|--------|--------|--------|--------|--------|-5---5--5--5--5--5---5----5---9--9--|
D|--------|--------|--------|--------|--------|--------|--------|--------|-6---6--6--6--6--6---6----6---10-10-|
A|--------|--------|--------|--------|--------|--------|--------|--------|-6---6--6--6--6--6---6----6---10-10-|
E|--------|--------|--------|--------|--------|--------|--------|--------|-4---4--4--4--4--4---4----4---8--8--|


E|----------------|------------------------------------|------------------|------------------------------------|
B|-8------8----4--|-4---4--4--4--4--4---4----4---8--8--|-8------8---4--4--|-4---4--4--4--4--4---4----4---8--8--|
G|-9------9----5--|-5---5--5--5--5--5---5----5---9--9--|-9------9---5--5--|-5---5--5--5--5--5---5----5---9--9--|
D|-10-----10---6--|-6---6--6--6--6--6---6----6---10-8--|-8------8---6--6--|-6---6--6--6--6--6---6----6---10-10-|
A|-10-----10---6--|-6---6--6--6--6--6---6----6---10-10-|-10-----10--6--6--|-6---6--6--6--6--6---6----6---10-10-|
E|-8------8----4--|-4---4--4--4--4--4---4----4---8--8--|-8------8---4--4--|-4---4--4--4--4--4---4----4---8--8--|


E|----------------|------------------------------------|------------------|--------------------------------------|
B|-8------8----4--|-4---4--4--4--4--4---4----4---8--8--|-8------8---4--4--|-4----4---4--4--4--4--4--4--4---4--4--|
G|-9------9----5--|-5---5--5--5--5--5---5----5---9--9--|-9------9---5--5--|-5----5---5--5--5--5--5--5--5---5--5--|
D|-10-----10---6--|-6---6--6--6--6--6---6----6---10-8--|-8------8---6--6--|-6----6---6--6--6--6--6--6--6---6--6--|
A|-10-----10---6--|-6---6--6--6--6--6---6----6---10-10-|-10-----10--6--6--|-6----6---6--6--6--6--6--6--6---6--6--|
E|-8------8----4--|-4---4--4--4--4--4---4----4---8--8--|-8------8---4--4--|-4----4---4--4--4--4--4--4--4---4--4--|


E|--------------------------------------|--------------------------------------|------------------|
B|-8----8---8--8--8--8--8--8--8---8--8--|-4----4---4--4--4--4--4--4--4---4--4--|-8------8---4--4--|
G|-9----9---9--9--9--9--9--9--9---9--9--|-5----5---5--5--5--5--5--5--5---5--5--|-9------9---5--5--|
D|-10---10--10-10-10-10-10-10-10--10-10-|-6----6---6--6--6--6--6--6--6---6--6--|-8------8---6--6--|
A|-10---10--10-10-10-10-10-10-10--10-10-|-6----6---6--6--6--6--6--6--6---6--6--|-10-----10--6--6--|
E|-8----8---8--8--8--8--8--8--8---8--8--|-4----4---4--4--4--4--4--4--4---4--4--|-8------8---4--4--|


E|--------------------------------------|--------------------------------------|--------------------------------------|
B|-4----4---4--4--4--4--4--4--4---4--4--|-8----8---8--8--8--8--8--8--8---8--8--|-4----4---4--4--4--4--4--4--4---4--4--|
G|-5----5---5--5--5--5--5--5--5---5--5--|-9----9---9--9--9--9--9--9--9---9--9--|-5----5---5--5--5--5--5--5--5---5--5--|
D|-6----6---6--6--6--6--6--6--6---6--6--|-10---10--10-10-10-10-10-10-10--10-10-|-6----6---6--6--6--6--6--6--6---6--6--|
A|-6----6---6--6--6--6--6--6--6---6--6--|-10---10--10-10-10-10-10-10-10--10-10-|-6----6---6--6--6--6--6--6--6---6--6--|
E|-4----4---4--4--4--4--4--4--4---4--4--|-8----8---8--8--8--8--8--8--8---8--8--|-4----4---4--4--4--4--4--4--4---4--4--|


E|------------------|--------------------------------------|--------------------------------------|
B|-8------8---4--4--|-4----4---4--4--4--4--4--4--4---4--4--|-8----8---8--8--8--8--8--8--8---8--8--|
G|-9------9---5--5--|-5----5---5--5--5--5--5--5--5---5--5--|-9----9---9--9--9--9--9--9--9---9--9--|
D|-8------8---6--6--|-6----6---6--6--6--6--6--6--6---6--6--|-10---10--10-10-10-10-10-10-10--10-10-|
A|-10-----10--6--6--|-6----6---6--6--6--6--6--6--6---6--6--|-10---10--10-10-10-10-10-10-10--10-10-|
E|-8------8---4--4--|-4----4---4--4--4--4--4--4--4---4--4--|-8----8---8--8--8--8--8--8--8---8--8--|


E|--------------------------------------|------------------|--------------------------------------|
B|-4----4---4--4--4--4--4--4--4---4--4--|-8------8---4--4--|-4----4---4--4--4--4--4--4--4---4--4--|
G|-5----5---5--5--5--5--5--5--5---5--5--|-9------9---5--5--|-5----5---5--5--5--5--5--5--5---5--5--|
D|-6----6---6--6--6--6--6--6--6---6--6--|-8------8---6--6--|-6----6---6--6--6--6--6--6--6---6--6--|
A|-6----6---6--6--6--6--6--6--6---6--6--|-10-----10--6--6--|-6----6---6--6--6--6--6--6--6---6--6--|
E|-4----4---4--4--4--4--4--4--4---4--4--|-8------8---4--4--|-4----4---4--4--4--4--4--4--4---4--4--|


E|--------------------------------------|--------------------------------------|------------------|
B|-8----8---8--8--8--8--8--8--8---8--8--|-4----4---4--4--4--4--4--4--4---4--4--|-8------8---4--4--|
G|-9----9---9--9--9--9--9--9--9---9--9--|-5----5---5--5--5--5--5--5--5---5--5--|-9------9---5--5--|
D|-10---10--10-10-10-10-10-10-10--10-10-|-6----6---6--6--6--6--6--6--6---6--6--|-8------8---6--6--|
A|-10---10--10-10-10-10-10-10-10--10-10-|-6----6---6--6--6--6--6--6--6---6--6--|-10-----10--6--6--|
E|-8----8---8--8--8--8--8--8--8---8--8--|-4----4---4--4--4--4--4--4--4---4--4--|-8------8---4--4--|


E|------------------------------------|----------------|------------------------------------|
B|-4---4--4--4--4--4---4----4---8--8--|-8------8----4--|-4---4--4--4--4--4---4----4---8--8--|
G|-5---5--5--5--5--5---5----5---9--9--|-9------9----5--|-5---5--5--5--5--5---5----5---9--9--|
D|-6---6--6--6--6--6---6----6---10-10-|-10-----10---6--|-6---6--6--6--6--6---6----6---10-8--|
A|-6---6--6--6--6--6---6----6---10-10-|-10-----10---6--|-6---6--6--6--6--6---6----6---10-10-|
E|-4---4--4--4--4--4---4----4---8--8--|-8------8----4--|-4---4--4--4--4--4---4----4---8--8--|


E|----------------|------------------------------------|----------------|------------------------------------|
B|-8------8----4--|-4---4--4--4--4--4---4----4---8--8--|-8------8----4--|-4---4--4--4--4--4---4----4---8--8--|
G|-9------9----5--|-5---5--5--5--5--5---5----5---9--9--|-9------9----5--|-5---5--5--5--5--5---5----5---9--9--|
D|-8------8----6--|-6---6--6--6--6--6---6----6---10-10-|-10-----10---6--|-6---6--6--6--6--6---6----6---10-8--|
A|-10-----10---6--|-6---6--6--6--6--6---6----6---10-10-|-10-----10---6--|-6---6--6--6--6--6---6----6---10-10-|
E|-8------8----4--|-4---4--4--4--4--4---4----4---8--8--|-8------8----4--|-4---4--4--4--4--4---4----4---8--8--|


E|--------|--------|--------|
B|-8------|-8------|-8------|
G|-9------|-9------|-9------|
D|-8------|-8------|-8------|
A|-10-----|-10-----|-10-----|
E|-8------|-8------|-8------|





Track 2: Guitar 2

E|--------|--------|--------|--------|--------|--------|--------|--------|--------|
B|--------|--------|--------|--------|--------|--------|--------|--------|--------|
G|--------|--------|--------|--------|--------|--------|--------|--------|--------|
D|--------|--------|--------|--------|--------|--------|--------|--------|--------|
A|--------|--------|--------|--------|--------|--------|--------|--------|--------|
E|--------|--------|--------|--------|--------|--------|--------|--------|--------|


E|--------|--------|--------|--------|--------|--------|--------|--------|--------|
B|--------|--------|--------|--------|--------|--------|--------|--------|--------|
G|--------|--------|--------|--------|--------|--------|--------|--------|--------|
D|--------|--------|--------|--------|--------|--------|--------|--------|--------|
A|--------|--------|--------|--------|--------|--------|--------|--------|--------|
E|--------|--------|--------|--------|--------|--------|--------|--------|--------|


E|--------|--------|--------|--------|--------|--------|--------|-----------------------------------|
B|--------|--------|--------|--------|--------|--------|--------|-----------------------------------|
G|--------|--------|--------|--------|--------|--------|--------|-----------------------------------|
D|--------|--------|--------|--------|--------|--------|--------|-------8--8--8--10-10-10-8---10-10-|
A|--------|--------|--------|--------|--------|--------|--------|-------8--8--8-----10-10--------10-|
E|--------|--------|--------|--------|--------|--------|--------|-------6--6--6--8--8--8--6---8--8--|


E|--------|--------|--------|--------|--------|--------|--------|--------|--------|
B|--------|--------|--------|--------|--------|--------|--------|--------|--------|
G|--------|--------|--------|--------|--------|--------|--------|--------|--------|
D|--------|--------|--------|--------|--------|--------|--------|--------|--------|
A|--------|--------|--------|--------|--------|--------|--------|--------|--------|
E|--------|--------|--------|--------|--------|--------|--------|--------|--------|


E|--------|--------|--------|--------|--------|--------|--------|--------|--------|
B|--------|--------|--------|--------|--------|--------|--------|--------|--------|
G|--------|--------|--------|--------|--------|--------|--------|--------|--------|
D|--------|--------|--------|--------|--------|--------|--------|--------|--------|
A|--------|--------|--------|--------|--------|--------|--------|--------|--------|
E|--------|--------|--------|--------|--------|--------|--------|--------|--------|


E|--------|--------|--------|--------|--------|--------|--------|--------|--------|
B|--------|--------|--------|--------|--------|--------|--------|--------|--------|
G|--------|--------|--------|--------|--------|--------|--------|--------|--------|
D|--------|--------|--------|--------|--------|--------|--------|--------|--------|
A|--------|--------|--------|--------|--------|--------|--------|--------|--------|
E|--------|--------|--------|--------|--------|--------|--------|--------|--------|


E|-----------------------------------|--------|--------|--------|-----------------------------------|
B|-----------------------------------|--------|--------|--------|-----------------------------------|
G|-----------------------------------|--------|--------|--------|-----------------------------------|
D|-------8--8--8--10-10-10-8---10-10-|--------|--------|--------|-------8--8--8--10-10-10-8---10-10-|
A|-------8--8--8-----10-10--------10-|--------|--------|--------|-------8--8--8-----10-10--------10-|
E|-------6--6--6--8--8--8--6---8--8--|--------|--------|--------|-------6--6--6--8--8--8--6---8--8--|


E|--------|--------|--------|--------|--------|--------|--------|--------|--------|
B|--------|--------|--------|--------|--------|--------|--------|--------|--------|
G|--------|--------|--------|--------|--------|--------|--------|--------|--------|
D|--------|--------|--------|--------|--------|--------|--------|--------|--------|
A|--------|--------|--------|--------|--------|--------|--------|--------|--------|
E|--------|--------|--------|--------|--------|--------|--------|--------|--------|


E|--------|--------|--------|--------|--------|--------|--------|--------|--------|
B|--------|--------|--------|--------|--------|--------|--------|--------|--------|
G|--------|--------|--------|--------|--------|--------|--------|--------|--------|
D|--------|--------|--------|--------|--------|--------|--------|--------|--------|
A|--------|--------|--------|--------|--------|--------|--------|--------|--------|
E|--------|--------|--------|--------|--------|--------|--------|--------|--------|


E|--------|--------|--------|--------|--------|--------|--------|--------|--------|
B|--------|--------|--------|--------|--------|--------|--------|--------|--------|
G|--------|--------|--------|--------|--------|--------|--------|--------|--------|
D|--------|--------|--------|--------|--------|--------|--------|--------|--------|
A|--------|--------|--------|--------|--------|--------|--------|--------|--------|
E|--------|--------|--------|--------|--------|--------|--------|--------|--------|


E|--------|--------|--------|--------|--------|--------|--------|--------|--------|
B|--------|--------|--------|--------|--------|--------|--------|--------|--------|
G|--------|--------|--------|--------|--------|--------|--------|--------|--------|
D|--------|--------|--------|--------|--------|--------|--------|--------|--------|
A|--------|--------|--------|--------|--------|--------|--------|--------|--------|
E|--------|--------|--------|--------|--------|--------|--------|--------|--------|


E|--------|--------|--------|--------|--------|--------|--------|--------|--------|
B|--------|--------|--------|--------|--------|--------|--------|--------|--------|
G|--------|--------|--------|--------|--------|--------|--------|--------|--------|
D|--------|--------|--------|--------|--------|--------|--------|--------|--------|
A|--------|--------|--------|--------|--------|--------|--------|--------|--------|
E|--------|--------|--------|--------|--------|--------|--------|--------|--------|


E|--------|--------|--------|--------|--------|--------|--------|--------|--------|
B|--------|--------|--------|--------|--------|--------|--------|--------|--------|
G|--------|--------|--------|--------|--------|--------|--------|--------|--------|
D|--------|--------|--------|--------|--------|--------|--------|--------|--------|
A|--------|--------|--------|--------|--------|--------|--------|--------|--------|
E|--------|--------|--------|--------|--------|--------|--------|--------|--------|


E|--------|--------|--------|--------|--------|--------|
B|--------|--------|--------|--------|--------|--------|
G|--------|--------|--------|--------|--------|--------|
D|--------|--------|--------|--------|--------|--------|
A|--------|--------|--------|--------|--------|--------|
E|--------|--------|--------|--------|--------|--------|





Track 3: Guitar 1

E|--------|--------|--------|--------|--------|--------|--------|--------|--------|
B|--------|--------|--------|--------|--------|--------|--------|--------|--------|
G|--------|--------|--------|--------|--------|--------|--------|--------|--------|
D|--------|--------|--------|--------|--------|--------|--------|--------|--------|
A|--------|--------|--------|--------|--------|--------|--------|--------|--------|
E|--------|--------|--------|--------|--------|--------|--------|--------|--------|


E|--------|--------|--------|--------|--------|--------|--------|--------|--------|
B|--------|--------|--------|--------|--------|--------|--------|--------|--------|
G|--------|--------|--------|--------|--------|--------|--------|--------|--------|
D|--------|--------|--------|--------|--------|--------|--------|--------|--------|
A|--------|--------|--------|--------|--------|--------|--------|--------|--------|
E|--------|--------|--------|--------|--------|--------|--------|--------|--------|


E|--------|--------|--------|--------|--------|--------|--------|--------|--------|
B|--------|--------|--------|--------|--------|--------|--------|--------|--------|
G|--------|--------|--------|--------|--------|--------|--------|--------|--------|
D|--------|--------|--------|--------|--------|--------|--------|--------|--------|
A|--------|--------|--------|--------|--------|--------|--------|--------|--------|
E|--------|--------|--------|--------|--------|--------|--------|--------|--------|


E|--------|--------|-----------------------------------|--------|--------|--------|
B|--------|--------|-----------------------------------|--------|--------|--------|
G|--------|--------|-----------------------------------|--------|--------|--------|
D|--------|--------|-------8--8--8--10-10-10-8---10-10-|--------|--------|--------|
A|--------|--------|-------8--8--8-----10-10--------10-|--------|--------|--------|
E|--------|--------|-------6--6--6--8--8--8--6---8--8--|--------|--------|--------|


E|--------|--------|--------|--------|--------|--------|--------|--------|--------|
B|--------|--------|--------|--------|--------|--------|--------|--------|--------|
G|--------|--------|--------|--------|--------|--------|--------|--------|--------|
D|--------|--------|--------|--------|--------|--------|--------|--------|--------|
A|--------|--------|--------|--------|--------|--------|--------|--------|--------|
E|--------|--------|--------|--------|--------|--------|--------|--------|--------|


E|--------|--------|--------|--------|--------|--------|--------|--------|--------|
B|--------|--------|--------|--------|--------|--------|--------|--------|--------|
G|--------|--------|--------|--------|--------|--------|--------|--------|--------|
D|--------|--------|--------|--------|--------|--------|--------|--------|--------|
A|--------|--------|--------|--------|--------|--------|--------|--------|--------|
E|--------|--------|--------|--------|--------|--------|--------|--------|--------|


E|--------|--------|--------|--------|--------|--------|--------|--------|--------|
B|--------|--------|--------|--------|--------|--------|--------|--------|--------|
G|--------|--------|--------|--------|--------|--------|--------|--------|--------|
D|--------|--------|--------|--------|--------|--------|--------|--------|--------|
A|--------|--------|--------|--------|--------|--------|--------|--------|--------|
E|--------|--------|--------|--------|--------|--------|--------|--------|--------|


E|--------|--------|--------|--------|--------|--------|--------|--------|--------|
B|--------|--------|--------|--------|--------|--------|--------|--------|--------|
G|--------|--------|--------|--------|--------|--------|--------|--------|--------|
D|--------|--------|--------|--------|--------|--------|--------|--------|--------|
A|--------|--------|--------|--------|--------|--------|--------|--------|--------|
E|--------|--------|--------|--------|--------|--------|--------|--------|--------|


E|--------|--------|--------|--------|--------|--------|--------|--------|--------|
B|--------|--------|--------|--------|--------|--------|--------|--------|--------|
G|--------|--------|--------|--------|--------|--------|--------|--------|--------|
D|--------|--------|--------|--------|--------|--------|--------|--------|--------|
A|--------|--------|--------|--------|--------|--------|--------|--------|--------|
E|--------|--------|--------|--------|--------|--------|--------|--------|--------|


E|--------|--------|--------|--------|--------|--------|--------|--------|--------|
B|--------|--------|--------|--------|--------|--------|--------|--------|--------|
G|--------|--------|--------|--------|--------|--------|--------|--------|--------|
D|--------|--------|--------|--------|--------|--------|--------|--------|--------|
A|--------|--------|--------|--------|--------|--------|--------|--------|--------|
E|--------|--------|--------|--------|--------|--------|--------|--------|--------|


E|--------|--------|--------|--------|--------|--------|--------|--------|--------|
B|--------|--------|--------|--------|--------|--------|--------|--------|--------|
G|--------|--------|--------|--------|--------|--------|--------|--------|--------|
D|--------|--------|--------|--------|--------|--------|--------|--------|--------|
A|--------|--------|--------|--------|--------|--------|--------|--------|--------|
E|--------|--------|--------|--------|--------|--------|--------|--------|--------|


E|--------|--------|--------|--------|--------|--------|--------|--------|--------|
B|--------|--------|--------|--------|--------|--------|--------|--------|--------|
G|--------|--------|--------|--------|--------|--------|--------|--------|--------|
D|--------|--------|--------|--------|--------|--------|--------|--------|--------|
A|--------|--------|--------|--------|--------|--------|--------|--------|--------|
E|--------|--------|--------|--------|--------|--------|--------|--------|--------|


E|--------|--------|--------|--------|--------|--------|--------|--------|--------|
B|--------|--------|--------|--------|--------|--------|--------|--------|--------|
G|--------|--------|--------|--------|--------|--------|--------|--------|--------|
D|--------|--------|--------|--------|--------|--------|--------|--------|--------|
A|--------|--------|--------|--------|--------|--------|--------|--------|--------|
E|--------|--------|--------|--------|--------|--------|--------|--------|--------|


E|--------|--------|--------|--------|
B|--------|--------|--------|--------|
G|--------|--------|--------|--------|
D|--------|--------|--------|--------|
A|--------|--------|--------|--------|
E|--------|--------|--------|--------|





Track 4: Guitar 3

E|--------|--------|--------|--------|--------|--------|--------|--------|--------|
B|--------|--------|--------|--------|--------|--------|--------|--------|--------|
G|--------|--------|--------|--------|--------|--------|--------|--------|--------|
D|--------|--------|--------|--------|--------|--------|--------|--------|--------|
A|--------|--------|--------|--------|--------|--------|--------|--------|--------|
E|--------|--------|--------|--------|--------|--------|--------|--------|--------|


E|--------|--------|--------|--------|--------|--------|--------|--------|--------|
B|--------|--------|--------|--------|--------|--------|--------|--------|--------|
G|--------|--------|--------|--------|--------|--------|--------|--------|--------|
D|--------|--------|--------|--------|--------|--------|--------|--------|--------|
A|--------|--------|--------|--------|--------|--------|--------|--------|--------|
E|--------|--------|--------|--------|--------|--------|--------|--------|--------|


E|--------|--------|--------|--------|--------|--------|--------|--------|--------|
B|--------|--------|--------|--------|--------|--------|--------|--------|--------|
G|--------|--------|--------|--------|--------|--------|--------|--------|--------|
D|--------|--------|--------|--------|--------|--------|--------|--------|--------|
A|--------|--------|--------|--------|--------|--------|--------|--------|--------|
E|--------|--------|--------|--------|--------|--------|--------|--------|--------|


E|--------|--------|--------|--------|--------|--------|--------|--------|--------|
B|--------|--------|--------|--------|--------|--------|--------|--------|--------|
G|--------|--------|--------|--------|--------|--------|--------|--------|--------|
D|--------|--------|--------|--------|--------|--------|--------|--------|--------|
A|--------|--------|--------|--------|--------|--------|--------|--------|--------|
E|--------|--------|--------|--------|--------|--------|--------|--------|--------|


E|--------|--------|--------|--------|--------|--------|--------|--------|--------|
B|--------|--------|--------|--------|--------|--------|--------|--------|--------|
G|--------|--------|--------|--------|--------|--------|--------|--------|--------|
D|--------|--------|--------|--------|--------|--------|--------|--------|--------|
A|--------|--------|--------|--------|--------|--------|--------|--------|--------|
E|--------|--------|--------|--------|--------|--------|--------|--------|--------|


E|--------|--------|--------|--------|--------|--------|--------|-------------|-----------------|
B|--------|--------|--------|--------|--------|--------|--------|-------------|-----------------|
G|--------|--------|--------|--------|--------|--------|--------|-3-----3-----|-3-----3---3-----|
D|--------|--------|--------|--------|--------|--------|--------|-------------|-----------------|
A|--------|--------|--------|--------|--------|--------|--------|-------------|-----------------|
E|--------|--------|--------|--------|--------|--------|--------|-------------|-----------------|


E|----------------|--------------------|-------------|-----------------|----------------|
B|----------------|--------------------|-------------|-----------------|----------------|
G|-3---3---3------|-3-----3---3--------|-3-----3-----|-3-----3---3-----|-3------3----5--|
D|----------------|--------------------|-------------|-----------------|----------------|
A|----------------|--------------------|-------------|-----------------|----------------|
E|----------------|--------------------|-------------|-----------------|----------------|


E|-----------------|--------|--------|--------|--------|--------|--------|--------|
B|-----------------|--------|--------|--------|--------|--------|--------|--------|
G|-5---------------|--------|--------|--------|--------|--------|--------|--------|
D|-------6---------|--------|--------|--------|--------|--------|--------|--------|
A|-------6---------|--------|--------|--------|--------|--------|--------|--------|
E|-----------------|--------|--------|--------|--------|--------|--------|--------|


E|--------|--------|--------|--------|--------|--------|--------|--------|--------------------|
B|--------|--------|--------|--------|--------|--------|--------|--------|------------11--11--|
G|--------|--------|--------|--------|--------|--------|--------|--------|------------10--10--|
D|--------|--------|--------|--------|--------|--------|--------|--------|--------------------|
A|--------|--------|--------|--------|--------|--------|--------|--------|--------------------|
E|--------|--------|--------|--------|--------|--------|--------|--------|--------------------|


E|---------------------------|--------------------------|-------------|----------------------|
B|-11--11--------------------|--------------------------|-------0-----|-12---12---12---8-----|
G|-10--10--12--12--13---13---|-13---12---14---12---0----|-3-----0-----|-12---12---12---8-----|
D|---------------------------|--------------------------|-------0-----|-12---12---12---8-----|
A|---------------------------|--------------------------|-------0-----|----------------------|
E|---------------------------|--------------------------|-------0-----|----------------------|


E|-----------------|-----------------------------------------------|--------------------|
B|------8----------|-----------------------------------------------|------16-------18---|
G|------8----------|-------------------------8-----8--10-10-8------|-0----0-----0-------|
D|------8----------|-------8-----10----8--10----10-------------10--|-0----0-----0-------|
A|------------10---|-8--10----10----10-----------------------------|-0----0-------------|
E|-----------------|-----------------------------------------------|-0----0-------------|


E|---------18---18----|--------|--------|--------|--------|--------|--------|--------|
B|-18---18-18---18----|--------|--------|--------|--------|--------|--------|--------|
G|--------------------|--------|--------|--------|--------|--------|--------|--------|
D|--------------------|--------|--------|--------|--------|--------|--------|--------|
A|--------------------|--------|--------|--------|--------|--------|--------|--------|
E|--------------------|--------|--------|--------|--------|--------|--------|--------|


E|--------|--------|--------|--------|--------|--------|--------|--------|--------|
B|--------|--------|--------|--------|--------|--------|--------|--------|--------|
G|--------|--------|--------|--------|--------|--------|--------|--------|--------|
D|--------|--------|--------|--------|--------|--------|--------|--------|--------|
A|--------|--------|--------|--------|--------|--------|--------|--------|--------|
E|--------|--------|--------|--------|--------|--------|--------|--------|--------|


E|--------|--------|--------|--------|--------|--------|--------|--------|--------|
B|--------|--------|--------|--------|--------|--------|--------|--------|--------|
G|--------|--------|--------|--------|--------|--------|--------|--------|--------|
D|--------|--------|--------|--------|--------|--------|--------|--------|--------|
A|--------|--------|--------|--------|--------|--------|--------|--------|--------|
E|--------|--------|--------|--------|--------|--------|--------|--------|--------|


E|--------|--------|--------|--------|--------|--------|--------|--------|--------|
B|--------|--------|--------|--------|--------|--------|--------|--------|--------|
G|--------|--------|--------|--------|--------|--------|--------|--------|--------|
D|--------|--------|--------|--------|--------|--------|--------|--------|--------|
A|--------|--------|--------|--------|--------|--------|--------|--------|--------|
E|--------|--------|--------|--------|--------|--------|--------|--------|--------|