Menu:

 

Search:

 

stone temple pilots - meatplow:

 



Title: Meatplow
Artist: 
Album: Purple
Author: S. Weiland, D. Deleo, S. Deleo


Track 1: Dist. Guitar 

E|-----------------------|--------------------------------|-----------------------------------|
B|-----------------------|--------------------------------|-----------------------------------|
G|-----------------------|--------------------------------|-----------------------------------|
D|---------------2-------|--------------------------------|---------------------------2-------|
A|-------2-------0---3---|-4----4----4--4---4---4--4--4---|-4---4---4---4--4--2-------0---3---|
E|-------0---3-------3---|-2----2----2--0---2---2--2--2---|-2---0---2---2--2--0---3-------3---|


E|--------------------------------|-----------------------------------|--------------------------------|
B|--------------------------------|-----------------------------------|--------------------------------|
G|--------------------------------|-----------------------------------|--------------------------------|
D|--------------------------------|---------------------------2-------|--------------------------------|
A|-4----4----4--4---4---4--4--4---|-4---4---4---4--4--2-------0---3---|-4----4----4--4---4---4--4--4---|
E|-2----2----2--0---2---2--2--2---|-2---0---2---2--2--0---3-------3---|-2----2----2--0---2---2--2--2---|


E|-----------------------------------|--------------------------------|-----------------------------------|
B|-----------------------------------|--------------------------------|-----------------------------------|
G|-----------------------------------|--------------------------------|-----------------------------------|
D|---------------------------2-------|--------------------------------|---------------------------2-------|
A|-4---4---4---4--4--2-------0---3---|-4----4----4--4---4---4--4--4---|-4---4---4---4--4--2-------0---3---|
E|-2---0---2---2--2--0---3-------3---|-2----2----2--0---2---2--2--2---|-2---0---2---2--2--0---3-------3---|


E|--------------------------------|-----------------------------------|--------------------------------|
B|--------------------------------|-----------------------------------|--------------------------------|
G|--------------------------------|-----------------------------------|--------------------------------|
D|--------------------------------|---------------------------2-------|--------------------------------|
A|-4----4----4--4---4---4--4--4---|-4---4---4---4--4--2-------0---3---|-4----4----4--4---4---4--4--4---|
E|-2----2----2--0---2---2--2--2---|-2---0---2---2--2--0---3-------3---|-2----2----2--0---2---2--2--2---|


E|-----------------------------------|-0----0----0---0---0---0---|-0----0----0---0-------------|
B|-----------------------------------|-0----0----0---0---0---0---|-0----0----0---0-------------|
G|-----------------------------------|-8----8----8---8---8-------|-------------------4--4--4---|
D|---------------------------2-------|-9----9----9---9---9---10--|-10---10---9---10--3--3--3---|
A|-4---4---4---4--4--2-------0---3---|-9----9----9---9---9---10--|-10---10---10--10--3--3--3---|
E|-2---0---2---2--2--0---3-------3---|-7----7----7---7---7---8---|-8----8----8---8---1--1--1---|


E|---------------------------------------|-----------------------------------0---|
B|---------------------------------------|-----------------------------------0---|
G|-4---------4---------4---4---------4---|-4---------4---------4---4---------8---|
D|-3---------3---------3---3---------3---|-3---------3---------3---3---------9---|
A|-3---------3---------3---3---------3---|-3---------3---------3---3---------9---|
E|-1---1--1--1---1--1--1---1---1--1--1---|-1---1--1--1---1--1--1---1---1--1--7---|


E|-0----0----0---0---0---0---|-0----0----0---0-------------|------------------------------|
B|-0----0----0---0---0---0---|-0----0----0---0-------------|------------------------------|
G|-8----8----8---8---8-------|-------------------------7---|-7--------------------5---7---|
D|-9----9----9---9---9---10--|-10---10---9---10--7--7--7---|-7---7---7----7---7---5---7---|
A|-9----9----9---9---9---10--|-10---10---10--10--5--5--5---|-5---7---7----7---7---3---5---|
E|-7----7----7---7---7---8---|-8----8----8---8-------------|-----5---5----5---5-------5---|


E|------------------------------|------------------------------|-------------------------------------|
B|------------------------------|------------------------------|-------------------------------------|
G|-7------------------------3---|-3----------------------------|-----3---------------5-------5---7---|
D|-7---7---7----7---7---3---3---|-3---5---5----5---5---5---5---|-3---3---------------5---5---5---7---|
A|-5---7---7----7---7---3---1---|-1---5---5----5---5---5---5---|-3---1---3--3--3--3--3---5---3---5---|
E|-5---5---5----5---5---1---1---|-1---3---3----3---3---3---3---|-1---1---------------3---3---3---5---|


E|------------------------------|------------------------------|------------------------------|
B|------------------------------|------------------------------|------------------------------|
G|-7--------------------5---7---|-7------------------------3---|-3----------------------------|
D|-7---7---7----7---7---5---7---|-7---7---7----7---7---3---3---|-3---5---5----5---5---5---5---|
A|-5---7---7----7---7---3---5---|-5---7---7----7---7---3---1---|-1---5---5----5---5---5---5---|
E|-5---5---5----5---5---3---5---|-5---5---5----5---5---1---1---|-1---3---3----3---3---3---3---|


E|-------------------------------------|------------------------------|-------------------------------------|
B|-------------------------------------|------------------------------|-------------------------------------|
G|-----3---------------5---------------|------------------------------|-------------------------------------|
D|-3---3---------------5---5-----------|---------2--------------------|-------------------------------------|
A|-3---1---3--3--3--3--3---5-------2---|-2-------0---3---4----4----4--|-4---4---4--4--4---4---4---4---4--4--|
E|-1---1---------------3---3-------0---|-0---3-------3---2----2----2--|-0---2---2--2--2---2---0---2---2--2--|


E|------------------------------|-------------------------------------|------------------------------|
B|------------------------------|-------------------------------------|------------------------------|
G|------------------------------|-------------------------------------|------------------------------|
D|---------2--------------------|-------------------------------------|---------2--------------------|
A|-2-------0---3---4----4----4--|-4---4---4--4--4---4---4---4---4--4--|-2-------0---3---4----4----4--|
E|-0---3-------3---2----2----2--|-0---2---2--2--2---2---0---2---2--2--|-0---3-------3---2----2----2--|


E|-------------------------------------|------------------------------|-------------------------------------|
B|-------------------------------------|------------------------------|-------------------------------------|
G|-------------------------------------|------------------------------|-------------------------------------|
D|-------------------------------------|---------2--------------------|-------------------------------------|
A|-4---4---4--4--4---4---4---4---4--4--|-2-------0---3---4----4----4--|-4---4---4--4--4---4---4---4---4--4--|
E|-0---2---2--2--2---2---0---2---2--2--|-0---3-------3---2----2----2--|-0---2---2--2--2---2---0---2---2--2--|


E|-----------------0----0----|-0---0---0---0---0----0----|-0---0---------------------------------|
B|-----------------0----0----|-0---0---0---0---0----0----|-0---0---------------------------------|
G|-----------------8----8----|-8---8---8-----------------|---------4--4--4---4---------4---------|
D|---------2-------9----9----|-9---9---9---10--10---10---|-9---10--3--3--3---3---------3---------|
A|-2-------0---3---9----9----|-9---9---9---10--10---10---|-10--10--3--3--3---3---------3---------|
E|-0---3-------3---7----7----|-7---7---7---8---8----8----|-8---8---1--1--1---1---1--1--1---1--1--|


E|---------------------------------------|---------------0---0----0----|-0---0---0---0---0----0----|
B|---------------------------------------|---------------0---0----0----|-0---0---0---0---0----0----|
G|-4---4---------4---4---------4---------|-4---4---------8---8----8----|-8---8---8-----------------|
D|-3---3---------3---3---------3---------|-3---3---------9---9----9----|-9---9---9---10--10---10---|
A|-3---3---------3---3---------3---------|-3---3---------9---9----9----|-9---9---9---10--10---10---|
E|-1---1---1--1--1---1---1--1--1---1--1--|-1---1---1--1--7---7----7----|-7---7---7---8---8----8----|


E|-0---0--------------------------|------------------------------|------------------------------|
B|-0---0--------------------------|------------------------------|------------------------------|
G|---------------7---7------------|---------5---7---7------------|-------------3---3------------|
D|-9---10--7--7--7---7---7---7----|-7---7---5---7---7---7---7----|-7---7---3---3---3---5---5----|
A|-10--10--5--5--5---5---7---7----|-7---7---3---5---5---7---7----|-7---7---3---1---1---5---5----|
E|-8---8-----------------5---5----|-5---5-------5---5---5---5----|-5---5---1---1---1---3---3----|


E|-------------------------------------|------------------------------|------------------------------|
B|-------------------------------------|------------------------------|------------------------------|
G|---------------------3---------------|-5-------5---7---7------------|---------5---7---7------------|
D|-5---5---5---5---3---3---------------|-5---5---5---7---7---7---7----|-7---7---5---7---7---7---7----|
A|-5---5---5---5---3---1---3--3--3--3--|-3---5---3---5---5---7---7----|-7---7---3---5---5---7---7----|
E|-3---3---3---3---1---1---------------|-3---3---3---5---5---5---5----|-5---5---3---5---5---5---5----|


E|------------------------------|-------------------------------------|---------------------------------|
B|------------------------------|-------------------------------------|---------------------------------|
G|-------------3---3------------|---------------------3---------------|-5-------------------------------|
D|-7---7---3---3---3---5---5----|-5---5---5---5---3---3---------------|-5---5-------------------2-------|
A|-7---7---3---1---1---5---5----|-5---5---5---5---3---1---3--3--3--3--|-3---5-------2---2-------0---3---|
E|-5---5---1---1---1---3---3----|-3---3---3---3---1---1---------------|-3---3-------0---0---3-------3---|


E|--------------------------------|-----------------------------------|--------------------------------|
B|--------------------------------|-----------------------------------|--------------------------------|
G|--------------------------------|-----------------------------------|--------------------------------|
D|--------------------------------|---------------------------2-------|--------------------------------|
A|-4----4----4--4---4---4--4--4---|-4---4---4---4--4--2-------0---3---|-4----4----4--4---4---4--4--4---|
E|-2----2----2--0---2---2--2--2---|-2---0---2---2--2--0---3-------3---|-2----2----2--0---2---2--2--2---|


E|-----------------------------------|--------------------------------|-----------------------------------|
B|-----------------------------------|--------------------------------|-----------------------------------|
G|-----------------------------------|--------------------------------|-----------------------------------|
D|---------------------------2-------|--------------------------------|---------------------------2-------|
A|-4---4---4---4--4--2-------0---3---|-4----4----4--4---4---4--4--4---|-4---4---4---4--4--2-------0---3---|
E|-2---0---2---2--2--0---3-------3---|-2----2----2--0---2---2--2--2---|-2---0---2---2--2--0---3-------3---|


E|--------------------------------|-----------------------------------|-0----0----0---0---0---0---|
B|--------------------------------|-----------------------------------|-0----0----0---0---0---0---|
G|--------------------------------|-----------------------------------|-8----8----8---8---8-------|
D|--------------------------------|---------------------------2-------|-9----9----9---9---9---10--|
A|-4----4----4--4---4---4--4--4---|-4---4---4---4--4--2-------0---3---|-9----9----9---9---9---10--|
E|-2----2----2--0---2---2--2--2---|-2---0---2---2--2--0---3-------3---|-7----7----7---7---7---8---|


E|-0----0----0---0-------------|---------------------------------------|-----------------------------------0---|
B|-0----0----0---0-------------|---------------------------------------|-----------------------------------0---|
G|-------------------4--4--4---|-4---------4---------4---4---------4---|-4---------4---------4---4---------8---|
D|-10---10---9---10--3--3--3---|-3---------3---------3---3---------3---|-3---------3---------3---3---------9---|
A|-10---10---10--10--3--3--3---|-3---------3---------3---3---------3---|-3---------3---------3---3---------9---|
E|-8----8----8---8---1--1--1---|-1---1--1--1---1--1--1---1---1--1--1---|-1---1--1--1---1--1--1---1---1--1--7---|


E|-0----0----0---0---0---0---|-0----0----0---0-------------|------------------------------|
B|-0----0----0---0---0---0---|-0----0----0---0-------------|------------------------------|
G|-8----8----8---8---8-------|-------------------------7---|-7--------------------5---7---|
D|-9----9----9---9---9---10--|-10---10---9---10--7--7--7---|-7---7---7----7---7---5---7---|
A|-9----9----9---9---9---10--|-10---10---10--10--5--5--5---|-5---7---7----7---7---3---5---|
E|-7----7----7---7---7---8---|-8----8----8---8-------------|-----5---5----5---5-------5---|


E|------------------------------|------------------------------|-------------------------------------|
B|------------------------------|------------------------------|-------------------------------------|
G|-7------------------------3---|-3----------------------------|-----3---------------5-------5---7---|
D|-7---7---7----7---7---3---3---|-3---5---5----5---5---5---5---|-3---3---------------5---5---5---7---|
A|-5---7---7----7---7---3---1---|-1---5---5----5---5---5---5---|-3---1---3--3--3--3--3---5---3---5---|
E|-5---5---5----5---5---1---1---|-1---3---3----3---3---3---3---|-1---1---------------3---3---3---5---|


E|------------------------------|------------------------------|------------------------------|
B|------------------------------|------------------------------|------------------------------|
G|-7--------------------5---7---|-7------------------------3---|-3----------------------------|
D|-7---7---7----7---7---5---7---|-7---7---7----7---7---3---3---|-3---5---5----5---5---5---5---|
A|-5---7---7----7---7---3---5---|-5---7---7----7---7---3---1---|-1---5---5----5---5---5---5---|
E|-5---5---5----5---5---3---5---|-5---5---5----5---5---1---1---|-1---3---3----3---3---3---3---|


E|-------------------------------------|-----------------0-----|------0---0---0-----|
B|-------------------------------------|-----------------0-----|------0---0---0-----|
G|-----3---------------5---------------|-------------5---3-----|------3---0---0-----|
D|-3---3---------------5---5-----------|-----5---7---5---4-----|------4---3---3-----|
A|-3---1---3--3--3--3--3---5-------2---|-----5---7---3---4-----|------4---3---3-----|
E|-1---1---------------3---3-------0---|-----3---5---3---2-----|------2---1---1-----|





Track 2: Dist. Guitar 

E|--------|--------|--------|--------|--------|--------|--------|--------|--------|
B|--------|--------|--------|--------|--------|--------|--------|--------|--------|
G|--------|--------|--------|--------|--------|--------|--------|--------|--------|
D|--------|--------|--------|--------|--------|--------|--------|--------|--------|
A|--------|--------|--------|--------|--------|--------|--------|--------|--------|
E|--------|--------|--------|--------|--------|--------|--------|--------|--------|


E|--------|--------|--------|--------|--------|--------|--------|--------|--------|
B|--------|--------|--------|--------|--------|--------|--------|--------|--------|
G|--------|--------|--------|--------|--------|--------|--------|--------|--------|
D|--------|--------|--------|--------|--------|--------|--------|--------|--------|
A|--------|--------|--------|--------|--------|--------|--------|--------|--------|
E|--------|--------|--------|--------|--------|--------|--------|--------|--------|


E|-----------------|--------|--------|--------|--------|--------|--------|--------|
B|-----------------|--------|--------|--------|--------|--------|--------|--------|
G|-----------------|--------|--------|--------|--------|--------|--------|--------|
D|-----------------|--------|--------|--------|--------|--------|--------|--------|
A|-----------------|--------|--------|--------|--------|--------|--------|--------|
E|-----------------|--------|--------|--------|--------|--------|--------|--------|


E|--------|--------|--------|--------|--------|--------|--------|--------|--------|
B|--------|--------|--------|--------|--------|--------|--------|--------|--------|
G|--------|--------|--------|--------|--------|--------|--------|--------|--------|
D|--------|--------|--------|--------|--------|--------|--------|--------|--------|
A|--------|--------|--------|--------|--------|--------|--------|--------|--------|
E|--------|--------|--------|--------|--------|--------|--------|--------|--------|


E|--------|--------|--------|--------|--------|--------|--------|--------|--------|
B|--------|--------|--------|--------|--------|--------|--------|--------|--------|
G|--------|--------|--------|--------|--------|--------|--------|--------|--------|
D|--------|--------|--------|--------|--------|--------|--------|--------|--------|
A|--------|--------|--------|--------|--------|--------|--------|--------|--------|
E|--------|--------|--------|--------|--------|--------|--------|--------|--------|


E|--------|--------|--------|--------|--------|--------|--------|--------|--------|
B|--------|--------|--------|--------|--------|--------|--------|--------|--------|
G|--------|--------|--------|--------|--------|--------|--------|--------|--------|
D|--------|--------|--------|--------|--------|--------|--------|--------|--------|
A|--------|--------|--------|--------|--------|--------|--------|--------|--------|
E|--------|--------|--------|--------|--------|--------|--------|--------|--------|


E|--------|--------|--------|--------|--------|--------|--------|--------|--------|
B|--------|--------|--------|--------|--------|--------|--------|--------|--------|
G|--------|--------|--------|--------|--------|--------|--------|--------|--------|
D|--------|--------|--------|--------|--------|--------|--------|--------|--------|
A|--------|--------|--------|--------|--------|--------|--------|--------|--------|
E|--------|--------|--------|--------|--------|--------|--------|--------|--------|


E|--------|--------|--------|--------|--------|--------|--------|--------|--------|
B|--------|--------|--------|--------|--------|--------|--------|--------|--------|
G|--------|--------|--------|--------|--------|--------|--------|--------|--------|
D|--------|--------|--------|--------|--------|--------|--------|--------|--------|
A|--------|--------|--------|--------|--------|--------|--------|--------|--------|
E|--------|--------|--------|--------|--------|--------|--------|--------|--------|


E|--------|--------|--------|
B|--------|--------|--------|
G|--------|--------|--------|
D|--------|--------|--------|
A|--------|--------|--------|
E|--------|--------|--------|





Track 3: Dist. Guitar w/Slide

E|--------|--------|--------|--------|--------|--------|--------|--------|--------|
B|--------|--------|--------|--------|--------|--------|--------|--------|--------|
G|--------|--------|--------|--------|--------|--------|--------|--------|--------|
D|--------|--------|--------|--------|--------|--------|--------|--------|--------|
A|--------|--------|--------|--------|--------|--------|--------|--------|--------|
E|--------|--------|--------|--------|--------|--------|--------|--------|--------|


E|--------|--------|--------|--------|--------|--------|--------|--------|--------|
B|--------|--------|--------|--------|--------|--------|--------|--------|--------|
G|--------|--------|--------|--------|--------|--------|--------|--------|--------|
D|--------|--------|--------|--------|--------|--------|--------|--------|--------|
A|--------|--------|--------|--------|--------|--------|--------|--------|--------|
E|--------|--------|--------|--------|--------|--------|--------|--------|--------|


E|------------------|--------------------|--------------------|-------------|--------------------|
B|------------------|--------------------|--------------------|-------------|------------5---7---|
G|--------------7---|-7----2-----5---7---|-7----2-------------|-------------|------------5---7---|
D|--------5--5--7---|-7----2-----5---7---|-7----2-----3---8---|-8----5------|--------------------|
A|--------5--5------|--------------------|------------3---8---|-8----5------|--------------------|
E|--------5--5------|--------------------|--------------------|-------------|--------------------|


E|--------------------|--------------------|-----------10-----------|-----------------|
B|-7------------------|--------------------|---------------12-------|-----------------|
G|-7----2-----5---7---|-7----2-------------|-------------------12---|-12--------------|
D|--------------------|------------3---8---|-8----5-----------------|-----------------|
A|--------------------|------------3---8---|-8----5-----------------|-----------------|
E|--------------------|--------------------|------------------------|-----------------|


E|--------|--------|--------|--------|--------|--------|--------|--------|--------|
B|--------|--------|--------|--------|--------|--------|--------|--------|--------|
G|--------|--------|--------|--------|--------|--------|--------|--------|--------|
D|--------|--------|--------|--------|--------|--------|--------|--------|--------|
A|--------|--------|--------|--------|--------|--------|--------|--------|--------|
E|--------|--------|--------|--------|--------|--------|--------|--------|--------|


E|--------|--------|--------|--------|--------|--------------------------|------------------------|
B|--------|--------|--------|--------|--------|--------------------------|------------------------|
G|--------|--------|--------|--------|--------|------------7---7----2----|------5---7---7----2----|
D|--------|--------|--------|--------|--------|------5--5--7---7----2----|------5---7---7----2----|
A|--------|--------|--------|--------|--------|------5--5----------------|------------------------|
E|--------|--------|--------|--------|--------|------5--5----------------|------------------------|


E|------------------------|-------------|------------------------|------------------------|
B|------------------------|-------------|------5---7---7---------|------------------------|
G|------------------------|-------------|------5---7---7----2----|------5---7---7----2----|
D|------3---8---8----5----|-------------|------------------------|------------------------|
A|------3---8---8----5----|-------------|------------------------|------------------------|
E|------------------------|-------------|------------------------|------------------------|


E|------------------------|-10---------------------|-------------|--------|--------|
B|------------------------|-----12-----------------|-------------|--------|--------|
G|------------------------|---------12---12--------|-------------|--------|--------|
D|------3---8---8----5----|------------------------|-------------|--------|--------|
A|------3---8---8----5----|------------------------|-------------|--------|--------|
E|------------------------|------------------------|-------------|--------|--------|


E|--------|--------|--------|--------|--------|--------|--------|--------|--------|
B|--------|--------|--------|--------|--------|--------|--------|--------|--------|
G|--------|--------|--------|--------|--------|--------|--------|--------|--------|
D|--------|--------|--------|--------|--------|--------|--------|--------|--------|
A|--------|--------|--------|--------|--------|--------|--------|--------|--------|
E|--------|--------|--------|--------|--------|--------|--------|--------|--------|


E|--------|--------|----------------------|--------------------|---------------------------|
B|--------|--------|------------------7---|-7----2-----5---7---|-7----2----2---2-----------|
G|--------|--------|------------9--9--7---|-7----2-----5---7---|-7----2----2---2-----------|
D|--------|--------|-------7----------7---|-7----2-----5---7---|-7----2----2---2---3---8---|
A|--------|--------|----------------------|--------------------|-------------------3---8---|
E|--------|--------|----------------------|--------------------|---------------------------|


E|------------------------|--------------------|------------------------|------------------------|
B|------------------------|------------5---7---|-7----------------------|------------------------|
G|------------------------|------------5---7---|-7----2----2----5---7---|-7----2----2------------|
D|-8---5---5----5----5----|------------5---7---|-7----2----2----5---7---|-7----2----2----3---8---|
A|-8---5---5----5----5----|--------------------|------------------------|----------------3---8---|
E|------------------------|--------------------|------------------------|------------------------|


E|------------------------|------------------------|--------|--------|
B|-----------12-----------|-0----0----0----0-------|--------|--------|
G|---------------12--12---|-0----0----0----0-------|--------|--------|
D|-8----5-----------------|-0----0----0----0---2---|--------|--------|
A|-8----5-----------------|--------------------2---|--------|--------|
E|------------------------|--------------------0---|--------|--------|





Track 4: Dist. Guitar 2

E|--------|--------|--------|--------|--------|--------|--------|--------|--------|
B|--------|--------|--------|--------|--------|--------|--------|--------|--------|
G|--------|--------|--------|--------|--------|--------|--------|--------|--------|
D|--------|--------|--------|--------|--------|--------|--------|--------|--------|
A|--------|--------|--------|--------|--------|--------|--------|--------|--------|
E|--------|--------|--------|--------|--------|--------|--------|--------|--------|


E|--------|--------|--------|--------|--------|--------|--------|--------|--------|
B|--------|--------|--------|--------|--------|--------|--------|--------|--------|
G|--------|--------|--------|--------|--------|--------|--------|--------|--------|
D|--------|--------|--------|--------|--------|--------|--------|--------|--------|
A|--------|--------|--------|--------|--------|--------|--------|--------|--------|
E|--------|--------|--------|--------|--------|--------|--------|--------|--------|


E|--------|--------|--------|--------|--------|--------|--------|--------|--------|
B|--------|--------|--------|--------|--------|--------|--------|--------|--------|
G|--------|--------|--------|--------|--------|--------|--------|--------|--------|
D|--------|--------|--------|--------|--------|--------|--------|--------|--------|
A|--------|--------|--------|--------|--------|--------|--------|--------|--------|
E|--------|--------|--------|--------|--------|--------|--------|--------|--------|


E|-------------|-------------|-------------|-------------|-------------|-------------|
B|-------------|-------------|-------------|-------------|-------------|-------------|
G|-------9-----|-------9-----|-9-----9-----|-------9-----|-9-----9-----|-------9-----|
D|-------------|-------------|-------------|-------------|-------------|-------------|
A|-------------|-------------|-------------|-------------|-------------|-------------|
E|-------------|-------------|-------------|-------------|-------------|-------------|


E|-------------|-------------|-------------|--------|--------|--------|-------------|
B|-------------|-------------|-------------|--------|--------|--------|-------------|
G|-9-----9-----|-------9-----|-9-----------|--------|--------|--------|-------------|
D|-------------|-------------|-------------|--------|--------|--------|-------------|
A|-------------|-------------|-------------|--------|--------|--------|-------------|
E|-------------|-------------|-------------|--------|--------|--------|-------------|


E|-------------|-------------|--------|--------|--------|--------|--------|--------|
B|-------------|-------------|--------|--------|--------|--------|--------|--------|
G|-------------|-------------|--------|--------|--------|--------|--------|--------|
D|-------------|-------------|--------|--------|--------|--------|--------|--------|
A|-------------|-------------|--------|--------|--------|--------|--------|--------|
E|-------------|-------------|--------|--------|--------|--------|--------|--------|


E|--------|--------|---------------------------------|-----------------------------------------|
B|--------|--------|-4---4---5-----------------------|-----------------------------------------|
G|--------|--------|-4---4---6-----------------------|-----------2--4--------------------------|
D|--------|--------|---------------------------------|-----2--4--------------------------------|
A|--------|--------|---------------------------------|-----------------2--2--3--2----------7---|
E|--------|--------|-------------0---0---1---0---2---|-2---------------------------5---5-------|


E|-----------------------------|-------------------------------------------|----------------------------------|
B|-----------17-19-------------|-------------------------------------------|-19--17-19--14-19-19--19--19-13---|
G|-----------------18--17--14--|-14-------------------------0--0--0--0--0--|----------------------------------|
D|-----------------------------|--------16-14--------16-14--0--0--0--0--0--|----------------------------------|
A|-7-----7---------------------|-----15--------12-12--------0--0--0--0--0--|----------------------------------|
E|-----------------------------|---------------12-12-----------------------|----------------------------------|


E|---------------------------12----|--------------------------------------------------|
B|-14---19-19-19-22-22---0------12-|-14-14-1714----------14-14----14-14---------------|
G|---------19-19---------0---------|------------16-16----14-14----14-14---------------|
D|---------19-19---------0---------|------------------16-------16---------------------|
A|---------------------------------|---------------------------------16-15-14-12-14-16|
E|---------------------------------|--------------------------------------------------|


E|---------------------------|---------------------------------|------------------------|
B|---------------------------|---------------------------------|------------------------|
G|---------------------------|---------------------------------|------------------------|
D|------------------10--9----|-10--9---10--9---7---9---9---9---|-10--10--9----7---------|
A|-15--14---2----------------|---------------------------------|------------------------|
E|----------0---3------------|---------------------------------|------------------------|


E|--------|----------------------|------------------------------|--------------------|
B|--------|----------------------|------------------------------|--------------------|
G|--------|----------------------|------------------------------|--------------------|
D|--------|------------5--7--9---|-11--11--9----7---9---9---9---|-10--10--9----------|
A|--------|----------------------|------------------------------|--------------------|
E|--------|----------------------|------------------------------|--------------------|


E|--------|--------|--------|--------|--------|--------|--------|--------|--------|
B|--------|--------|--------|--------|--------|--------|--------|--------|--------|
G|--------|--------|--------|--------|--------|--------|--------|--------|--------|
D|--------|--------|--------|--------|--------|--------|--------|--------|--------|
A|--------|--------|--------|--------|--------|--------|--------|--------|--------|
E|--------|--------|--------|--------|--------|--------|--------|--------|--------|


E|--------|
B|--------|
G|--------|
D|--------|
A|--------|
E|--------|





Track 5: Untitled

G|--------|--------|--------|--------|--------|--------|--------|--------|--------|
D|--------|--------|--------|--------|--------|--------|--------|--------|--------|
A|--------|--------|--------|--------|--------|--------|--------|--------|--------|
E|--------|--------|--------|--------|--------|--------|--------|--------|--------|


G|--------|--------|--------|--------|--------|--------|--------|--------|--------|
D|--------|--------|--------|--------|--------|--------|--------|--------|--------|
A|--------|--------|--------|--------|--------|--------|--------|--------|--------|
E|--------|--------|--------|--------|--------|--------|--------|--------|--------|


G|--------|--------|--------|--------|--------|--------|--------|--------|--------|
D|--------|--------|--------|--------|--------|--------|--------|--------|--------|
A|--------|--------|--------|--------|--------|--------|--------|--------|--------|
E|--------|--------|--------|--------|--------|--------|--------|--------|--------|


G|--------|--------|--------|--------|--------|--------|--------|--------|--------|
D|--------|--------|--------|--------|--------|--------|--------|--------|--------|
A|--------|--------|--------|--------|--------|--------|--------|--------|--------|
E|--------|--------|--------|--------|--------|--------|--------|--------|--------|


G|--------|--------|--------|--------|--------|--------|--------|--------|--------|
D|--------|--------|--------|--------|--------|--------|--------|--------|--------|
A|--------|--------|--------|--------|--------|--------|--------|--------|--------|
E|--------|--------|--------|--------|--------|--------|--------|--------|--------|


G|--------|--------|--------|--------|--------|--------|--------|--------|--------|
D|--------|--------|--------|--------|--------|--------|--------|--------|--------|
A|--------|--------|--------|--------|--------|--------|--------|--------|--------|
E|--------|--------|--------|--------|--------|--------|--------|--------|--------|


G|--------|--------|--------|--------|--------|--------|--------|--------|--------|
D|--------|--------|--------|--------|--------|--------|--------|--------|--------|
A|--------|--------|--------|--------|--------|--------|--------|--------|--------|
E|--------|--------|--------|--------|--------|--------|--------|--------|--------|


G|--------|--------|--------|--------|--------|--------|--------|--------|--------|
D|--------|--------|--------|--------|--------|--------|--------|--------|--------|
A|--------|--------|--------|--------|--------|--------|--------|--------|--------|
E|--------|--------|--------|--------|--------|--------|--------|--------|--------|


G|--------|--------|
D|--------|--------|
A|--------|--------|
E|--------|--------|