Menu:

 

Search:

 

stone temple pilots - interstate love song:

 



Title: Interstate Love Song
Artist: 
Album: Purple
Author: Robert DeLeo


Track 1: dist. elec

E|--------|----------------|--------------------|---------------------|--------------------------------|
B|--------|----------------|--------------------|---------------------|----------------------4---4---4-|
G|--------|-4------4---4---|-4----4-------------|---------------------|-------------5---5--------------|
D|--------|----------------|----------6---6-----|-2---2-----2-----4---|-4--6----6----------------------|
A|--------|----------------|--------------------|---------------------|--------------------------------|
E|--------|----------------|--------------------|---------------------|--------------------------------|


E|----------------|-------------|-0----0--0---0---0--0---0-----------0--|------0-----0--0---0-------0--0--0--0--|
B|-4---4----------|-------------|-2----2--2---0---0--0------------0-----|------0-----0--0---0-------0--0--0--0--|
G|---------6------|-4----4------|--------------------2------1--2--------|------1-----1--1---1-------1--1--1--1--|
D|----------------|-------------|---------------------------------------|------2-----2--2---2-------2--2--2--2--|
A|----------------|-------------|---------------------------------------|------2--------2---2-------2--2--2--2--|
E|----------------|-------------|---------------------------------------|-0----0--------0---0---0---0--0--0--0--|


E|-----------------0---0-------0--0------|-0----0--0---0---0--0---0-----------0--|
B|-----------------0---0-------0--0------|-2----2--2---0---0--0------------0-----|
G|-1---2--2-----1--1---1-------1--1--0---|--------------------2------1--2--------|
D|-2---4--4-----2--2---2-----------------|---------------------------------------|
A|-2---------------2---2-----------------|---------------------------------------|
E|-0---------------0---0---0-------------|---------------------------------------|


E|------0-----0--0---0-------0--0--0--0--|-----------------0---0-------0--0------|
B|------0-----0--0---0-------0--0--0--0--|-----------------0---0-------0--0------|
G|------1-----1--1---1-------1--1--1--1--|-1---2--2-----1--1---1-------1--1--0---|
D|------2-----2--2---2-------2--2--2--2--|-2---4--4-----2--2---2-----------------|
A|------2--------2---2-------2--2--2--2--|-2---------------2---2-----------------|
E|-0----0--------0---0---0---0--0--0--0--|-0---------------0---0---0-------------|


E|---------------------------------------------|---------------------------------------------|
B|------------------5-----------------5--------|------------------4--------------4--4--------|
G|------------------6-----6-----------6--------|------------------5-----5--5--5--5--5--5-----|
D|-6---6---4--4--4--6-----6--6--6--6--6--6-----|-6---6---6--6--6--6-----6--6--6--6--6--6-----|
A|-4---4---4--4--4--4-----4--4--4--4--4--4--3--|-3---3---3--3--3--3-----3--3--3--3--3--3--3--|
E|---------------------------------------------|---------------------------------------------|


E|---------------------------------------------|---------------------------------------------|
B|-----2------------2-----2--2--2--2--2--2-----|------------------2-----2--2--2--2--2--2-----|
G|-1---1------------1-----1--1--1--1--1--1-----|-----1------------1-----1--1--1--1--1--1--1--|
D|-3---3---3--3--3--3-----3--3--3--3--3--3-----|-2---2---2--2--2--2-----2--2--2--2--2--2--2--|
A|-2---2---2--2--2--2-----2--2--2--2--2--2--1--|-1---1---1--1--1--1-----1--1--1--1--1--1-----|
E|---------------------------------------------|---------------------------------------------|


E|-0---------0--------0--0---|-0---0---0--0-----------0--0-----0-----0---|-0-------0--0--0--0----------------------|
B|-0---------0--------0--0---|-0---0---0--0--0--0--------------------0---|-0-------0--0--0--0-------------------5--|
G|-2-----1------2--------1---|-1---1---1--1--0--0--1--------2-----1--1---|-1-------1--1-------------------------6--|
D|-2-----2------4--------2---|-2---2---2--2--------2--------4-----2--2---|-2-------------------6---6---4--4--4--6--|
A|-0-----2---------------2---|-2---2---2--2--------2-----------------2---|-2-------------------4---4---4--4--4--4--|
E|-------0---------------0---|-0---0---0--0--------0-----------------0---|-0---0-----------------------------------|


E|---------------------------------------------|---------------------------------------------|
B|----------------5-------------------------4--|-------------4--4------------2------------2--|
G|----6-----------6-------------------------5--|----5--5--5--5--5--5-----1---1------------1--|
D|----6--6--6--6--6--6-----6---6---6--6--6--6--|----6--6--6--6--6--6-----3---3---3--3--3--3--|
A|----4--4--4--4--4--4--3--3---3---3--3--3--3--|----3--3--3--3--3--3--3--2---2---2--2--2--2--|
E|---------------------------------------------|---------------------------------------------|


E|---------------------------------------------|-------------------------0-----|-----0--------0--0---0---0---0--0--------|
B|----2--2--2--2--2--2----------------------2--|----2--2--2--2--2--2-----0-----|-----0--------0--0---0---0---0--0--0--0--|
G|----1--1--1--1--1--1---------1------------1--|----1--1--1--1--1--1--1--2-----|-1------2--------1---1---1---1--1--0--0--|
D|----3--3--3--3--3--3-----2---2---2--2--2--2--|----2--2--2--2--2--2--2--2-----|-2------4--------2---2---2---2--2--------|
A|----2--2--2--2--2--2--1--1---1---1--1--1--1--|----1--1--1--1--1--1-----0-----|-2---------------2---2---2---2--2--------|
E|---------------------------------------------|-------------------------------|-0---------------0---0---0---0--0--------|


E|----0--0-----0-----0---0-------0--0--0--0--|-0----0--0---0---0--0---0-----------0--|
B|-------------------0---0-------0--0--0--0--|-2----2--2---0---0--0------------0-----|
G|-1--------2-----1--1---1-------1--1--------|--------------------2------1--2--------|
D|-2--------4-----2--2---2-------------------|---------------------------------------|
A|-2-----------------2---2-------------------|---------------------------------------|
E|-0-----------------0---0---0---------------|---------------------------------------|


E|------0-----0--0---0-------0--0--0--0--|-----------------0---0-------0--0------|
B|------0-----0--0---0-------0--0--0--0--|-----------------0---0-------0--0------|
G|------1-----1--1---1-------1--1--1--1--|-1---2--2-----1--1---1-------1--1--0---|
D|------2-----2--2---2-------2--2--2--2--|-2---4--4-----2--2---2-----------------|
A|------2--------2---2-------2--2--2--2--|-2---------------2---2-----------------|
E|-0----0--------0---0---0---0--0--0--0--|-0---------------0---0---0-------------|


E|---------------4---4------4--4----4--|-----------0--0------0--0-------|-------------0--0------0--0-------|
B|---------------5---5--5---5--5----5--|-----------------0---0--0----0--|-0----0---0--0--0--0---0--0-------|
G|---------6------------6---6--6----6--|------1--------------1--1----1--|-2----2---2--2--2------2--2-------|
D|-6---6---6---------------------------|------2--------------2--2----2--|-2----2---2--2--2-----------------|
A|-4---4---4--4------------------------|------2--------------2--2-------|-0----0---0--0--0-----------------|
E|-------------------------------------|-0----0--------------0--0-------|------------------------------0---|


E|-------4---4----4--4--4---|------5----5-----5--5--5--5--5--5---|-0---0----------0--0-------0----|
B|-------4---4----4--4--4---|------5----5-----5--5--5--5--5--5---|-0---0----------------0----0----|
G|-6-----5---5----5--5--5---|------6----6-----6--6--6--6--6--6---|-1---1---1---1-------------1----|
D|-6-----6---6----6--6--6---|------7----7-----7--7--7--7--7--7---|-2---2---------------------2----|
A|-6-----6---6----6--6--6---|-7----7----7-----7--7--7--7--7--7---|-2---2--------------------------|
E|-4-----4---4----4--4--4---|-5----5----5-----5--5--5--5--5--5---|-0---0--------------------------|


E|---------5--5--5--5-----5--5--5--5--5--5--5--|-------4---4----4--4--4---|---------5--5--5--5-----5--5--5--5--5--5--5--|
B|---------5--5--5--5-----5--5--5--5--5--5--5--|-------4---4----4--4--4---|---------5--5--5--5-----5--5--5--5--5--5--5--|
G|---------6--6--6--6-----6--6--6--6--6--6--6--|-6-----5---5----5--5--5---|---------6--6--6--6-----6--6--6--6--6--6--6--|
D|---------7--7--7--7-----7--7--7--7--7--7--7--|-6-----6---6----6--6--6---|---------7--7--7--7-----7--7--7--7--7--7--7--|
A|-7---7---7--7--7--7-----7--7--7--7--7--7--7--|-6-----6---6----6--6--6---|-7---7---7--7--7--7-----7--7--7--7--7--7--7--|
E|-5---5---5--5--5--5-----5--5--5--5--5--5--5--|-4-----4---4----4--4--4---|-5---5---5--5--5--5-----5--5--5--5--5--5--5--|


E|-0------|-0----0--0---0---0--0---0-----------0--|------0-----0--0---0-------0--0--0--0--|
B|-0------|-2----2--2---0---0--0------------0-----|------0-----0--0---0-------0--0--0--0--|
G|-1------|--------------------2------1--2--------|------1-----1--1---1-------1--1--1--1--|
D|-2------|---------------------------------------|------2-----2--2---2-------2--2--2--2--|
A|-2------|---------------------------------------|------2--------2---2-------2--2--2--2--|
E|-0------|---------------------------------------|-0----0--------0---0---0---0--0--0--0--|


E|-----------------0---0-------0--0------|-0----0--0---0---0--0---0-----------0--|
B|-----------------0---0-------0--0------|-2----2--2---0---0--0------------0-----|
G|-1---2--2-----1--1---1-------1--1--0---|--------------------2------1--2--------|
D|-2---4--4-----2--2---2-----------------|---------------------------------------|
A|-2---------------2---2-----------------|---------------------------------------|
E|-0---------------0---0---0-------------|---------------------------------------|


E|------0-----0--0---0-------0--0--0--0--|-----------------0---0-------0--0------|
B|------0-----0--0---0-------0--0--0--0--|-----------------0---0-------0--0------|
G|------1-----1--1---1-------1--1--1--1--|-1---2--2-----1--1---1-------1--1--0---|
D|------2-----2--2---2-------2--2--2--2--|-2---4--4-----2--2---2-----------------|
A|------2--------2---2-------2--2--2--2--|-2---------------2---2-----------------|
E|-0----0--------0---0---0---0--0--0--0--|-0---------------0---0---0-------------|


E|---------------------------------------------|---------------------------------------------|
B|------------------5-----------------5--------|------------------4--------------4--4--------|
G|------------------6-----6-----------6--------|------------------5-----5--5--5--5--5--5-----|
D|-6---6---4--4--4--6-----6--6--6--6--6--6-----|-6---6---6--6--6--6-----6--6--6--6--6--6-----|
A|-4---4---4--4--4--4-----4--4--4--4--4--4--3--|-3---3---3--3--3--3-----3--3--3--3--3--3--3--|
E|---------------------------------------------|---------------------------------------------|


E|---------------------------------------------|---------------------------------------------|
B|-----2------------2-----2--2--2--2--2--2-----|------------------2-----2--2--2--2--2--2-----|
G|-1---1------------1-----1--1--1--1--1--1-----|-----1------------1-----1--1--1--1--1--1--1--|
D|-3---3---3--3--3--3-----3--3--3--3--3--3-----|-2---2---2--2--2--2-----2--2--2--2--2--2--2--|
A|-2---2---2--2--2--2-----2--2--2--2--2--2--1--|-1---1---1--1--1--1-----1--1--1--1--1--1-----|
E|---------------------------------------------|---------------------------------------------|


E|-0---------0--------0--0---|-0-------0--0--0-----------|-----------0--------0--0---|
B|-0---------0--------0--0---|-0-------0--0--------0-----|-----------0--------0--0---|
G|-2-----1------2--------1---|-1-------1-----------2-----|-------1------2--------1---|
D|-2-----2------4--------2---|-2-------------------2-----|-------2------4--------2---|
A|-0-----2---------------2---|-2-------------------0-----|-------2---------------2---|
E|-------0---------------0---|-0---0---------------------|-------0---------------0---|


E|-0-------0--0-----------0--0-----0-----0---|-0-------0--0--0--0----------------4---|
B|-0-------0--0--0--0--------------------0---|-0-------0--0--0--0----------------5---|
G|-1-------1--1--0--0--1--------2-----1--1---|-1-------1--1----------------6---------|
D|-2-------2--2--------2--------4-----2--2---|-2-------------------6---6---6---------|
A|-2-------2--2--------2-----------------2---|-2-------------------4---4---4--4------|
E|-0---0---0--0--------0-----------------0---|-0---0---------------------------------|


E|-4------4--4----4------------0--|-0------0--0-------------------0--|-0------0--0-------------4---|
B|-5--5---5--5----5---------------|----0---0--0----0--0----0---0--0--|-0--0---0--0-------------4---|
G|----6---6--6----6-------1-------|--------1--1----1--2----2---2--2--|-2------2--2-------6-----5---|
D|------------------------2-------|--------2--2----2--2----2---2--2--|-2-----------------6-----6---|
A|------------------------2-------|--------2--2-------0----0---0--0--|-0-----------------6-----6---|
E|-------------------0----0-------|--------0--0----------------------|---------------0---4-----4---|


E|-4----4--4--4--------5----5--|----5--5--5--5--5--5---0---0----------0--|-0-------0------------5--5--5--5--|
B|-4----4--4--4--------5----5--|----5--5--5--5--5--5---0---0-------------|----0----0------------5--5--5--5--|
G|-5----5--5--5--------6----6--|----6--6--6--6--6--6---1---1---1---1-----|---------1------------6--6--6--6--|
D|-6----6--6--6--------7----7--|----7--7--7--7--7--7---2---2-------------|---------2------------7--7--7--7--|
A|-6----6--6--6---7----7----7--|----7--7--7--7--7--7---2---2-------------|--------------7---7---7--7--7--7--|
E|-4----4--4--4---5----5----5--|----5--5--5--5--5--5---0---0-------------|--------------5---5---5--5--5--5--|


E|----5--5--5--5--5--5--5--------4---|-4----4--4--4-----------5--5--5--5--|----5--5--5--5--5--5--5--0-----|
B|----5--5--5--5--5--5--5--------4---|-4----4--4--4-----------5--5--5--5--|----5--5--5--5--5--5--5--0-----|
G|----6--6--6--6--6--6--6--6-----5---|-5----5--5--5-----------6--6--6--6--|----6--6--6--6--6--6--6--1-----|
D|----7--7--7--7--7--7--7--6-----6---|-6----6--6--6-----------7--7--7--7--|----7--7--7--7--7--7--7--2-----|
A|----7--7--7--7--7--7--7--6-----6---|-6----6--6--6---7---7---7--7--7--7--|----7--7--7--7--7--7--7--2-----|
E|----5--5--5--5--5--5--5--4-----4---|-4----4--4--4---5---5---5--5--5--5--|----5--5--5--5--5--5--5--0-----|


E|-------0----0--0---0---|-0--0---0-----------0-------0-----0--0---|-0-------0--0--0--0---------0--------0---|
B|-------2----2--2---0---|-0--0------------0----------0-----0--0---|-0-------0--0--0--0---------0--------0---|
G|-----------------------|----2------1--2-------------1-----1--1---|-1-------1--1--1--1--1---2--2-----1--1---|
D|-----------------------|----------------------------2-----2--2---|-2-------2--2--2--2--2---4--4-----2--2---|
A|-----------------------|----------------------------2--------2---|-2-------2--2--2--2--2---------------2---|
E|-----------------------|-----------------------0----0--------0---|-0---0---0--0--0--0--0---------------0---|


E|-0-----------|
B|-0-----------|
G|-1-----------|
D|-2-----------|
A|-2-----------|
E|-0-----------|





Track 2: clean elec

E|--------|-4----4---4--4--4--4--4--4--4--4--4---|----------------0--0------------0--0-----|
B|--------|-5----5---5--5--5--5--5--5--5--5--5---|----------------------0---------0--0--0--|
G|--------|-6----6---6--6--6--6--6--6--6--6--6---|-------------1------------1--1-----1--0--|
D|--------|--------------------------------------|--------------------------------------0--|
A|--------|--------------------------------------|-----------------------------------------|
E|--------|--------------------------------------|-0---0-----------------------------------|


E|------------------0--0------------0--0-----|-4-----4---4-----|------5---5--5--5--5--5--5--5--5-----0--|
B|------------0-----------0---------0--0--2--|-4-----4---4-----|------5---5--5--5--5--5--5--5--5--0--0--|
G|---------2-----2------------2--2--2--2--2--|-6-----5---5-----|------6---6--6--6--6--6--6--6--6--0-----|
D|----------------------------------------2--|-----------------|----------------------------------------|
A|-0---0-------------------------------------|-----------------|----------------------------------------|
E|-------------------------------------------|-----------------|----------------------------------------|


E|-0------|--------|--------|--------|--------|--------|--------|--------|--------|
B|-0------|--------|--------|--------|--------|--------|--------|--------|--------|
G|-1------|--------|--------|--------|--------|--------|--------|--------|--------|
D|-2------|--------|--------|--------|--------|--------|--------|--------|--------|
A|-2------|--------|--------|--------|--------|--------|--------|--------|--------|
E|-0------|--------|--------|--------|--------|--------|--------|--------|--------|


E|--------|--------|--------|--------|--------|--------|--------|--------|--------|
B|--------|--------|--------|--------|--------|--------|--------|--------|--------|
G|--------|--------|--------|--------|--------|--------|--------|--------|--------|
D|--------|--------|--------|--------|--------|--------|--------|--------|--------|
A|--------|--------|--------|--------|--------|--------|--------|--------|--------|
E|--------|--------|--------|--------|--------|--------|--------|--------|--------|


E|--------|--------|--------|--------|--------|--------|--------|--------|--------|
B|--------|--------|--------|--------|--------|--------|--------|--------|--------|
G|--------|--------|--------|--------|--------|--------|--------|--------|--------|
D|--------|--------|--------|--------|--------|--------|--------|--------|--------|
A|--------|--------|--------|--------|--------|--------|--------|--------|--------|
E|--------|--------|--------|--------|--------|--------|--------|--------|--------|


E|--------|--------|--------|--------|--------|--------|--------|--------|--------|
B|--------|--------|--------|--------|--------|--------|--------|--------|--------|
G|--------|--------|--------|--------|--------|--------|--------|--------|--------|
D|--------|--------|--------|--------|--------|--------|--------|--------|--------|
A|--------|--------|--------|--------|--------|--------|--------|--------|--------|
E|--------|--------|--------|--------|--------|--------|--------|--------|--------|


E|--------|--------|--------|--------|--------|--------|--------|--------|--------|
B|--------|--------|--------|--------|--------|--------|--------|--------|--------|
G|--------|--------|--------|--------|--------|--------|--------|--------|--------|
D|--------|--------|--------|--------|--------|--------|--------|--------|--------|
A|--------|--------|--------|--------|--------|--------|--------|--------|--------|
E|--------|--------|--------|--------|--------|--------|--------|--------|--------|


E|--------|--------|--------|--------|--------|--------|--------|--------|--------|
B|--------|--------|--------|--------|--------|--------|--------|--------|--------|
G|--------|--------|--------|--------|--------|--------|--------|--------|--------|
D|--------|--------|--------|--------|--------|--------|--------|--------|--------|
A|--------|--------|--------|--------|--------|--------|--------|--------|--------|
E|--------|--------|--------|--------|--------|--------|--------|--------|--------|


E|--------|--------|--------|--------|--------|--------|--------|
B|--------|--------|--------|--------|--------|--------|--------|
G|--------|--------|--------|--------|--------|--------|--------|
D|--------|--------|--------|--------|--------|--------|--------|
A|--------|--------|--------|--------|--------|--------|--------|
E|--------|--------|--------|--------|--------|--------|--------|





Track 3: bass

G|--------|-------------------------------------|-----------------------------------|
D|--------|-------------------------------------|----------------------------6------|
A|--------|-4---4---4----4--4---4---4--2--4--6--|-7---7---7----7--7-------7-----7---|
E|--------|-------------------------------------|---------0-----------7-------------|


G|-----------------------------------|-------------------------------------------|
D|-----------------------------------|------------------6--6--6------6--6--------|
A|-------------------------------7---|------------3--6------------6--------6-----|
E|-5---5---5----5--5--5---0--5-------|-4---4---4------------------------------4--|


G|-----------------------------------|--------|-------------------------------------------|
D|-----------------------------------|--------|-------------------------------------------|
A|----------------------------4--7---|--------|-4----4--4---2--2--2--------------------7--|
E|-5---5---5----5--5----0--5---------|-0------|----------------------5--5--0--4--5--7-----|


G|-----------------------------------------|-----------------------------------------|
D|-----------------------------------------|-----------------------------------------|
A|-----------------------------------------|---------------7--7--7-----7---7--6------|
E|-0----4--4--7--0---0--4-----5-----6--7---|-0----0--4--7-----------7------------7---|


G|-------------------------------------------|-----------------------------------------|
D|-------------------------------------------|-----------------------------------------|
A|-4----4--4---2--2--2--------------------7--|-----------------------------------------|
E|----------------------5--5--0--4--5--7-----|-0----4--4--7--0---0--4-----5-----6--7---|


G|-----------------------------------------|---------------------------------------------|
D|-----------------------------------------|---------------------------------------------|
A|---------------7--7--7-----7---7--6------|-4---4--4------4--4-----4--4-----4--4-----4--|
E|-0----0--4--7-----------7------------7---|------------------------------4--------4-----|


G|-----------------------------------------|-----------------------------------------|
D|-----------------------------------------|-----------------------------------------|
A|-3---3--3-------3-----3--3-----3--4--3---|-2---2--2-------2-----2--2---2-----2-----|
E|----------------------------4------------|--------------------------------2-----2--|


G|-----------------------------------------|-------------------------|-------------------------------------------|
D|-----------------------------------------|-------------------------|-------------------------------------------|
A|-1---1--1-------1-----1--1-----1--2--1---|-0-----------------------|-------------------------------------7--7--|
E|----------------------------2------------|-------0----4--4--7--0---|-0--5-----0--4--5--7---0----0--4--7--------|


G|-----------------------------------------|-------------------------------------------|
D|-----------------------------------------|-------------------------------------------|
A|-7-----7---7--6------4---4--4------4--4--|----4--4-----4--4-----4--3---3--3-------3--|
E|----7------------7-----------------------|----------4--------4-----------------------|


G|-----------------------------------------|-----------------------------------------|
D|-----------------------------------------|-----------------------------------------|
A|----3--3-----3--4--3---2---2--2-------2--|----2--2---2-----2-----1---1--1-------1--|
E|----------4------------------------------|--------------2-----2--------------------|


G|-----------------------------|-----------------------------------------|-----------------------------------------|
D|-----------------------------|-----------------------------------------|-----------------------------------------|
A|----1--1-----1--2--1---0-----|-----------------------------------------|---------------7--7--7-----7---7--6------|
E|----------2------------------|-0----4--4--7--0---0--5-----0--4--5--7---|-0----0--4--7-----------7------------7---|


G|-------------------------------------------|-----------------------------------------|
D|-------------------------------------------|-----------------------------------------|
A|-4----4--4---2--2--2--------------------7--|-----------------------------------------|
E|----------------------5--5--0--4--5--7-----|-0----4--4--7--0---0--4-----5-----6--7---|


G|-----------------------------------------|-----------------------------------------|
D|-----------------------------------------|-----------------------------------------|
A|---------------7--7--7-----7---7--6------|-4---4---4----4--4--4--4--2--4--2--4--6--|
E|-0----0--4--7-----------7------------7---|-----------------------------------------|


G|-------------------------------------|-------------------------------------|-----------------------------------------|
D|------------------------------6------|-------------------------------------|------------------6--6--6------6--6------|
A|-7---7---7----7--7--7------7-----7---|---------------------------------7---|------------3--6------------6--------6---|
E|------------------------7------------|-5---5---5----5--5--5---0--5--5------|-4---4---4-------------------------------|


G|---------------------------------------|---------------------------------------|
D|---------------------------------------|--------------------------------6------|
A|-----------------------------------4---|-7---7--7--7----7-----7------7-----7---|
E|-5---5---5--5---5-----5---0--5--7------|--------------------------7------------|


G|-------------------------------------------|-------------------------------------------|
D|-------------------------------------------|-----6---6--------6--6--6------6--6--------|
A|---------------------------------------7---|------------4--6------------6--------6-----|
E|-5---5---5--5--5--5-----5--5--0--5--0------|-4--------------------------------------4--|


G|-------------------------------------|--------|-------------------------------------------|
D|-------------------------------------|--------|-------------------------------------------|
A|------------------------------4--7---|--------|-4----4--4---2--2--2--------------------7--|
E|-5---5---5----5-----5---0--5---------|-0------|----------------------5--5--0--4--5--7-----|


G|-----------------------------------------|-----------------------------------------|
D|-----------------------------------------|-----------------------------------------|
A|-----------------------------------------|---------------7--7--7-----7---7--6------|
E|-0----4--4--7--0---0--4-----5-----6--7---|-0----0--4--7-----------7------------7---|


G|-------------------------------------------|-----------------------------------------|
D|-------------------------------------------|-----------------------------------------|
A|-4----4--4---2--2--2--------------------7--|-----------------------------------------|
E|----------------------5--5--0--4--5--7-----|-0----4--4--7--0---0--4-----5-----6--7---|


G|-----------------------------------------|---------------------------------------------|
D|-----------------------------------------|---------------------------------------------|
A|---------------7--7--7-----7---7--6------|-4---4--4------4--4-----4--4-----4--4-----4--|
E|-0----0--4--7-----------7------------7---|------------------------------4--------4-----|


G|-----------------------------------------|-----------------------------------------|
D|-----------------------------------------|-----------------------------------------|
A|-3---3--3-------3-----3--3-----3--4--3---|-2---2--2-------2-----2--2---2-----2-----|
E|----------------------------4------------|--------------------------------2-----2--|


G|-----------------------------------------|---------------------------|---------------------------|
D|-----------------------------------------|---------------------------|---------------------------|
A|-1---1--1-------1-----1--1-----1--2--1---|-0-------------------7--7--|-7-----7---7--6------0-----|
E|----------------------------2------------|-------0----0--4--7--------|----7------------7---------|


G|-------------------------|-------------------------------------------|-------------------------------------|
D|-------------------------|-------------------------------------------|-------------------------------------|
A|-------------------------|-------------------------------------7--7--|-7-----7---7--6------4---4---4----4--|
E|-------0----4--4--7--0---|-0--4-----5-----6--7---0----0--4--7--------|----7------------7-------------------|


G|-----------------------------------------|-------------------------------------|
D|-----------------------------------------|--------------6----------------------|
A|-4--4--4--2--4--2--4--6--7---7---7----7--|-7--7------7-----7-------------------|
E|-----------------------------------------|--------7------------5---5---5----5--|


G|-----------------------------------------|---------------------------------------|
D|--------------------------------------6--|-6--6------6--6------------------------|
A|-----------------7--------------3--6-----|--------6--------6---------------------|
E|-5--5---0--5--5------4---4---4-----------|---------------------5---5---5--5---5--|


G|---------------------------------------|-----------------------------------------|
D|---------------------------------------|--------------6--------------------------|
A|-----------------4---7---7--7--7----7--|----7------7-----7-----------------------|
E|----5---0--5--7------------------------|--------7------------5---5---5--5--5--5--|


G|-------------------------------------------|---------------------------------------|
D|---------------------------6---6--------6--|-6--6------6--6------------------------|
A|-------------------7--------------4--6-----|--------6--------6---------------------|
E|----5--5--0--5--0------4-------------------|--------------------4--5---5---5----5--|


G|---------------------------|-------------------------|---------------------------------------------|
D|---------------------------|-------------------------|---------------------------------------------|
A|--------------4--7---------|-------4----4--4---2--2--|-2--------------------7-------------2--------|
E|----5---0--5---------0-----|-------------------------|----5--5--0--4--5--7-----0----4--4-----0--0--|


G|-----------------------------------------|-------------|
D|-----------------------------------------|-------------|
A|-----------------2-------------------7---|-7-----------|
E|-0--5------4--5------0------4-----7------|-------------|