Menu:

 

Search:

 

stone temple pilots - big empty:

 



Title: Big Empty
Artist: 
Album: Purple
Author: STP


Track 1: Slide Gtr.

E|-------------------------------|-------------------------|-----10-10-10---10-------------10-|
B|------8---8---8--------7---8---|-7---7----7--3--3-----0--|-12--12-12-12---12------12--------|
G|-------------------------------|-------------------------|----------------------------------|
D|-------------------------------|-------------------------|----------------------------------|
A|-------------------------------|-------------------------|----------------------------------|
E|-------------------------------|-------------------------|----------------------------------|


E|--------------------------------------|-----10----10--------|--------|--------|----------------|
B|-11-------8--10----11-10-8------10-8--|-12--12----12--------|--------|--------|----------------|
G|--------------------------------------|---------------------|--------|--------|-------------4--|
D|--------------------------------------|---------------------|--------|--------|-------------4--|
A|--------------------------------------|---------------------|--------|--------|----------------|
E|--------------------------------------|---------------------|--------|--------|----------------|


E|-----------------|--------|--------|-----------3--|--------|--------|--------|--------|
B|-----------------|--------|--------|-----------3--|--------|--------|--------|--------|
G|-7---9-----9-----|--------|--------|-3---------0--|--------|--------|--------|--------|
D|-7---9-----9-----|--------|--------|-2---------0--|--------|--------|--------|--------|
A|-----------------|--------|--------|-3------3--2--|--------|--------|--------|--------|
E|-----------------|--------|--------|-----------3--|--------|--------|--------|--------|


E|--------|--------|--------|--------|--------|--------|------12-10---------------|
B|--------|--------|--------|--------|--------|--------|------------10--11----11--|
G|--------|--------|--------|--------|--------|--------|--------------------------|
D|--------|--------|--------|--------|--------|--------|--------------------------|
A|--------|--------|--------|--------|--------|--------|--------------------------|
E|--------|--------|--------|--------|--------|--------|--------------------------|


E|--------------------------------------|-----12-----14-12----12----------------|------------------------|
B|---------8--10----11-11------8--10-8--|-12---------------12-12---11-11-11-10--|-10-5----5----5-----5---|
G|-----9--------------------------------|---------------------------------------|------------------------|
D|--------------------------------------|---------------------------------------|------------------------|
A|--------------------------------------|---------------------------------------|------------------------|
E|--------------------------------------|---------------------------------------|------------------------|


E|--------|--------|------------------|------------------------------|-------------------------|
B|--------|--------|------------------|------------------------------|-------------------------|
G|--------|--------|-----------9---4--|-9--7--9-----9----7--7--9-----|-12--------7----7--------|
D|--------|--------|------------------|------------------------------|-------------------------|
A|--------|--------|------------------|------------------------------|-------------------------|
E|--------|--------|------------------|------------------------------|-------------------------|


E|--------|-----------3--|--------|--------|--------|--------|--------|--------|--------|
B|--------|-----------3--|--------|--------|--------|--------|--------|--------|--------|
G|--------|-3---------0--|--------|--------|--------|--------|--------|--------|--------|
D|--------|-2---------0--|--------|--------|--------|--------|--------|--------|--------|
A|--------|-3------3--2--|--------|--------|--------|--------|--------|--------|--------|
E|--------|-----------3--|--------|--------|--------|--------|--------|--------|--------|


E|--------|--------|--------|--------|--------|--------|--------|--------|--------|
B|--------|--------|--------|--------|--------|--------|--------|--------|--------|
G|--------|--------|--------|--------|--------|--------|--------|--------|--------|
D|--------|--------|--------|--------|--------|--------|--------|--------|--------|
A|--------|--------|--------|--------|--------|--------|--------|--------|--------|
E|--------|--------|--------|--------|--------|--------|--------|--------|--------|


E|--------|----------------|--------------------------|--------------------------|
B|--------|------------3---|-8----8----8---8----7--8--|-8--7----7----7-----7--8--|
G|-2------|----------------|--------------------------|--------------------------|
D|-0------|----------------|--------------------------|--------------------------|
A|-2------|----------------|--------------------------|--------------------------|
E|-0------|----------------|--------------------------|--------------------------|


E|-----------------------------|---------------------------|-12-14---14---14-------------|
B|-8--10---10---10---10--8--10-|-10-12---12---12--12---12--|-12-14---14---14---14-14--14-|
G|-----------------------------|---------------------------|--------------14-------------|
D|-----------------------------|---------------------------|-----------------------------|
A|-----------------------------|---------------------------|-----------------------------|
E|-----------------------------|---------------------------|-----------------------------|


E|-------------------------|-----------------|-8----8--8---8----8--8---8--8--8---|
B|-14-15--15-15------------|-----------------|-8----8--8---8----8--8---8--8--8---|
G|---------------14--2-----|-14--------------|-0----0--0---0----0--0---0--0--0---|
D|---------------14--2-----|-14--------------|-0----0--0---0----0--0---0--0--0---|
A|-------------------------|-----------------|-7----7--7---7----7--7---7--7--7---|
E|-------------------------|-----------------|-8----8--8---8----8--8---8--8--8---|


E|-3----3--3---5----5--5---5---5---|-8----8--8---8----8--8---8--8--8---|-3----3--3---5----5--5---5---5---|
B|-3----3--3---5----5--5---5---5---|-8----8--8---8----8--8---8--8--8---|-3----3--3---5----5--5---5---5---|
G|-0----0--0---0----0--0---0---0---|-0----0--0---0----0--0---0--0--0---|-0----0--0---0----0--0---0---0---|
D|-0----0--0---0----0--0---0---0---|-0----0--0---0----0--0---0--0--0---|-0----0--0---0----0--0---0---0---|
A|-2----2--2---4----4--4---4---4---|-7----7--7---7----7--7---7--7--7---|-2----2--2---4----4--4---4---4---|
E|-3----3--3---5----5--5---5---5---|-8----8--8---8----8--8---8--8--8---|-3----3--3---5----5--5---5---5---|


E|-8----8--8---8----8--8---8--8--8---|-3----3--3---5----5--5---5---5---|-8----8--8---8----8--8---8--8--8---|
B|-8----8--8---8----8--8---8--8--8---|-3----3--3---5----5--5---5---5---|-8----8--8---8----8--8---8--8--8---|
G|-0----0--0---0----0--0---0--0--0---|-0----0--0---0----0--0---0---0---|-0----0--0---0----0--0---0--0--0---|
D|-0----0--0---0----0--0---0--0--0---|-0----0--0---0----0--0---0---0---|-0----0--0---0----0--0---0--0--0---|
A|-7----7--7---7----7--7---7--7--7---|-2----2--2---4----4--4---4---4---|-7----7--7---7----7--7---7--7--7---|
E|-8----8--8---8----8--8---8--8--8---|-3----3--3---5----5--5---5---5---|-8----8--8---8----8--8---8--8--8---|


E|------------------------------|---------0-------------------------|--------------------------------|
B|--------------------------0---|-0-------0-------------------------|----------------------------0---|
G|-----------0--0---0-------2---|-2---1---1----1--1---1--1---1--1---|-----------0--0---0---------2---|
D|-5----0----0--0---0-------0---|-0---0---0----0--0---0--0---0--0---|-5----0----0--0---0---------0---|
A|-3----2----0--0---2-------2---|-2---2---2----2--2---2--2---2--2---|-3----2----0--0---2---------2---|
E|-3----3----0--1---1---0---0---|-0---0---0----0--0---0--0---0--0---|-3----3----0--1---1---0--0--0---|


E|-----0---0-----------------------|--------------------------0---|-0-------0-------------------------|
B|-0---0---0-----------------------|--------------------------0---|-0-------0-------------------------|
G|-2---1---1----1--1---1---1---1---|-----------0--0---0-------2---|-2---1---1----1--1---1--1---1--1---|
D|-0---0---0----0--0---0---0---0---|-5----0----0--0---0-------0---|-0---0---0----0--0---0--0---0--0---|
A|-2---2---2----2--2---2---2---2---|-3----2----0--0---2-------2---|-2---2---2----2--2---2--2---2--2---|
E|-0---0---0----0--0---0---0---0---|-3----3----0--1---1---0---0---|-0---0---0----0--0---0--0---0--0---|


E|--------------------------0---|-0------|
B|--------------------------0---|-0------|
G|-----------0--0---0-------2---|-2------|
D|-5----0----0--0---0-------0---|-0------|
A|-3----2----0--0---2---0---2---|-2------|
E|-3----3----0--1---1---0---0---|-0------|





Track 2: Clean Electric

E|--------------------------------|---------0-------------------------|-------------------------------------|
B|------3----3-------------3------|---------1----1--------------------|---------3----3----------------------|
G|------3----3-------0--0--0---0--|---------3----3-------3-----3------|---------3----3-------------0--------|
D|------2----2-------2--2--0---0--|------2--2----2-------0--2--0---0--|------2--2----2-------------2-----0--|
A|-2------------------------------|-3--------------------3------------|-2----2---------------2--2-----------|
E|-0------------------------------|-----------------------------------|-0-----------------------------------|


E|---------0---------------------------|--------------------------------|---------0-------------------------|
B|---------1---------------------------|------3----3-------------3------|---------1----1--------------------|
G|---------3----3----------3--3--3-----|------3----3-------0--0--0---0--|---------3----3-------3-----3------|
D|------2--2----2----------0--0--0-----|------2----2-------2--2--0---0--|------2--2----2-------0--2--0---0--|
A|-3--------------------3--3--3--3--0--|-2------------------------------|-3--------------------3------------|
E|-------------------------------------|-0------------------------------|-----------------------------------|


E|--------------------------------|---------0-------------------------|--------------------------------|
B|------3----3-------------3------|---------1----1--------------------|------3----3-------------3------|
G|------3----3-------0--0--0---0--|---------3----3-------3-----3------|------3----3-------0--0--0---0--|
D|------2----2-------2--2--0---0--|------2--2----2-------0--2--0---0--|------2----2-------2--2--0---0--|
A|-2------------------------------|-3--------------------3------------|-2------------------------------|
E|-0------------------------------|-----------------------------------|-0------------------------------|


E|---------0-------------------------|---------------------------|------------------0----0-------|
B|---------1----1--------------------|------3----3---------------|-----------1---1--1----1-------|
G|---------3----3-------3-----3------|------3----3-------0--0----|-3----3----3---3--3----3-------|
D|------2--2----2-------0--2--0---0--|------2----2-------2--2----|-2----2----2---2--2----2-------|
A|-3--------------------3------------|---------------------------|-3----3----3---3--3----3-------|
E|-----------------------------------|---------------------------|-------------------------------|


E|-3----3--3---5----5--5---5---5---|-8----8--8---8----8--8---8--8--8---|-3----3--3---5----5--5---5---5---|
B|-3----3--3---5----5--5---5---5---|-8----8--8---8----8--8---8--8--8---|-3----3--3---5----5--5---5---5---|
G|-0----0--0---0----0--0---0---0---|-0----0--0---0----0--0---0--0--0---|-0----0--0---0----0--0---0---0---|
D|-0----0--0---0----0--0---0---0---|-0----0--0---0----0--0---0--0--0---|-0----0--0---0----0--0---0---0---|
A|-2----2--2---4----4--4---4---4---|-7----7--7---7----7--7---7--7--7---|-2----2--2---4----4--4---4---4---|
E|-3----3--3---5----5--5---5---5---|-8----8--8---8----8--8---8--8--8---|-3----3--3---5----5--5---5---5---|


E|-8----8--8---8----8--8---8--8--8---|-3----3--3---5----5--5---5---5---|-8----8--8---8----8--8---8--8--8---|
B|-8----8--8---8----8--8---8--8--8---|-3----3--3---5----5--5---5---5---|-8----8--8---8----8--8---8--8--8---|
G|-0----0--0---0----0--0---0--0--0---|-0----0--0---0----0--0---0---0---|-0----0--0---0----0--0---0--0--0---|
D|-0----0--0---0----0--0---0--0--0---|-0----0--0---0----0--0---0---0---|-0----0--0---0----0--0---0--0--0---|
A|-7----7--7---7----7--7---7--7--7---|-2----2--2---4----4--4---4---4---|-7----7--7---7----7--7---7--7--7---|
E|-8----8--8---8----8--8---8--8--8---|-3----3--3---5----5--5---5---5---|-8----8--8---8----8--8---8--8--8---|


E|-3----3--3---5----5--5---5---5---|-8----8--8---8----8--8---8--8--8---|--------|--------|
B|-3----3--3---5----5--5---5---5---|-8----8--8---8----8--8---8--8--8---|--------|--------|
G|-0----0--0---0----0--0---0---0---|-0----0--0---0----0--0---0--0--0---|--------|--------|
D|-0----0--0---0----0--0---0---0---|-0----0--0---0----0--0---0--0--0---|--------|--------|
A|-2----2--2---4----4--4---4---4---|-7----7--7---7----7--7---7--7--7---|--------|--------|
E|-3----3--3---5----5--5---5---5---|-8----8--8---8----8--8---8--8--8---|--------|--------|


E|---------0-------------------------|--------------------------------|---------0-------------------------|
B|---------1----1--------------------|------3----3-------------3------|---------1----1--------------------|
G|---------3----3-------3-----3------|------3----3-------0--0--0---0--|---------3----3-------3-----3------|
D|------2--2----2-------0--2--0---0--|------2----2-------2--2--0---0--|------2--2----2-------0--2--0---0--|
A|-3--------------------3------------|-2------------------------------|-3--------------------3------------|
E|-----------------------------------|-0------------------------------|-----------------------------------|


E|--------------------------------|---------0-------------------------|--------------------------------|
B|------3----3-------------3------|---------1----1--------------------|------3----3-------------3------|
G|------3----3-------0--0--0---0--|---------3----3-------3-----3------|------3----3-------0--0--0---0--|
D|------2----2-------2--2--0---0--|------2--2----2-------0--2--0---0--|------2----2-------2--2--0---0--|
A|-2------------------------------|-3--------------------3------------|-2------------------------------|
E|-0------------------------------|-----------------------------------|-0------------------------------|


E|---------0-------------------------|--------------------------------|---------0-------------------------|
B|---------1----1--------------------|------3----3-------------3------|---------1----1--------------------|
G|---------3----3-------3-----3------|------3----3-------0--0--0---0--|---------3----3-------3-----3------|
D|------2--2----2-------0--2--0---0--|------2----2-------2--2--0---0--|------2--2----2-------0--2--0---0--|
A|-3--------------------3------------|-2------------------------------|-3--------------------3------------|
E|-----------------------------------|-0------------------------------|-----------------------------------|


E|--------------------------------|------------------0----0-------|-3----3--3---5----5--5---5---5---|
B|------3----3----------3--3------|-----------1---1--1----1-------|-3----3--3---5----5--5---5---5---|
G|------3----3-------0--0--0---0--|-3----3----3---3--3----3-------|-0----0--0---0----0--0---0---0---|
D|------2----2-------2--2--2---0--|-2----2----2---2--2----2-------|-0----0--0---0----0--0---0---0---|
A|--------------------------------|-3----3----3---3--3----3-------|-2----2--2---4----4--4---4---4---|
E|--------------------------------|-------------------------------|-3----3--3---5----5--5---5---5---|


E|-8----8--8---8----8--8---8--8--8---|-3----3--3---5----5--5---5---5---|-8----8--8---8----8--8---8--8--8---|
B|-8----8--8---8----8--8---8--8--8---|-3----3--3---5----5--5---5---5---|-8----8--8---8----8--8---8--8--8---|
G|-0----0--0---0----0--0---0--0--0---|-0----0--0---0----0--0---0---0---|-0----0--0---0----0--0---0--0--0---|
D|-0----0--0---0----0--0---0--0--0---|-0----0--0---0----0--0---0---0---|-0----0--0---0----0--0---0--0--0---|
A|-7----7--7---7----7--7---7--7--7---|-2----2--2---4----4--4---4---4---|-7----7--7---7----7--7---7--7--7---|
E|-8----8--8---8----8--8---8--8--8---|-3----3--3---5----5--5---5---5---|-8----8--8---8----8--8---8--8--8---|


E|-3----3--3---5----5--5---5---5---|-8----8--8---8----8--8---8--8--8---|-3----3--3---5----5--5---5---5---|
B|-3----3--3---5----5--5---5---5---|-8----8--8---8----8--8---8--8--8---|-3----3--3---5----5--5---5---5---|
G|-0----0--0---0----0--0---0---0---|-0----0--0---0----0--0---0--0--0---|-0----0--0---0----0--0---0---0---|
D|-0----0--0---0----0--0---0---0---|-0----0--0---0----0--0---0--0--0---|-0----0--0---0----0--0---0---0---|
A|-2----2--2---4----4--4---4---4---|-7----7--7---7----7--7---7--7--7---|-2----2--2---4----4--4---4---4---|
E|-3----3--3---5----5--5---5---5---|-8----8--8---8----8--8---8--8--8---|-3----3--3---5----5--5---5---5---|


E|-8----8--8---8----8--8---8--8--8---|------------------------------|---------0-------------------------|
B|-8----8--8---8----8--8---8--8--8---|--------------------------0---|-0-------0-------------------------|
G|-0----0--0---0----0--0---0--0--0---|-----------0--0---0-------2---|-2---1---1----1--1---1--1---1--1---|
D|-0----0--0---0----0--0---0--0--0---|-5----0----0--0---0-------0---|-0---0---0----0--0---0--0---0--0---|
A|-7----7--7---7----7--7---7--7--7---|-3----2----0--0---2-------2---|-2---2---2----2--2---2--2---2--2---|
E|-8----8--8---8----8--8---8--8--8---|-3----3----0--1---1---0---0---|-0---0---0----0--0---0--0---0--0---|


E|--------------------------------|-----0---0-----------------------|--------------------------0---|
B|----------------------------0---|-0---0---0-----------------------|--------------------------0---|
G|-----------0--0---0---------2---|-2---1---1----1--1---1---1---1---|-----------0--0---0-------2---|
D|-5----0----0--0---0---------0---|-0---0---0----0--0---0---0---0---|-5----0----0--0---0-------0---|
A|-3----2----0--0---2---------2---|-2---2---2----2--2---2---2---2---|-3----2----0--0---2-------2---|
E|-3----3----0--1---1---0--0--0---|-0---0---0----0--0---0---0---0---|-3----3----0--1---1---0---0---|


E|-0-------0-------------------------|------------------------------|--------|---------------------------------------|
B|-0-------0-------------------------|------------------------------|--------|---------------------------------------|
G|-2---1---1----1--1---1--1---1--1---|-----------0--0---0-------2---|-2------|----------6---7---6-----------------6--|
D|-0---0---0----0--0---0--0---0--0---|-5----0----0--0---0-------0---|-0------|-------5--------------5----------5-----|
A|-2---2---2----2--2---2--2---2--2---|-3----2----0--0---2---0---2---|-2------|----7---------------------7---7--------|
E|-0---0---0----0--0---0--0---0--0---|-3----3----0--1---1---0---0---|-0------|---------------------------------------|


E|---------------------------------------|---------------------------------------|
B|---------------------------------------|---------------------------------------|
G|-6--------6---7---6-----------------6--|-6--------6---7---6-----------------6--|
D|-------5--------------5----------5-----|-------5--------------5----------5-----|
A|----7---------------------7---7--------|----7---------------------7---7--------|
E|---------------------------------------|---------------------------------------|


E|-------------------------------------|---------------------------------------|---------------------------------------|
B|------------------5------------------|---------------------------------------|---------------------------------------|
G|-6--------6---7-------7---6---7------|----------6---7---6-----------------6--|-6--------6---7---6-----------------6--|
D|-------5--------------------------5--|-------5--------------5----------5-----|-------5--------------5----------5-----|
A|----7--------------------------------|-7--7---------------------7---7--------|----7---------------------7---7--------|
E|-------------------------------------|---------------------------------------|---------------------------------------|


E|---------------------------------------|---------------------------------------------|
B|---------------------------------------|------------------------------------------0--|
G|-6--------6---7---6-----------------6--|-6--------6-----7---6---6--6--6--6--6--6--0--|
D|-------5--------------5----------5-----|-------5--5-----5---5---5--5--5--5--5--5-----|
A|----7---------------------7---7--------|----7-----7-----7---7---7--7--7--7--7--7-----|
E|---------------------------------------|---------------------------------------------|


E|-3----3--3---5----5--5---5---5---|--------|--------|--------|--------|--------|--------|
B|-3----3--3---5----5--5---5---5---|--------|--------|--------|--------|--------|--------|
G|-0----0--0---0----0--0---0---0---|--------|--------|--------|--------|--------|--------|
D|-0----0--0---0----0--0---0---0---|--------|--------|--------|--------|--------|--------|
A|-2----2--2---4----4--4---4---4---|--------|--------|--------|--------|--------|--------|
E|-3----3--3---5----5--5---5---5---|--------|--------|--------|--------|--------|--------|


E|--------|--------|--------|--------|--------|--------|--------|--------|--------|
B|--------|--------|--------|--------|--------|--------|--------|--------|--------|
G|--------|--------|--------|--------|--------|--------|--------|--------|--------|
D|--------|--------|--------|--------|--------|--------|--------|--------|--------|
A|--------|--------|--------|--------|--------|--------|--------|--------|--------|
E|--------|--------|--------|--------|--------|--------|--------|--------|--------|





Track 3: Clean Electric

E|--------|--------|--------|--------|--------|--------|--------|--------|--------|
B|--------|--------|--------|--------|--------|--------|--------|--------|--------|
G|--------|--------|--------|--------|--------|--------|--------|--------|--------|
D|--------|--------|--------|--------|--------|--------|--------|--------|--------|
A|--------|--------|--------|--------|--------|--------|--------|--------|--------|
E|--------|--------|--------|--------|--------|--------|--------|--------|--------|


E|--------|--------|--------|--------|--------|--------|--------|--------|--------|
B|--------|--------|--------|--------|--------|--------|--------|--------|--------|
G|--------|--------|--------|--------|--------|--------|--------|--------|--------|
D|--------|--------|--------|--------|--------|--------|--------|--------|--------|
A|--------|--------|--------|--------|--------|--------|--------|--------|--------|
E|--------|--------|--------|--------|--------|--------|--------|--------|--------|


E|--------|--------|------------------------------|-----------------|--------|--------|
B|--------|--------|--------------------------0---|-0---0-----0-----|--------|--------|
G|--------|--------|-----------0--0---0-------2---|-2---1-----1-----|--------|--------|
D|--------|--------|-5----0----0--0---0-------0---|-0---0-----0-----|--------|--------|
A|--------|--------|-3----2----0--0---2---0---2---|-2---2-----2-----|--------|--------|
E|--------|--------|-3----3----0--1---1---0---0---|-0---0-----0-----|--------|--------|


E|--------|--------|--------|--------|--------|--------|--------|--------|--------|
B|--------|--------|--------|--------|--------|--------|--------|--------|--------|
G|--------|--------|--------|--------|--------|--------|--------|--------|--------|
D|--------|--------|--------|--------|--------|--------|--------|--------|--------|
A|--------|--------|--------|--------|--------|--------|--------|--------|--------|
E|--------|--------|--------|--------|--------|--------|--------|--------|--------|


E|--------|--------|--------|--------|--------|--------|--------|--------|--------|
B|--------|--------|--------|--------|--------|--------|--------|--------|--------|
G|--------|--------|--------|--------|--------|--------|--------|--------|--------|
D|--------|--------|--------|--------|--------|--------|--------|--------|--------|
A|--------|--------|--------|--------|--------|--------|--------|--------|--------|
E|--------|--------|--------|--------|--------|--------|--------|--------|--------|


E|--------|--------|--------|--------|--------|--------|--------|--------|--------|
B|--------|--------|--------|--------|--------|--------|--------|--------|--------|
G|--------|--------|--------|--------|--------|--------|--------|--------|--------|
D|--------|--------|--------|--------|--------|--------|--------|--------|--------|
A|--------|--------|--------|--------|--------|--------|--------|--------|--------|
E|--------|--------|--------|--------|--------|--------|--------|--------|--------|


E|--------|--------|--------|--------|--------|--------|--------|--------|--------|
B|--------|--------|--------|--------|--------|--------|--------|--------|--------|
G|--------|--------|--------|--------|--------|--------|--------|--------|--------|
D|--------|--------|--------|--------|--------|--------|--------|--------|--------|
A|--------|--------|--------|--------|--------|--------|--------|--------|--------|
E|--------|--------|--------|--------|--------|--------|--------|--------|--------|


E|--------|--------|--------|--------|--------|--------|--------|--------|--------|
B|--------|--------|--------|--------|--------|--------|--------|--------|--------|
G|--------|--------|--------|--------|--------|--------|--------|--------|--------|
D|--------|--------|--------|--------|--------|--------|--------|--------|--------|
A|--------|--------|--------|--------|--------|--------|--------|--------|--------|
E|--------|--------|--------|--------|--------|--------|--------|--------|--------|


E|--------|--------|--------|--------|
B|--------|--------|--------|--------|
G|--------|--------|--------|--------|
D|--------|--------|--------|--------|
A|--------|--------|--------|--------|
E|--------|--------|--------|--------|





Track 4: Bass

G|----------------------------------|------------------------------------|------------------------------------|
D|------------5---------------------|------------------------------------|------------5-----------------------|
A|---------5-----7--7----5--7--5----|-3----3-----3--3--3-------3--2------|---------5-----7--7-------7-----5---|
E|-0----7---------------------------|---------3-------------3--------3---|-0----7----------------7-----7------|


G|-------------------------------------------|----------------------------------|------------------------------------|
D|---------------------------5--7-----5-6-5--|------------5---------------------|------------------------------------|
A|-3----3-----3--3--3--4--7--------7---------|---------5-----7--7----5--7--5----|-3----3-----3--3--3-------3--2------|
E|---------3---------------------------------|-0----7---------------------------|---------3-------------3--------3---|


G|----------------------------------|----------------------------------------|----------------------------------|
D|------------5---------------------|----------------------------------------|------------5---------------------|
A|---------5-----7--7-------7--5----|-3----3-----3--3--3--------0--3--2------|---------5-----7--7----5--7--5----|
E|-0----7----------------5----------|---------3-----------0--3-----------3---|-0----7---------------------------|


G|------------------------------------|------------------------------------|----------------------------------------|
D|------------------------------------|------------5-----------------------|----------------------------------------|
A|-3----3-----3--3--3-------3--2------|---------5-----7--7-------7-----5---|-3----3-----3--3--3-----3---3--2--0--0--|
E|---------3-------------3--------3---|-0----7----------------7-----7------|---------3-----------3------------------|


G|-------------------------------------|--------------------------------------|-------------------------------------------------|
D|---------------------7---7-----------|---------1010---10------10--10-9------|----------5--5--------------7------7-7----5-5----|
A|------2---5-------7---------7--------|------10-----10------10-----------10--|----2--5--------5-----4--7------7------7------5--|
E|-3-----------5-----------------5--7--|-8------------------------------------|-3-----------------5-----------------------------|


G|-----------------------------------|-------------------------------------|--------------------------------------|
D|-----------------------------------|---------------------7---7-----------|---------1010---10---12-----10-9------|
A|-3----2---2--3----5------3--2--0---|------2---5-------7---------7--------|------10-----10----------10-------10--|
E|----------------------3------------|-3-----------5-----------------5--7--|-8------------------------------------|


G|----------------------------------------------|-----------------------------------|
D|----------5--5--------------7------7-7--------|-----------------------------------|
A|----2--5--------5-----4--7------7------7--5---|-3----2---2--3----3--5---3--2--0---|
E|-3-----------------5--------------------------|-----------------------------------|


G|--------------------------------|--------|-----------------------------------|----------------------------------|
D|--------------------------------|--------|----------10-----------------------|------------5---------------------|
A|--------------------------------|--------|----7--10-------7--10----10-10-12--|---------5-----7--7----5--7--5----|
E|-3----3----3--1---3--5------0---|-0------|-8---------------------------------|-0----7---------------------------|


G|-------------------------------------|----------------------------------|------------------------------------|
D|--------------------------17---------|------------5---------------------|------------------------------------|
A|-3----3-----3--3--3---3-----17-------|---------5-----7--7----5--7--5----|-3----3-----3--3--3-------3--2------|
E|---------3--------------------15-8---|-0----7---------------------------|---------3-------------3--------3---|


G|----------------------------------|----------------------------------------|----------------------------------|
D|------------5---------------------|----------------------------------------|------------5---------------------|
A|---------5-----7--7-------7--5----|-3----3-----3--3--3--------0--3--2------|---------5-----7--7----5--7--5----|
E|-0----7----------------5----------|---------3-----------0--3-----------3---|-0----7---------------------------|


G|------------------------------------|------------------------------------|----------------------------------------|
D|------------------------------------|------------5-----------------------|----------------------------------------|
A|-3----3-----3--3--3-------3--2------|---------5-----7--7-------7-----5---|-3----3-----3--3--3-----3---3--2--0--0--|
E|---------3-------------3--------3---|-0----7----------------7-----7------|---------3-----------3------------------|


G|-------------------------------------|--------------------------------------|-------------------------------------------------|
D|---------------------7---7-----------|---------1010---10------10--10-9------|----------5--5--------------7------7-7----5-5----|
A|------2---5-------7---------7--------|------10-----10------10-----------10--|----2--5--------5-----4--7------7------7------5--|
E|-3-----------5-----------------5--7--|-8------------------------------------|-3-----------------5-----------------------------|


G|-----------------------------------|-------------------------------------|--------------------------------------|
D|-----------------------------------|---------------------7---7-----------|---------1010---10---12-----10-9------|
A|-3----2---2--3----5------3--2--0---|------2---5-------7---------7--------|------10-----10----------10-------10--|
E|----------------------3------------|-3-----------5-----------------5--7--|-8------------------------------------|


G|----------------------------------------------|-----------------------------------------|
D|----------5--5--------------7------7-7--------|-----------------------------------------|
A|----2--5--------5-----4--7------7------7--5---|-3----2---2--3---------------------------|
E|-3-----------------5--------------------------|--------------------0--0--0--0--0--1--2--|


G|--------------------------------|---------------------------------------------|--------------------------------|
D|--------------------------------|---------------------------------------------|--------------------------------|
A|--------------------------------|-----------7--5-----5------------------------|--------------------------------|
E|-3----3----5--1---3--5------0---|-0---0--0--------7------7--6--5--3--5--4--4--|-3----3----5--1---3--5------0---|


G|----------------------------------------------|--------------------------------|
D|----------------------------------------------|--------------------------------|
A|-----------------5--7-------7-----5-----------|--------------------------------|
E|-0---0--0--5--7---------5-7----5-----7--6--5--|-3----3----5--1---3--5------0---|


G|-----------------------------------------------|--------------------------------|
D|-----------------------------------------------|--------------------------------|
A|--------------------------------5--4-----------|--------------------------------|
E|-0---0--0--5--3--0--3-----5--7--------7--6--5--|-3----3----5--1---3--5------0---|


G|--------|--------------9--11-|-12-11-9--7-----7-----------------------------|----------------------------------------|
D|--------|-----------9--------|-------------9-----7--5--9-----5-6-5--5-------|----------------------------------------|
A|--------|--------------------|----------------------------7-----------------|-7--7-----7------7--7-----5-------------|
E|-0------|--------------------|-----------------------------------------12---|-------7---------------7-------------7--|


G|-----------------------------------------------|----------------------------------------|
D|-----------------------------------------5-----|----------------------------------------|
A|-7--7-----7------7--7-----5-----7-----5-----5--|-7--7-----7------7--7-----5-------------|
E|-------7---------------7-----------7-----------|-------7---------------7-------------7--|


G|-----------------------------------------------|-----------------------------------------------|
D|-----------------------------------------5-----|-----------------------------------------5-----|
A|-7--7-----7------7--7-----5-----7-----5-----5--|-7--7-----7------7--7-----5-----7-----5-----5--|
E|-------7---------------7-----------7-----------|-------7---------------7-----------7-----------|


G|-----------------------------------------------|-------------------------------------|
D|-----------------------------------------------|---------------------7---7-----------|
A|-7--7-----5-----5--7--7-----5--5--5--7--5------|------2---5-------7---------7--------|
E|-------7-----------------7-----------------7---|-3-----------5-----------------5--7--|


G|--------------------------------------|-------------------------------------------------|
D|---------1010---10------10--10-9------|----------5--5--------------7------7-7----5-5----|
A|------10-----10------10-----------10--|----2--5--------5-----4--7------7------7------5--|
E|-8------------------------------------|-3-----------------5-----------------------------|


G|-----------------------------------|-------------------------------------|--------------------------------------|
D|-----------------------------------|---------------------7---7-----------|---------1010---10---12-----10-9------|
A|-3----2---2--3----5------3--2--0---|------2---5-------7---------7--------|------10-----10----------10-------10--|
E|----------------------3------------|-3-----------5-----------------5--7--|-8------------------------------------|


G|----------------------------------------------|---------------------------------|
D|----------5--5--------------7------7-7--------|---------------------------------|
A|----2--5--------5-----4--7------7------7--5---|-3----2---2--3----5----3--2--0---|
E|-3-----------------5--------------------------|---------------------------------|


G|--------------------------------|---------------------------------------------|--------------------------------|
D|--------------------------------|---------------------------------------------|--------------------------------|
A|--------------------------------|-----------7--5-----5------------------------|--------------------------------|
E|-3----3----5--1---3--5------0---|-0---0--0--------7------7--6--5--3--5--4--4--|-3----3----5--1---3--5------0---|


G|----------------------------------------------|--------------------------------|
D|----------------------------------------------|--------------------------------|
A|-----------------5--7-------7-----5-----------|--------------------------------|
E|-0---0--0--5--7---------5-7----5-----7--6--5--|-3----3----5--1---3--5------0---|


G|-----------------------------------------------|--------------------------------|
D|-----------------------------------------------|--------------------------------|
A|--------------------------------5--4-----------|--------------------------------|
E|-0---0--0--5--3--0--3-----5--7--------7--6--5--|-3----3----5--1---3--5------0---|


G|--------|
D|--------|
A|--------|
E|-0------|