Menu:

 

Search:

 

stone temple pilots - big bang baby:

 



Title: Big Bang Baby
Artist: 
Album: Tiny Music...Songs from the Vatican Gift Shop
Author: Stone Temple Pilots


Track 1: Gtr.I

E|---------------------------------|---------------------------------|---------------------------------|
B|---------------------------------|---------------------------------|---------------------------------|
G|---------------------------------|---------------------------------|---------------------------------|
D|-------------------------7---6---|-5---5---4---3---------------7---|-------------------------7---6---|
A|-2---2---5---6---7---7---5---4---|-3---3---2---1---5---5---7---5---|-2---2---5---6---7---7---5---4---|
E|-0---0---3---4---5---5-----------|-----------------3---3---5-------|-0---0---3---4---5---5-----------|


E|---------------------------------|---------------------------------|---------------------------------|
B|---------------------------------|---------------------------------|---------------------------------|
G|---------------------------------|---------------------------------|---------------------------------|
D|-5---5---4---3---------------9---|-------------------------7---6---|-5---5---4---3---------------7---|
A|-3---3---2---1---7---7---9---7---|-2---2---5---6---7---7---5---4---|-3---3---2---1---5---5---7---5---|
E|-----------------5---5---7-------|-0---0---3---4---5---5-----------|-----------------3---3---5-------|


E|---------------------------------|---------------------------------|---------------------------------|
B|---------------------------------|---------------------------------|---------------------------------|
G|---------------------------------|---------------------------------|---------------------------------|
D|-------------------------7---6---|-5---5---4---3---------------9---|-------------------------7---6---|
A|-2---2---5---6---7---7---5---4---|-3---3---2---1---7---7---9---7---|-2---2---5---6---7---7---5---4---|
E|-0---0---3---4---5---5-----------|-----------------5---5---7-------|-0---0---3---4---5---5-----------|


E|---------------------------------|---------------------------------|---------------------------------|
B|---------------------------------|---------------------------------|---------------------------------|
G|---------------------------------|---------------------------------|---------------------------------|
D|-5---5---4---3---------------7---|-------------------------7---6---|-5---5---4---3---------------7---|
A|-3---3---2---1---5---5---7---5---|-2---2---5---6---7---7---5---4---|-3---3---2---1---5---5---7---5---|
E|-----------------3---3---5-------|-0---0---3---4---5---5-----------|-----------------3---3---5-------|


E|---------------------------------|---------------------------------|---------------------------------|
B|---------------------------------|---------------------------------|---------------------------------|
G|---------------------------------|---------------------------------|---------------------------------|
D|-------------------------7---6---|-5---5---4---3---------------9---|-------------------------7---6---|
A|-2---2---5---6---7---7---5---4---|-3---3---2---1---7---7---9---7---|-2---2---5---6---7---7---5---4---|
E|-0---0---3---4---5---5-----------|-----------------5---5---7-------|-0---0---3---4---5---5-----------|


E|---------------------------------|---------------------------------|---------------------------------|
B|---------------------------------|---------------------------------|---------------------------------|
G|---------------------------------|---------------------------------|---------------------------------|
D|-5---5---4---3---------------7---|-------------------------7---6---|-5---5---4---3-------9-----------|
A|-3---3---2---1---5---5---7---5---|-2---2---5---6---7---7---5---4---|-3---3---2---1---9---7---7-------|
E|-----------------3---3---5-------|-0---0---3---4---5---5-----------|-----------------7-------5-------|


E|--------|--------|--------|--------|--------|--------|--------|--------|---------------------------------|
B|--------|--------|--------|--------|--------|--------|--------|--------|---------------------------------|
G|--------|--------|--------|--------|--------|--------|--------|--------|---------------------------------|
D|--------|--------|--------|--------|--------|--------|--------|--------|-------------------------7---6---|
A|--------|--------|--------|--------|--------|--------|--------|--------|-2---2---5---6---7---7---5---4---|
E|--------|--------|--------|--------|--------|--------|--------|--------|-0---0---3---4---5---5-----------|


E|---------------------------------|---------------------------------|---------------------------------|
B|---------------------------------|---------------------------------|---------------------------------|
G|---------------------------------|---------------------------------|---------------------------------|
D|-5---5---4---3---------------7---|-------------------------7---6---|-5---5---4---3---------------9---|
A|-3---3---2---1---5---5---7---5---|-2---2---5---6---7---7---5---4---|-3---3---2---1---7---7---9---7---|
E|-----------------3---3---5-------|-0---0---3---4---5---5-----------|-----------------5---5---7-------|


E|---------------------------------|---------------------------------|---------------------------------|
B|---------------------------------|---------------------------------|---------------------------------|
G|---------------------------------|---------------------------------|---------------------------------|
D|-------------------------7---6---|-5---5---4---3---------------7---|-------------------------7---6---|
A|-2---2---5---6---7---7---5---4---|-3---3---2---1---5---5---7---5---|-2---2---5---6---7---7---5---4---|
E|-0---0---3---4---5---5-----------|-----------------3---3---5-------|-0---0---3---4---5---5-----------|


E|---------------------------------|---------------------------------|---------------------------------|
B|---------------------------------|---------------------------------|---------------------------------|
G|---------------------------------|---------------------------------|---------------------------------|
D|-5---5---4---3---------------9---|-------------------------7---6---|-5---5---4---3---------------7---|
A|-3---3---2---1---7---7---9---7---|-2---2---5---6---7---7---5---4---|-3---3---2---1---5---5---7---5---|
E|-----------------5---5---7-------|-0---0---3---4---5---5-----------|-----------------3---3---5-------|


E|---------------------------------|---------------------------------|---------------------------------|
B|---------------------------------|---------------------------------|---------------------------------|
G|---------------------------------|---------------------------------|---------------------------------|
D|-------------------------7---6---|-5---5---4---3---------------9---|-------------------------7---6---|
A|-2---2---5---6---7---7---5---4---|-3---3---2---1---7---7---9---7---|-2---2---5---6---7---7---5---4---|
E|-0---0---3---4---5---5-----------|-----------------5---5---7-------|-0---0---3---4---5---5-----------|


E|---------------------------------|---------------------------------|---------------------------------|
B|---------------------------------|---------------------------------|---------------------------------|
G|---------------------------------|---------------------------------|---------------------------------|
D|-5---5---4---3---------------7---|-------------------------7---6---|-5---5---4---3-------9-----------|
A|-3---3---2---1---5---5---7---5---|-2---2---5---6---7---7---5---4---|-3---3---2---1---9---7---7-------|
E|-----------------3---3---5-------|-0---0---3---4---5---5-----------|-----------------7-------5-------|


E|--------|--------|--------|--------|--------|--------|--------|--------|--------|
B|--------|--------|--------|--------|--------|--------|--------|--------|--------|
G|--------|--------|--------|--------|--------|--------|--------|--------|--------|
D|--------|--------|--------|--------|--------|--------|--------|--------|--------|
A|--------|--------|--------|--------|--------|--------|--------|--------|--------|
E|--------|--------|--------|--------|--------|--------|--------|--------|--------|


E|--------|--------|--------|--------|--------|--------|--------|--------|--------|
B|--------|--------|--------|--------|--------|--------|--------|--------|--------|
G|--------|--------|--------|--------|--------|--------|--------|--------|--------|
D|--------|--------|--------|--------|--------|--------|--------|--------|--------|
A|--------|--------|--------|--------|--------|--------|--------|--------|--------|
E|--------|--------|--------|--------|--------|--------|--------|--------|--------|


E|--------|--------|--------|--------|--------|--------|--------|--------|--------|
B|--------|--------|--------|--------|--------|--------|--------|--------|--------|
G|--------|--------|--------|--------|--------|--------|--------|--------|--------|
D|--------|--------|--------|--------|--------|--------|--------|--------|--------|
A|--------|--------|--------|--------|--------|--------|--------|--------|--------|
E|--------|--------|--------|--------|--------|--------|--------|--------|--------|


E|--------|--------|--------|--------|--------|--------|--------|--------|--------|
B|--------|--------|--------|--------|--------|--------|--------|--------|--------|
G|--------|--------|--------|--------|--------|--------|--------|--------|--------|
D|--------|--------|--------|--------|--------|--------|--------|--------|--------|
A|--------|--------|--------|--------|--------|--------|--------|--------|--------|
E|--------|--------|--------|--------|--------|--------|--------|--------|--------|


E|--------|--------|--------|--------|--------|--------|--------|--------|--------|
B|--------|--------|--------|--------|--------|--------|--------|--------|--------|
G|--------|--------|--------|--------|--------|--------|--------|--------|--------|
D|--------|--------|--------|--------|--------|--------|--------|--------|--------|
A|--------|--------|--------|--------|--------|--------|--------|--------|--------|
E|--------|--------|--------|--------|--------|--------|--------|--------|--------|


E|--------|--------|--------|--------|--------|--------|---------------------------|
B|--------|--------|--------|--------|--------|--------|---------------------------|
G|--------|--------|--------|--------|--------|--------|---------------------------|
D|--------|--------|--------|--------|--------|--------|---------------------------|
A|--------|--------|--------|--------|--------|--------|----------------------5----|
E|--------|--------|--------|--------|--------|--------|------4---3---4---5---3----|


E|--------|--------|--------|--------|--------|--------|--------|--------|
B|--------|--------|--------|--------|--------|--------|--------|--------|
G|--------|--------|--------|--------|--------|--------|--------|--------|
D|--------|--------|--------|--------|--------|--------|--------|--------|
A|--------|--------|--------|--------|--------|--------|--------|--------|
E|--------|--------|--------|--------|--------|--------|--------|--------|





Track 2: Gtr.II

E|--------|--------|--------|--------|--------|--------|--------|--------|--------|
B|--------|--------|--------|--------|--------|--------|--------|--------|--------|
G|--------|--------|--------|--------|--------|--------|--------|--------|--------|
D|--------|--------|--------|--------|--------|--------|--------|--------|--------|
A|--------|--------|--------|--------|--------|--------|--------|--------|--------|
E|--------|--------|--------|--------|--------|--------|--------|--------|--------|


E|--------|--------|--------|--------|--------|--------|--------|--------|----------------|
B|--------|--------|--------|--------|--------|--------|--------|--------|----------------|
G|--------|--------|--------|--------|--------|--------|--------|--------|----------------|
D|--------|--------|--------|--------|--------|--------|--------|--------|----------------|
A|--------|--------|--------|--------|--------|--------|--------|--------|----------------|
E|--------|--------|--------|--------|--------|--------|--------|--------|----------------|


E|--------|--------|--------|--------|--------|--------|--------|--------|--------|
B|--------|--------|--------|--------|--------|--------|--------|--------|--------|
G|--------|--------|--------|--------|--------|--------|--------|--------|--------|
D|--------|--------|--------|--------|--------|--------|--------|--------|--------|
A|--------|--------|--------|--------|--------|--------|--------|--------|--------|
E|--------|--------|--------|--------|--------|--------|--------|--------|--------|


E|--------|--------|--------|--------|--------|--------|--------|--------|--------|
B|--------|--------|--------|--------|--------|--------|--------|--------|--------|
G|--------|--------|--------|--------|--------|--------|--------|--------|--------|
D|--------|--------|--------|--------|--------|--------|--------|--------|--------|
A|--------|--------|--------|--------|--------|--------|--------|--------|--------|
E|--------|--------|--------|--------|--------|--------|--------|--------|--------|


E|--------|--------|--------|--------|--------|----------------|--------|--------|
B|--------|--------|--------|--------|--------|----------------|--------|--------|
G|--------|--------|--------|--------|--------|----------------|--------|--------|
D|--------|--------|--------|--------|--------|----------------|--------|--------|
A|--------|--------|--------|--------|--------|----------------|--------|--------|
E|--------|--------|--------|--------|--------|----------------|--------|--------|


E|--------|--------|--------|--------|--------|--------|--------|--------|--------|
B|--------|--------|--------|--------|--------|--------|--------|--------|--------|
G|--------|--------|--------|--------|--------|--------|--------|--------|--------|
D|--------|--------|--------|--------|--------|--------|--------|--------|--------|
A|--------|--------|--------|--------|--------|--------|--------|--------|--------|
E|--------|--------|--------|--------|--------|--------|--------|--------|--------|


E|--------|--------|--------|--------|--------|--------|--------|--------|--------|
B|--------|--------|--------|--------|--------|--------|--------|--------|--------|
G|--------|--------|--------|--------|--------|--------|--------|--------|--------|
D|--------|--------|--------|--------|--------|--------|--------|--------|--------|
A|--------|--------|--------|--------|--------|--------|--------|--------|--------|
E|--------|--------|--------|--------|--------|--------|--------|--------|--------|


E|--------|--------|--------|--------|--------|--------|--------|--------|--------|
B|--------|--------|--------|--------|--------|--------|--------|--------|--------|
G|--------|--------|--------|--------|--------|--------|--------|--------|--------|
D|--------|--------|--------|--------|--------|--------|--------|--------|--------|
A|--------|--------|--------|--------|--------|--------|--------|--------|--------|
E|--------|--------|--------|--------|--------|--------|--------|--------|--------|


E|----------------|--------|--------|--------|--------|--------|--------|--------|
B|----------------|--------|--------|--------|--------|--------|--------|--------|
G|----------------|--------|--------|--------|--------|--------|--------|--------|
D|----------------|--------|--------|--------|--------|--------|--------|--------|
A|----------------|--------|--------|--------|--------|--------|--------|--------|
E|----------------|--------|--------|--------|--------|--------|--------|--------|


E|--------|--------|--------|--------|--------|--------|--------|--------|--------|
B|--------|--------|--------|--------|--------|--------|--------|--------|--------|
G|--------|--------|--------|--------|--------|--------|--------|--------|--------|
D|--------|--------|--------|--------|--------|--------|--------|--------|--------|
A|--------|--------|--------|--------|--------|--------|--------|--------|--------|
E|--------|--------|--------|--------|--------|--------|--------|--------|--------|


E|--------|--------|--------|--------|--------|--------|--------|--------|--------|
B|--------|--------|--------|--------|--------|--------|--------|--------|--------|
G|--------|--------|--------|--------|--------|--------|--------|--------|--------|
D|--------|--------|--------|--------|--------|--------|--------|--------|--------|
A|--------|--------|--------|--------|--------|--------|--------|--------|--------|
E|--------|--------|--------|--------|--------|--------|--------|--------|--------|


E|--------|--------|--------|--------|--------|
B|--------|--------|--------|--------|--------|
G|--------|--------|--------|--------|--------|
D|--------|--------|--------|--------|--------|
A|--------|--------|--------|--------|--------|
E|--------|--------|--------|--------|--------|





Track 3: Gtr.III

E|--------|--------|--------|--------|--------|--------|--------|--------|--------|
B|--------|--------|--------|--------|--------|--------|--------|--------|--------|
G|--------|--------|--------|--------|--------|--------|--------|--------|--------|
D|--------|--------|--------|--------|--------|--------|--------|--------|--------|
A|--------|--------|--------|--------|--------|--------|--------|--------|--------|
E|--------|--------|--------|--------|--------|--------|--------|--------|--------|


E|--------|--------|--------|--------|--------|--------|--------|--------|----------------|
B|--------|--------|--------|--------|--------|--------|--------|--------|----------------|
G|--------|--------|--------|--------|--------|--------|--------|--------|------------5---|
D|--------|--------|--------|--------|--------|--------|--------|--------|------------5---|
A|--------|--------|--------|--------|--------|--------|--------|--------|------------3---|
E|--------|--------|--------|--------|--------|--------|--------|--------|----------------|


E|---------------------------------|---------------------------------|---------0-----------0-----------|
B|---------------------------------|---------------------------------|---------------------------------|
G|-5---5---5---5---5---5---5---2---|-2---2---2---2---2---2---2---2---|-2---1-------1---2-------2---1---|
D|-5---5---5---5---5---5---5---2---|-2---2---2---2---2---2---2---2---|---------------------------------|
A|-3---3---3---3---3---3---3---0---|-0---0---0---0---0---0---0---0---|---------------------------------|
E|---------------------------------|---------------------------------|---------------------------------|


E|---------0-----------0-----------|------------------------------|------------------------------|
B|---------------------------------|------------------------------|------------------------------|
G|-2---1-------1---2-------2---1---|-5----5---5---5---5---5---7---|-7---7---7----7---7---7---7---|
D|---------------------------------|-5----5---5---5---5---5---7---|-7---7---7----7---7---7---7---|
A|---------------------------------|-3----3---3---3---3---3---5---|-5---5---5----5---5---5---5---|
E|---------------------------------|------------------------------|------------------------------|


E|-7----7----7---7---7----|-7----7----7---7-----|--------|--------|--------|--------|
B|-5----5----5---5---5----|-5----5----5---5-----|--------|--------|--------|--------|
G|-4----4----4---4---4----|-4----4----4---4-----|--------|--------|--------|--------|
D|------------------------|---------------------|--------|--------|--------|--------|
A|------------------------|---------------------|--------|--------|--------|--------|
E|------------------------|---------------------|--------|--------|--------|--------|


E|--------|--------|--------|--------|--------|--------|--------|--------|--------|
B|--------|--------|--------|--------|--------|--------|--------|--------|--------|
G|--------|--------|--------|--------|--------|--------|--------|--------|--------|
D|--------|--------|--------|--------|--------|--------|--------|--------|--------|
A|--------|--------|--------|--------|--------|--------|--------|--------|--------|
E|--------|--------|--------|--------|--------|--------|--------|--------|--------|


E|--------|--------|----------------|---------------------------------|---------------------------------|
B|--------|--------|----------------|---------------------------------|---------------------------------|
G|--------|--------|------------5---|-5---5---5---5---5---5---5---2---|-2---2---2---2---2---2---2---2---|
D|--------|--------|------------5---|-5---5---5---5---5---5---5---2---|-2---2---2---2---2---2---2---2---|
A|--------|--------|------------3---|-3---3---3---3---3---3---3---0---|-0---0---0---0---0---0---0---0---|
E|--------|--------|----------------|---------------------------------|---------------------------------|


E|---------0-----------0-----------|---------0-----------0-----------|------------------------------|
B|---------------------------------|---------------------------------|------------------------------|
G|-2---1-------1---2-------2---1---|-2---1-------1---2-------2---1---|-5----5---5---5---5---5---7---|
D|---------------------------------|---------------------------------|-5----5---5---5---5---5---7---|
A|---------------------------------|---------------------------------|-3----3---3---3---3---3---5---|
E|---------------------------------|---------------------------------|------------------------------|


E|------------------------------|-7----7----7---7---7----|-7----7----7---7-----|-12---12---12--12--12--12--|
B|------------------------------|-5----5----5---5---5----|-5----5----5---5-----|-12---12---12--12--12--13--|
G|-7---7---7----7---7---7---7---|-4----4----4---4---4----|-4----4----4---4-----|-13---13---13--13--13--12--|
D|-7---7---7----7---7---7---7---|------------------------|---------------------|-14---14---14--14--14--14--|
A|-5---5---5----5---5---5---5---|------------------------|---------------------|-14---14---14--14--14--15--|
E|------------------------------|------------------------|---------------------|---------------------------|


E|-12--12--12---12--12--12---|-12---12---12--12--12--12--|-12--12--12---12--12--12---|
B|-13--13--13---13--13--13---|-12---12---12--12--12--13--|-13--13--13---13--13--13---|
G|-12--12--12---12--12--12---|-13---13---13--13--13--12--|-12--12--12---12--12--12---|
D|-14--14--14---14--14--14---|-14---14---14--14--14--14--|-14--14--14---14--14--14---|
A|-15--15--15---15--15--15---|-14---14---14--14--14--15--|-15--15--15---15--15--15---|
E|---------------------------|---------------------------|---------------------------|


E|-12---12---12--12------12--|-12--12--12--12---12--12---|-12---12---12--12--12--12--|
B|-13---13---13--13------15--|-15--15--15--13---13--13---|-12---12---12--12--12--13--|
G|-14---14---14--14------14--|-14--14--14--14---14--14---|-13---13---13--13--13--12--|
D|-14---14---14--14------12--|-12--12--12--14---14--14---|-14---14---14--14--14--14--|
A|-12---12---12--12------12--|-12--12--12--12---12--12---|-14---14---14--14--14--15--|
E|---------------------------|---------------------------|---------------------------|


E|-12--12--12---12--12--12---|-12---12---12--12--12--12--|-12--12--12---12--12--12---|
B|-13--13--13---13--13--13---|-12---12---12--12--12--13--|-13--13--13---13--13--13---|
G|-12--12--12---12--12--12---|-13---13---13--13--13--12--|-12--12--12---12--12--12---|
D|-14--14--14---14--14--14---|-14---14---14--14--14--14--|-14--14--14---14--14--14---|
A|-15--15--15---15--15--15---|-14---14---14--14--14--15--|-15--15--15---15--15--15---|
E|---------------------------|---------------------------|---------------------------|


E|-12---12---12--12------12--|-12--12--12--12---12--12---|-12---12---12--12--12--12--|
B|-13---13---13--13------15--|-15--15--15--13---13--13---|-12---12---12--12--12--12--|
G|-14---14---14--14------14--|-14--14--14--14---14--14---|-13---13---13--13--13--13--|
D|-14---14---14--14------12--|-12--12--12--14---14--14---|-14---14---14--14--14--14--|
A|-12---12---12--12------12--|-12--12--12--12---12--12---|-14---14---14--14--14--14--|
E|---------------------------|---------------------------|---------------------------|


E|-12--12--12---12--12--12---|---------------------------------|---------------------------------|
B|-12--12--12---12--12--12---|---------------------------------|---------------------------------|
G|-13--13--13---13--13--13---|---------------------------------|---------------------------------|
D|-14--14--14---14--14--14---|-------------------------7---6---|-5---5---4---3---------------7---|
A|-14--14--14---14--14--14---|-2---2---5---6---7---7---5---4---|-3---3---2---1---5---5---7---5---|
E|---------------------------|-0---0---3---4---5---5-----------|-----------------3---3---5-------|


E|---------------------------------|---------------------------------|---------------------------------|
B|---------------------------------|---------------------------------|---------------------------------|
G|---------------------------------|---------------------------------|---------------------------------|
D|-------------------------7---6---|-5---5---4---3---------------9---|-------------------------7---6---|
A|-2---2---5---6---7---7---5---4---|-3---3---2---1---7---7---9---7---|-2---2---5---6---7---7---5---4---|
E|-0---0---3---4---5---5-----------|-----------------5---5---7-------|-0---0---3---4---5---5-----------|


E|---------------------------------|---------------------------------|---------------------------------|
B|---------------------------------|---------------------------------|---------------------------------|
G|---------------------------------|---------------------------------|-----------------------------5---|
D|-5---5---4---3---------------7---|-------------------------7---6---|-5---5---4---3-------9-------5---|
A|-3---3---2---1---5---5---7---5---|-2---2---5---6---7---7---5---4---|-3---3---2---1---9---7---7---3---|
E|-----------------3---3---5-------|-0---0---3---4---5---5-----------|-----------------7-------5-------|


E|---------------------------------|---------------------------------|---------0-----------0-----------|
B|---------------------------------|---------------------------------|---------------------------------|
G|-5---5---5---5---5---5---5---2---|-2---2---2---2---2---2---2---2---|-2---1-------1---2-------2---1---|
D|-5---5---5---5---5---5---5---2---|-2---2---2---2---2---2---2---2---|---------------------------------|
A|-3---3---3---3---3---3---3---0---|-0---0---0---0---0---0---0---0---|---------------------------------|
E|---------------------------------|---------------------------------|---------------------------------|


E|---------0-----------0-----------|------------------------------|------------------------------|
B|---------------------------------|------------------------------|------------------------------|
G|-2---1-------1---2-------2---1---|-5----5---5---5---5---5---7---|-7---7---7----7---7---7---7---|
D|---------------------------------|-5----5---5---5---5---5---7---|-7---7---7----7---7---7---7---|
A|---------------------------------|-3----3---3---3---3---3---5---|-5---5---5----5---5---5---5---|
E|---------------------------------|------------------------------|------------------------------|


E|-7----7----7---7---7----|-7----7----7---7-----|-12---12---12--12--12--12--|-12--12--12---12--12--12---|
B|-5----5----5---5---5----|-5----5----5---5-----|-12---12---12--12--12--13--|-13--13--13---13--13--13---|
G|-4----4----4---4---4----|-4----4----4---4-----|-13---13---13--13--13--12--|-12--12--12---12--12--12---|
D|------------------------|---------------------|-14---14---14--14--14--14--|-14--14--14---14--14--14---|
A|------------------------|---------------------|-14---14---14--14--14--15--|-15--15--15---15--15--15---|
E|------------------------|---------------------|---------------------------|---------------------------|


E|-12---12---12--12--12--12--|-12--12--12---12--12--12---|-12---12---12--12------12--|
B|-12---12---12--12--12--13--|-13--13--13---13--13--13---|-13---13---13--13------15--|
G|-13---13---13--13--13--12--|-12--12--12---12--12--12---|-14---14---14--14------14--|
D|-14---14---14--14--14--14--|-14--14--14---14--14--14---|-14---14---14--14------12--|
A|-14---14---14--14--14--15--|-15--15--15---15--15--15---|-12---12---12--12------12--|
E|---------------------------|---------------------------|---------------------------|


E|-12--12--12--12---12--12---|-12---12---12--12--12--12--|-12--12--12---12--12--12---|
B|-15--15--15--13---13--13---|-12---12---12--12--12--13--|-13--13--13---13--13--13---|
G|-14--14--14--14---14--14---|-13---13---13--13--13--12--|-12--12--12---12--12--12---|
D|-12--12--12--14---14--14---|-14---14---14--14--14--14--|-14--14--14---14--14--14---|
A|-12--12--12--12---12--12---|-14---14---14--14--14--15--|-15--15--15---15--15--15---|
E|---------------------------|---------------------------|---------------------------|


E|-12---12---12--12--12--12--|-12--12--12---12--12--12---|-12---12---12--12------12--|
B|-12---12---12--12--12--13--|-13--13--13---13--13--13---|-13---13---13--13------15--|
G|-13---13---13--13--13--12--|-12--12--12---12--12--12---|-14---14---14--14------14--|
D|-14---14---14--14--14--14--|-14--14--14---14--14--14---|-14---14---14--14------12--|
A|-14---14---14--14--14--15--|-15--15--15---15--15--15---|-12---12---12--12------12--|
E|---------------------------|---------------------------|---------------------------|


E|-12--12--12--12---12--12---|-12---12---12--12--12--12--|-12--12--12---12--12--12---|
B|-15--15--15--13---13--13---|-12---12---12--12--12--12--|-12--12--12---12--12--12---|
G|-14--14--14--14---14--14---|-13---13---13--13--13--13--|-13--13--13---13--13--13---|
D|-12--12--12--14---14--14---|-14---14---14--14--14--14--|-14--14--14---14--14--14---|
A|-12--12--12--12---12--12---|-14---14---14--14--14--14--|-14--14--14---14--14--14---|
E|---------------------------|---------------------------|---------------------------|


E|---------------------------------|---------------------------------|---------------------------------|
B|---------------------------------|---------------------------------|---------------------------------|
G|---------------------------------|---------------------------------|---------------------------------|
D|-------------------------7---6---|-5---5---4---3---------------7---|-------------------------7---6---|
A|-2---2---5---6---7---7---5---4---|-3---3---2---1---5---5---7---5---|-2---2---5---6---7---7---5---4---|
E|-0---0---3---4---5---5-----------|-----------------3---3---5-------|-0---0---3---4---5---5-----------|


E|---------------------------------|---------------------------------|---------------------------------|
B|---------------------------------|---------------------------------|---------------------------------|
G|---------------------------------|---------------------------------|---------------------------------|
D|-5---5---4---3---------------9---|-------------------------7---6---|-5---5---4---3---------------7---|
A|-3---3---2---1---7---7---9---7---|-2---2---5---6---7---7---5---4---|-3---3---2---1---5---5---7---5---|
E|-----------------5---5---7-------|-0---0---3---4---5---5-----------|-----------------3---3---5-------|


E|---------------------------------|----------------|
B|---------------------------------|----------------|
G|---------------------------------|----------------|
D|-------------------------7---6---|-5---5----------|
A|-2---2---5---6---7---7---5---4---|-3---3----------|
E|-0---0---3---4---5---5-----------|----------------|





Track 4: Gtr.I

E|--------|--------|--------|--------|--------|--------|--------|--------|--------|
B|--------|--------|--------|--------|--------|--------|--------|--------|--------|
G|--------|--------|--------|--------|--------|--------|--------|--------|--------|
D|--------|--------|--------|--------|--------|--------|--------|--------|--------|
A|--------|--------|--------|--------|--------|--------|--------|--------|--------|
E|--------|--------|--------|--------|--------|--------|--------|--------|--------|


E|--------|--------|--------|--------|--------|--------|--------|--------|----------------|
B|--------|--------|--------|--------|--------|--------|--------|--------|----------------|
G|--------|--------|--------|--------|--------|--------|--------|--------|------------5---|
D|--------|--------|--------|--------|--------|--------|--------|--------|------------5---|
A|--------|--------|--------|--------|--------|--------|--------|--------|------------3---|
E|--------|--------|--------|--------|--------|--------|--------|--------|----------------|


E|------------------------------|------------------------------|---------------------------------|
B|------------------------------|------------------------------|---------------------------------|
G|-5---5---5----5---5---5---2---|-2---2---2----2---2---2---2---|---------------------------------|
D|-5---5---5----5---5---5---2---|-2---2---2----2---2---2---2---|-2---2-------2---2---2-------2---|
A|-3---3---3----3---3---3---0---|-0---0---0----0---0---0---0---|-2---2-------2---2---2-------2---|
E|------------------------------|------------------------------|-0---0-------0---0---0-------0---|


E|------------------------|---------------------------|------------------------------|
B|------------------------|---------------------------|------------------------------|
G|------------------------|-5----5----5---5---5---7---|-7---7---7----7---7---7---7---|
D|-2---2---2----2----2----|-5----5----5---5---5---7---|-7---7---7----7---7---7---7---|
A|-2---2---2----2----2----|-3----3----3---3---3---5---|-5---5---5----5---5---5---5---|
E|-0---0---0----0----0----|---------------------------|------------------------------|


E|---------------------------------|---------------------------|--------|--------|
B|---------------------------------|---------------------------|--------|--------|
G|---------------------------------|---------------------------|--------|--------|
D|-2---2-------2---2---2-------2---|-2---2---2----2---2---2----|--------|--------|
A|-2---2-------2---2---2-------2---|-2---2---2----2---2---2----|--------|--------|
E|-0---0-------0---0---0-------0---|-0---0---0----0---0---0----|--------|--------|


E|--------|--------|--------|--------|--------|--------|--------|--------|--------|
B|--------|--------|--------|--------|--------|--------|--------|--------|--------|
G|--------|--------|--------|--------|--------|--------|--------|--------|--------|
D|--------|--------|--------|--------|--------|--------|--------|--------|--------|
A|--------|--------|--------|--------|--------|--------|--------|--------|--------|
E|--------|--------|--------|--------|--------|--------|--------|--------|--------|


E|--------|--------|--------|--------|--------|--------|--------|--------|--------|
B|--------|--------|--------|--------|--------|--------|--------|--------|--------|
G|--------|--------|--------|--------|--------|--------|--------|--------|--------|
D|--------|--------|--------|--------|--------|--------|--------|--------|--------|
A|--------|--------|--------|--------|--------|--------|--------|--------|--------|
E|--------|--------|--------|--------|--------|--------|--------|--------|--------|


E|--------|--------|--------|--------|--------|--------|--------|--------|--------|
B|--------|--------|--------|--------|--------|--------|--------|--------|--------|
G|--------|--------|--------|--------|--------|--------|--------|--------|--------|
D|--------|--------|--------|--------|--------|--------|--------|--------|--------|
A|--------|--------|--------|--------|--------|--------|--------|--------|--------|
E|--------|--------|--------|--------|--------|--------|--------|--------|--------|


E|--------|--------|--------|--------|--------|--------|--------|--------|--------|
B|--------|--------|--------|--------|--------|--------|--------|--------|--------|
G|--------|--------|--------|--------|--------|--------|--------|--------|--------|
D|--------|--------|--------|--------|--------|--------|--------|--------|--------|
A|--------|--------|--------|--------|--------|--------|--------|--------|--------|
E|--------|--------|--------|--------|--------|--------|--------|--------|--------|


E|--------|--------|--------|--------|--------|--------|--------|--------|--------|
B|--------|--------|--------|--------|--------|--------|--------|--------|--------|
G|--------|--------|--------|--------|--------|--------|--------|--------|--------|
D|--------|--------|--------|--------|--------|--------|--------|--------|--------|
A|--------|--------|--------|--------|--------|--------|--------|--------|--------|
E|--------|--------|--------|--------|--------|--------|--------|--------|--------|


E|--------|--------|--------|--------|--------|--------|--------|--------|--------|
B|--------|--------|--------|--------|--------|--------|--------|--------|--------|
G|--------|--------|--------|--------|--------|--------|--------|--------|--------|
D|--------|--------|--------|--------|--------|--------|--------|--------|--------|
A|--------|--------|--------|--------|--------|--------|--------|--------|--------|
E|--------|--------|--------|--------|--------|--------|--------|--------|--------|


E|--------|--------|--------|--------|--------|--------|--------|--------|--------|
B|--------|--------|--------|--------|--------|--------|--------|--------|--------|
G|--------|--------|--------|--------|--------|--------|--------|--------|--------|
D|--------|--------|--------|--------|--------|--------|--------|--------|--------|
A|--------|--------|--------|--------|--------|--------|--------|--------|--------|
E|--------|--------|--------|--------|--------|--------|--------|--------|--------|


E|--------|--------|--------|--------|--------|--------|--------|--------|--------|
B|--------|--------|--------|--------|--------|--------|--------|--------|--------|
G|--------|--------|--------|--------|--------|--------|--------|--------|--------|
D|--------|--------|--------|--------|--------|--------|--------|--------|--------|
A|--------|--------|--------|--------|--------|--------|--------|--------|--------|
E|--------|--------|--------|--------|--------|--------|--------|--------|--------|


E|--------|--------|
B|--------|--------|
G|--------|--------|
D|--------|--------|
A|--------|--------|
E|--------|--------|





Track 5: Gtr.I

E|--------|--------|--------|--------|--------|--------|--------|--------|--------|
B|--------|--------|--------|--------|--------|--------|--------|--------|--------|
G|--------|--------|--------|--------|--------|--------|--------|--------|--------|
D|--------|--------|--------|--------|--------|--------|--------|--------|--------|
A|--------|--------|--------|--------|--------|--------|--------|--------|--------|
E|--------|--------|--------|--------|--------|--------|--------|--------|--------|


E|--------|--------|--------|--------|--------|--------|--------|--------|--------|
B|--------|--------|--------|--------|--------|--------|--------|--------|--------|
G|--------|--------|--------|--------|--------|--------|--------|--------|--------|
D|--------|--------|--------|--------|--------|--------|--------|--------|--------|
A|--------|--------|--------|--------|--------|--------|--------|--------|--------|
E|--------|--------|--------|--------|--------|--------|--------|--------|--------|


E|--------|--------|--------|--------|--------|--------|--------|--------|--------|
B|--------|--------|--------|--------|--------|--------|--------|--------|--------|
G|--------|--------|--------|--------|--------|--------|--------|--------|--------|
D|--------|--------|--------|--------|--------|--------|--------|--------|--------|
A|--------|--------|--------|--------|--------|--------|--------|--------|--------|
E|--------|--------|--------|--------|--------|--------|--------|--------|--------|


E|--------|--------|--------|--------|--------|--------|--------|--------|--------|
B|--------|--------|--------|--------|--------|--------|--------|--------|--------|
G|--------|--------|--------|--------|--------|--------|--------|--------|--------|
D|--------|--------|--------|--------|--------|--------|--------|--------|--------|
A|--------|--------|--------|--------|--------|--------|--------|--------|--------|
E|--------|--------|--------|--------|--------|--------|--------|--------|--------|


E|--------|--------|--------|--------|--------|--------|--------|--------|--------|
B|--------|--------|--------|--------|--------|--------|--------|--------|--------|
G|--------|--------|--------|--------|--------|--------|--------|--------|--------|
D|--------|--------|--------|--------|--------|--------|--------|--------|--------|
A|--------|--------|--------|--------|--------|--------|--------|--------|--------|
E|--------|--------|--------|--------|--------|--------|--------|--------|--------|


E|--------|--------|--------|--------|--------|--------|--------|--------|--------|
B|--------|--------|--------|--------|--------|--------|--------|--------|--------|
G|--------|--------|--------|--------|--------|--------|--------|--------|--------|
D|--------|--------|--------|--------|--------|--------|--------|--------|--------|
A|--------|--------|--------|--------|--------|--------|--------|--------|--------|
E|--------|--------|--------|--------|--------|--------|--------|--------|--------|


E|--------|--------|--------|--------|--------|--------|--------|--------|--------|
B|--------|--------|--------|--------|--------|--------|--------|--------|--------|
G|--------|--------|--------|--------|--------|--------|--------|--------|--------|
D|--------|--------|--------|--------|--------|--------|--------|--------|--------|
A|--------|--------|--------|--------|--------|--------|--------|--------|--------|
E|--------|--------|--------|--------|--------|--------|--------|--------|--------|


E|--------|--------|--------|--------|--------|--------|--------|--------|--------|
B|--------|--------|--------|--------|--------|--------|--------|--------|--------|
G|--------|--------|--------|--------|--------|--------|--------|--------|--------|
D|--------|--------|--------|--------|--------|--------|--------|--------|--------|
A|--------|--------|--------|--------|--------|--------|--------|--------|--------|
E|--------|--------|--------|--------|--------|--------|--------|--------|--------|


E|--------|--------|--------|--------|--------|--------|--------|--------|--------|
B|--------|--------|--------|--------|--------|--------|--------|--------|--------|
G|--------|--------|--------|--------|--------|--------|--------|--------|--------|
D|--------|--------|--------|--------|--------|--------|--------|--------|--------|
A|--------|--------|--------|--------|--------|--------|--------|--------|--------|
E|--------|--------|--------|--------|--------|--------|--------|--------|--------|


E|--------|--------|--------|--------|--------|--------|--------|--------|--------|
B|--------|--------|--------|--------|--------|--------|--------|--------|--------|
G|--------|--------|--------|--------|--------|--------|--------|--------|--------|
D|--------|--------|--------|--------|--------|--------|--------|--------|--------|
A|--------|--------|--------|--------|--------|--------|--------|--------|--------|
E|--------|--------|--------|--------|--------|--------|--------|--------|--------|


E|--------|--------|--------|--------|--------|--------|--------|--------|--------|
B|--------|--------|--------|--------|--------|--------|--------|--------|--------|
G|--------|--------|--------|--------|--------|--------|--------|--------|--------|
D|--------|--------|--------|--------|--------|--------|--------|--------|--------|
A|--------|--------|--------|--------|--------|--------|--------|--------|--------|
E|--------|--------|--------|--------|--------|--------|--------|--------|--------|


E|--------|--------|--------|
B|--------|--------|--------|
G|--------|--------|--------|
D|--------|--------|--------|
A|--------|--------|--------|
E|--------|--------|--------|





Track 6: Gtr.I

E|--------|--------|--------|--------|--------|--------|--------|--------|--------|
B|--------|--------|--------|--------|--------|--------|--------|--------|--------|
G|--------|--------|--------|--------|--------|--------|--------|--------|--------|
D|--------|--------|--------|--------|--------|--------|--------|--------|--------|
A|--------|--------|--------|--------|--------|--------|--------|--------|--------|
E|--------|--------|--------|--------|--------|--------|--------|--------|--------|


E|--------|--------|--------|--------|--------|--------|--------|--------|--------|
B|--------|--------|--------|--------|--------|--------|--------|--------|--------|
G|--------|--------|--------|--------|--------|--------|--------|--------|--------|
D|--------|--------|--------|--------|--------|--------|--------|--------|--------|
A|--------|--------|--------|--------|--------|--------|--------|--------|--------|
E|--------|--------|--------|--------|--------|--------|--------|--------|--------|


E|--------|--------|--------|--------|--------|--------|--------|--------|--------|
B|--------|--------|--------|--------|--------|--------|--------|--------|--------|
G|--------|--------|--------|--------|--------|--------|--------|--------|--------|
D|--------|--------|--------|--------|--------|--------|--------|--------|--------|
A|--------|--------|--------|--------|--------|--------|--------|--------|--------|
E|--------|--------|--------|--------|--------|--------|--------|--------|--------|


E|--------|--------|--------|--------|--------|--------|--------|--------|--------|
B|--------|--------|--------|--------|--------|--------|--------|--------|--------|
G|--------|--------|--------|--------|--------|--------|--------|--------|--------|
D|--------|--------|--------|--------|--------|--------|--------|--------|--------|
A|--------|--------|--------|--------|--------|--------|--------|--------|--------|
E|--------|--------|--------|--------|--------|--------|--------|--------|--------|


E|--------|--------|--------|--------|--------|----------------|------------------------------|
B|--------|--------|--------|--------|--------|----------------|------------------------------|
G|--------|--------|--------|--------|--------|------------5---|-5---5---5----5---5---5---2---|
D|--------|--------|--------|--------|--------|------------5---|-5---5---5----5---5---5---2---|
A|--------|--------|--------|--------|--------|------------3---|-3---3---3----3---3---3---0---|
E|--------|--------|--------|--------|--------|----------------|------------------------------|


E|------------------------------|---------------------------------|------------------------|
B|------------------------------|---------------------------------|------------------------|
G|-2---2---2----2---2---2---2---|---------------------------------|------------------------|
D|-2---2---2----2---2---2---2---|-2---2-------2---2---2-------2---|-2---2---2----2----2----|
A|-0---0---0----0---0---0---0---|-2---2-------2---2---2-------2---|-2---2---2----2----2----|
E|------------------------------|-0---0-------0---0---0-------0---|-0---0---0----0----0----|


E|---------------------------|------------------------------|---------------------------------|
B|---------------------------|------------------------------|---------------------------------|
G|-5----5----5---5---5---7---|-7---7---7----7---7---7---7---|---------------------------------|
D|-5----5----5---5---5---7---|-7---7---7----7---7---7---7---|-2---2-------2---2---2-------2---|
A|-3----3----3---3---3---5---|-5---5---5----5---5---5---5---|-2---2-------2---2---2-------2---|
E|---------------------------|------------------------------|-0---0-------0---0---0-------0---|


E|---------------------------|-----------------------0---|-0---0---0----0---0---0----|
B|---------------------------|-----------------------1---|-1---1---1----1---1---1----|
G|---------------------------|-1----1----1---1---1---0---|-0---0---0----0---0---0----|
D|-2---2---2----2---2---2----|-2----2----2---2---2---2---|-2---2---2----2---2---2----|
A|-2---2---2----2---2---2----|-2----2----2---2---2---3---|-3---3---3----3---3---3----|
E|-0---0---0----0---0---0----|-0----0----0---0---0-------|---------------------------|


E|-----------------------0---|-0---0---0----0---0---0----|-0----0----0---0---0---0---|
B|-----------------------1---|-1---1---1----1---1---1----|-1----1----1---1---1---3---|
G|-1----1----1---1---1---0---|-0---0---0----0---0---0----|-2----2----2---2---2---2---|
D|-2----2----2---2---2---2---|-2---2---2----2---2---2----|-2----2----2---2---2---0---|
A|-2----2----2---2---2---3---|-3---3---3----3---3---3----|-0----0----0---0---0-------|
E|-0----0----0---0---0-------|---------------------------|---------------------------|


E|-0---0---0---0----0---0----|-----------------------0---|-0---0---0----0---0---0----|
B|-3---3---3---1----1---1----|-----------------------1---|-1---1---1----1---1---1----|
G|-2---2---2---2----2---2----|-1----1----1---1---1---0---|-0---0---0----0---0---0----|
D|-0---0---0---2----2---2----|-2----2----2---2---2---2---|-2---2---2----2---2---2----|
A|-------------0----0---0----|-2----2----2---2---2---3---|-3---3---3----3---3---3----|
E|---------------------------|-0----0----0---0---0-------|---------------------------|


E|-----------------------0---|-0---0---0----0---0---0----|-0----0----0---0---0---0---|
B|-----------------------1---|-1---1---1----1---1---1----|-1----1----1---1---1---3---|
G|-1----1----1---1---1---0---|-0---0---0----0---0---0----|-2----2----2---2---2---2---|
D|-2----2----2---2---2---2---|-2---2---2----2---2---2----|-2----2----2---2---2---0---|
A|-2----2----2---2---2---3---|-3---3---3----3---3---3----|-0----0----0---0---0-------|
E|-0----0----0---0---0-------|---------------------------|---------------------------|


E|-0---0---0---0----0---0----|---------------------------|-------------|--------|--------|
B|-3---3---3---1----1---1----|---------------------------|-------------|--------|--------|
G|-2---2---2---2----2---2----|-1----1----1---1---1---1---|-------------|--------|--------|
D|-0---0---0---2----2---2----|-2----2----2---2---2---2---|-------------|--------|--------|
A|-------------0----0---0----|-2----2----2---2---2---2---|------14-----|--------|--------|
E|---------------------------|-0----0----0---0---0---0---|-0-----------|--------|--------|


E|--------|--------|--------|--------|--------|--------|--------|--------|--------|
B|--------|--------|--------|--------|--------|--------|--------|--------|--------|
G|--------|--------|--------|--------|--------|--------|--------|--------|--------|
D|--------|--------|--------|--------|--------|--------|--------|--------|--------|
A|--------|--------|--------|--------|--------|--------|--------|--------|--------|
E|--------|--------|--------|--------|--------|--------|--------|--------|--------|


E|--------|--------|--------|--------|--------|--------|--------|--------|--------|
B|--------|--------|--------|--------|--------|--------|--------|--------|--------|
G|--------|--------|--------|--------|--------|--------|--------|--------|--------|
D|--------|--------|--------|--------|--------|--------|--------|--------|--------|
A|--------|--------|--------|--------|--------|--------|--------|--------|--------|
E|--------|--------|--------|--------|--------|--------|--------|--------|--------|


E|--------|--------|--------|--------|--------|--------|--------|--------|--------|
B|--------|--------|--------|--------|--------|--------|--------|--------|--------|
G|--------|--------|--------|--------|--------|--------|--------|--------|--------|
D|--------|--------|--------|--------|--------|--------|--------|--------|--------|
A|--------|--------|--------|--------|--------|--------|--------|--------|--------|
E|--------|--------|--------|--------|--------|--------|--------|--------|--------|


E|--------|--------|--------|--------|--------|--------|--------|--------|--------|
B|--------|--------|--------|--------|--------|--------|--------|--------|--------|
G|--------|--------|--------|--------|--------|--------|--------|--------|--------|
D|--------|--------|--------|--------|--------|--------|--------|--------|--------|
A|--------|--------|--------|--------|--------|--------|--------|--------|--------|
E|--------|--------|--------|--------|--------|--------|--------|--------|--------|





Track 7: Gtr.I

E|--------|--------|--------|--------|--------|--------|--------|--------|--------|
B|--------|--------|--------|--------|--------|--------|--------|--------|--------|
G|--------|--------|--------|--------|--------|--------|--------|--------|--------|
D|--------|--------|--------|--------|--------|--------|--------|--------|--------|
A|--------|--------|--------|--------|--------|--------|--------|--------|--------|
E|--------|--------|--------|--------|--------|--------|--------|--------|--------|


E|--------|--------|--------|--------|--------|--------|--------|--------|--------|
B|--------|--------|--------|--------|--------|--------|--------|--------|--------|
G|--------|--------|--------|--------|--------|--------|--------|--------|--------|
D|--------|--------|--------|--------|--------|--------|--------|--------|--------|
A|--------|--------|--------|--------|--------|--------|--------|--------|--------|
E|--------|--------|--------|--------|--------|--------|--------|--------|--------|


E|--------|--------|--------|--------|--------|--------|--------|--------|--------|
B|--------|--------|--------|--------|--------|--------|--------|--------|--------|
G|--------|--------|--------|--------|--------|--------|--------|--------|--------|
D|--------|--------|--------|--------|--------|--------|--------|--------|--------|
A|--------|--------|--------|--------|--------|--------|--------|--------|--------|
E|--------|--------|--------|--------|--------|--------|--------|--------|--------|


E|--------|--------|--------|--------|--------|--------|--------|--------|--------|
B|--------|--------|--------|--------|--------|--------|--------|--------|--------|
G|--------|--------|--------|--------|--------|--------|--------|--------|--------|
D|--------|--------|--------|--------|--------|--------|--------|--------|--------|
A|--------|--------|--------|--------|--------|--------|--------|--------|--------|
E|--------|--------|--------|--------|--------|--------|--------|--------|--------|


E|--------|--------|--------|--------|--------|--------|--------|--------|--------|
B|--------|--------|--------|--------|--------|--------|--------|--------|--------|
G|--------|--------|--------|--------|--------|--------|--------|--------|--------|
D|--------|--------|--------|--------|--------|--------|--------|--------|--------|
A|--------|--------|--------|--------|--------|--------|--------|--------|--------|
E|--------|--------|--------|--------|--------|--------|--------|--------|--------|


E|--------|--------|--------|--------|--------|--------|--------|--------|--------|
B|--------|--------|--------|--------|--------|--------|--------|--------|--------|
G|--------|--------|--------|--------|--------|--------|--------|--------|--------|
D|--------|--------|--------|--------|--------|--------|--------|--------|--------|
A|--------|--------|--------|--------|--------|--------|--------|--------|--------|
E|--------|--------|--------|--------|--------|--------|--------|--------|--------|


E|--------|--------|--------|--------|--------|--------|--------|--------|--------|
B|--------|--------|--------|--------|--------|--------|--------|--------|--------|
G|--------|--------|--------|--------|--------|--------|--------|--------|--------|
D|--------|--------|--------|--------|--------|--------|--------|--------|--------|
A|--------|--------|--------|--------|--------|--------|--------|--------|--------|
E|--------|--------|--------|--------|--------|--------|--------|--------|--------|


E|--------|--------|--------|--------|--------|--------|--------|--------|----------------|
B|--------|--------|--------|--------|--------|--------|--------|--------|----------------|
G|--------|--------|--------|--------|--------|--------|--------|--------|------------5---|
D|--------|--------|--------|--------|--------|--------|--------|--------|------------5---|
A|--------|--------|--------|--------|--------|--------|--------|--------|------------3---|
E|--------|--------|--------|--------|--------|--------|--------|--------|----------------|


E|------------------------------|------------------------------|---------------------------------|
B|------------------------------|------------------------------|---------------------------------|
G|-5---5---5----5---5---5---2---|-2---2---2----2---2---2---2---|---------------------------------|
D|-5---5---5----5---5---5---2---|-2---2---2----2---2---2---2---|-2---2-------2---2---2-------2---|
A|-3---3---3----3---3---3---0---|-0---0---0----0---0---0---0---|-2---2-------2---2---2-------2---|
E|------------------------------|------------------------------|-0---0-------0---0---0-------0---|


E|------------------------|---------------------------|------------------------------|
B|------------------------|---------------------------|------------------------------|
G|------------------------|-5----5----5---5---5---7---|-7---7---7----7---7---7---7---|
D|-2---2---2----2----2----|-5----5----5---5---5---7---|-7---7---7----7---7---7---7---|
A|-2---2---2----2----2----|-3----3----3---3---3---5---|-5---5---5----5---5---5---5---|
E|-0---0---0----0----0----|---------------------------|------------------------------|


E|---------------------------------|---------------------------|-----------------------0---|
B|---------------------------------|---------------------------|-----------------------1---|
G|---------------------------------|---------------------------|-1----1----1---1---1---0---|
D|-2---2-------2---2---2-------2---|-2---2---2----2---2---2----|-2----2----2---2---2---2---|
A|-2---2-------2---2---2-------2---|-2---2---2----2---2---2----|-2----2----2---2---2---3---|
E|-0---0-------0---0---0-------0---|-0---0---0----0---0---0----|-0----0----0---0---0-------|


E|-0---0---0----0---0---0----|-----------------------0---|-0---0---0----0---0---0----|
B|-1---1---1----1---1---1----|-----------------------1---|-1---1---1----1---1---1----|
G|-0---0---0----0---0---0----|-1----1----1---1---1---0---|-0---0---0----0---0---0----|
D|-2---2---2----2---2---2----|-2----2----2---2---2---2---|-2---2---2----2---2---2----|
A|-3---3---3----3---3---3----|-2----2----2---2---2---3---|-3---3---3----3---3---3----|
E|---------------------------|-0----0----0---0---0-------|---------------------------|


E|-0----0----0---0---0---0---|-0---0---0---0----0---0----|-----------------------0---|
B|-1----1----1---1---1---3---|-3---3---3---1----1---1----|-----------------------1---|
G|-2----2----2---2---2---2---|-2---2---2---2----2---2----|-1----1----1---1---1---0---|
D|-2----2----2---2---2---0---|-0---0---0---2----2---2----|-2----2----2---2---2---2---|
A|-0----0----0---0---0-------|-------------0----0---0----|-2----2----2---2---2---3---|
E|---------------------------|---------------------------|-0----0----0---0---0-------|


E|-0---0---0----0---0---0----|-----------------------0---|-0---0---0----0---0---0----|
B|-1---1---1----1---1---1----|-----------------------1---|-1---1---1----1---1---1----|
G|-0---0---0----0---0---0----|-1----1----1---1---1---0---|-0---0---0----0---0---0----|
D|-2---2---2----2---2---2----|-2----2----2---2---2---2---|-2---2---2----2---2---2----|
A|-3---3---3----3---3---3----|-2----2----2---2---2---3---|-3---3---3----3---3---3----|
E|---------------------------|-0----0----0---0---0-------|---------------------------|


E|-0----0----0---0---0---0---|-0---0---0---0----0---0----|---------------------------|
B|-1----1----1---1---1---3---|-3---3---3---1----1---1----|---------------------------|
G|-2----2----2---2---2---2---|-2---2---2---2----2---2----|-1----1----1---1---1---1---|
D|-2----2----2---2---2---0---|-0---0---0---2----2---2----|-2----2----2---2---2---2---|
A|-0----0----0---0---0-------|-------------0----0---0----|-2----2----2---2---2---2---|
E|---------------------------|---------------------------|-0----0----0---0---0---0---|


E|-------------|------------------------------|--------|------------------------------|
B|-------------|------------------------------|--------|------------------------------|
G|-------------|------------------------------|--------|------------------------------|
D|-------------|-9---9---8---7---6---6--------|--------|-9---9---8---7---6---6--------|
A|------14-----|-7---7---6---5---4---4--------|--------|-7---7---6---5---4---4--------|
E|-0-----------|------------------------------|--------|------------------------------|


E|--------------------|------------------------------|--------|---------------------------------|
B|--------------------|------------------------------|--------|---------------------------------|
G|--------------------|------------------------------|--------|---------------------------------|
D|----------------9---|-9---9---8---7---6---6--------|--------|-9---9---8---7---6---6---7---6---|
A|----------------7---|-7---7---6---5---4---4--------|--------|-7---7---6---5---4---4---5---4---|
E|--------------------|------------------------------|--------|---------------------------------|


E|----------------|
B|----------------|
G|----------------|
D|-5---5----------|
A|-3---3----------|
E|----------------|





Track 8: Bass

G|---------------------------------|---------------------------------|---------------------------------|
D|---------------------------------|---------------------------------|---------------------------------|
A|-------------------------5---4---|-3---3---2---1---------------5---|-------------------------5---4---|
E|-0---0---3---4---5---5-----------|-----------------3---3---5-------|-0---0---3---4---5---5-----------|


G|---------------------------------|---------------------------------|---------------------------------|
D|---------------------------------|---------------------------------|---------------------------------|
A|-3---3---2---1---------------7---|-------------------------5---4---|-3---3---2---1---------------5---|
E|-----------------5---5---7-------|-0---0---3---4---5---5-----------|-----------------3---3---5-------|


G|---------------------------------|---------------------------------|---------------------------------|
D|---------------------------------|---------------------------------|---------------------------------|
A|-------------------------5---4---|-3---3---2---1---------------7---|-------------------------5---4---|
E|-0---0---3---4---5---5-----------|-----------------5---5---7-------|-0---0---3---4---5---5-----------|


G|---------------------------------|---------------------------------|---------------------------------|
D|---------------------------------|---------------------------------|---------------------------------|
A|-3---3---2---1---------------5---|-------------------------5---4---|-3---3---2---1---------------5---|
E|-----------------3---3---5-------|-0---0---3---4---5---5-----------|-----------------3---3---5-------|


G|---------------------------------|---------------------------------|---------------------------------|
D|---------------------------------|---------------------------------|---------------------------------|
A|-------------------------5---4---|-3---3---2---1---------------7---|-------------------------5---4---|
E|-0---0---3---4---5---5-----------|-----------------5---5---7-------|-0---0---3---4---5---5-----------|


G|---------------------------------|---------------------------------|---------------------------------|
D|---------------------------------|---------------------------------|---------------------------------|
A|-3---3---2---1---------------5---|-------------------------5---4---|-3---3---2---1-------7-------3---|
E|-----------------3---3---5-------|-0---0---3---4---5---5-----------|-----------------7-------5-------|


G|--------------------------------|--------------------------------|---------------------------------|
D|--------------------------------|------------------------5-------|---------------------------------|
A|-3---3---3----3---------3---0---|-0---0---0----0---5--7------5---|-7---7-------7---7---7-------7---|
E|------------------3--5----------|--------------------------------|---------------------------------|


G|---------------------------------|-----------------------------|--------------------------------|
D|---------------------------------|-----------------------------|--------------------------------|
A|-7---7---7-------7-------7---5---|-3----3----3---------3---5---|-5---5---5----5---------5-------|
E|--------------7------7-----------|---------------3--5----------|------------------5--7------7---|


G|---------------------------------|------------------------------|---------------------------------|
D|---------------------------------|------------------------------|---------------------------------|
A|-7---7-------7---7---7-------7---|-7---7---7-------7-------10---|-------------------------5---4---|
E|---------------------------------|--------------7------7--------|-0---0---3---4---5---5-----------|


G|---------------------------------|---------------------------------|---------------------------------|
D|---------------------------------|---------------------------------|---------------------------------|
A|-3---3---2---1---------------5---|-------------------------5---4---|-3---3---2---1---------------7---|
E|-----------------3---3---5-------|-0---0---3---4---5---5-----------|-----------------5---5---7-------|


G|---------------------------------|---------------------------------|---------------------------------|
D|---------------------------------|---------------------------------|---------------------------------|
A|-------------------------5---4---|-3---3---2---1---------------5---|-------------------------5---4---|
E|-0---0---3---4---5---5-----------|-----------------3---3---5-------|-0---0---3---4---5---5-----------|


G|---------------------------------|---------------------------------|---------------------------------|
D|---------------------------------|---------------------------------|---------------------------------|
A|-3---3---2---1---------------7---|-------------------------5---4---|-3---3---2---1---------------5---|
E|-----------------5---5---7-------|-0---0---3---4---5---5-----------|-----------------3---3---5-------|


G|---------------------------------|---------------------------------|---------------------------------|
D|---------------------------------|---------------------------------|---------------------------------|
A|-------------------------5---4---|-3---3---2---1---------------7---|-------------------------5---4---|
E|-0---0---3---4---5---5-----------|-----------------5---5---7-------|-0---0---3---4---5---5-----------|


G|---------------------------------|---------------------------------|---------------------------------|
D|---------------------------------|---------------------------------|---------------------------------|
A|-3---3---2---1---------------5---|-------------------------5---4---|-3---3---2---1-------7-------3---|
E|-----------------3---3---5-------|-0---0---3---4---5---5-----------|-----------------7-------5-------|


G|--------------------------------|--------------------------------|---------------------------------|
D|--------------------------------|------------------------5-------|---------------------------------|
A|-3---3---3----3---------3---0---|-0---0---0----0---5--7------5---|-7---7-------7---7---7-------7---|
E|------------------3--5----------|--------------------------------|---------------------------------|


G|---------------------------------|-----------------------------|--------------------------------|
D|---------------------------------|-----------------------------|--------------------------------|
A|-7---7---7-------7-------7---5---|-3----3----3---------3---5---|-5---5---5----5---------5-------|
E|--------------7------7-----------|---------------3--5----------|------------------5--7------7---|


G|---------------------------------|------------------------------|------------------------------|
D|---------------------------------|------------------------------|------------------6---9---10--|
A|-7---7-------7---7---7-------7---|-7---7---7-------7-------14---|-7----7-------7---------------|
E|---------------------------------|--------------7------7--------|-----------7------------------|


G|------------------------------|------------------------------|---------------------------------|
D|-10--10--10------10--10-------|------------------6---9---10--|-10--10--10------10--10----------|
A|--------------10---------10---|-7----7-------7---------------|--------------10---------10--11--|
E|------------------------------|-----------7------------------|---------------------------------|


G|------------------------------|---------------------------|------------------------------|
D|------------------------------|---------------------------|------------------6---9---10--|
A|-12---12------12--12--12--17--|-17--17--17--12---12--12---|-7----7-------7---------------|
E|-----------12-----------------|---------------------------|-----------7------------------|


G|------------------------------|------------------------------|---------------------------------|
D|-10--10--10------10--10-------|------------------6---9---10--|-10--10--10------10--10----------|
A|--------------10---------10---|-7----7-------7---------------|--------------10---------10--11--|
E|------------------------------|-----------7------------------|---------------------------------|


G|------------------------------|---------------------------|---------------------------|
D|------------------------------|---------------------------|------14-----------14--14--|
A|-12---12------12--12--12--17--|-17--17--17--12---12--12---|---------------------------|
E|-----------12-----------------|---------------------------|-12--------12--12----------|


G|------------------------------|---------------------------------|---------------------------------|
D|------------------------------|---------------------------------|---------------------------------|
A|-------------------------15---|-------------------------5---4---|-3---3---2---1---------------5---|
E|-12--12--12--12--12--12-------|-0---0---3---4---5---5-----------|-----------------3---3---5-------|


G|---------------------------------|---------------------------------|---------------------------------|
D|---------------------------------|---------------------------------|---------------------------------|
A|-------------------------5---4---|-3---3---2---1---------------7---|-------------------------5---4---|
E|-0---0---3---4---5---5-----------|-----------------5---5---7-------|-0---0---3---4---5---5-----------|


G|---------------------------------|---------------------------------|---------------------------------|
D|---------------------------------|---------------------------------|---------------------------------|
A|-3---3---2---1---------------5---|-------------------------5---4---|-3---3---2---1-------7-------3---|
E|-----------------3---3---5-------|-0---0---3---4---5---5-----------|-----------------7-------5-------|


G|--------------------------------|--------------------------------|---------------------------------|
D|--------------------------------|------------------------5-------|---------------------------------|
A|-3---3---3----3---------3---0---|-0---0---0----0---5--7------5---|-7---7-------7---7---7-------7---|
E|------------------3--5----------|--------------------------------|---------------------------------|


G|---------------------------------|-----------------------------|--------------------------------|
D|---------------------------------|-----------------------------|--------------------------------|
A|-7---7---7-------7-------7---5---|-3----3----3---------3---5---|-5---5---5----5---------5-------|
E|--------------7------7-----------|---------------3--5----------|------------------5--7------7---|


G|---------------------------------|------------------------------|------------------------------|
D|---------------------------------|------------------------------|------------------6---9---10--|
A|-7---7-------7---7---7-------7---|-7---7---7-------7-------14---|-7----7-------7---------------|
E|---------------------------------|--------------7------7--------|-----------7------------------|


G|------------------------------|------------------------------|---------------------------------|
D|-10--10--10------10--10-------|------------------6---9---10--|-10--10--10------10--10----------|
A|--------------10---------10---|-7----7-------7---------------|--------------10---------10--11--|
E|------------------------------|-----------7------------------|---------------------------------|


G|------------------------------|---------------------------|------------------------------|
D|------------------------------|---------------------------|------------------6---9---10--|
A|-12---12------12--12--12--17--|-17--17--17--12---12--12---|-7----7-------7---------------|
E|-----------12-----------------|---------------------------|-----------7------------------|


G|------------------------------|------------------------------|---------------------------------|
D|-10--10--10------10--10-------|------------------6---9---10--|-10--10--10------10--10----------|
A|--------------10---------10---|-7----7-------7---------------|--------------10---------10--11--|
E|------------------------------|-----------7------------------|---------------------------------|


G|------------------------------|---------------------------|---------------------------|
D|------------------------------|---------------------------|------14-----------14--14--|
A|-12---12------12--12--12--17--|-17--17--17--12---12--12---|---------------------------|
E|-----------12-----------------|---------------------------|-12--------12--12----------|


G|------------------------------|---------------------------------|---------------------------------|
D|-14--14--14--14--14--14-------|---------------------------------|---------------------------------|
A|------------------------------|-------------------------5---4---|-3---3---2---1---------------5---|
E|-------------------------15---|-0---0---3---4---5---5-----------|-----------------3---3---5-------|


G|---------------------------------|---------------------------------|---------------------------------|
D|---------------------------------|---------------------------------|---------------------------------|
A|-------------------------5---4---|-3---3---2---1---------------7---|-------------------------5---4---|
E|-0---0---3---4---5---5-----------|-----------------5---5---7-------|-0---0---3---4---5---5-----------|


G|---------------------------------|---------------------------------|----------------|
D|---------------------------------|---------------------------------|----------------|
A|-3---3---2---1---------------5---|-------------------------5---4---|-3---3----------|
E|-----------------3---3---5-------|-0---0---3---4---5---5-----------|----------------|