Menu:

 

Search:

 

stone temple pilots - army ants:

 



Title: Army Ants
Artist: 
Album: Purple
Author: D. Deleo


Track 1: Guitar 1 with Phase Shifter

E|--------12--|---------12--12-12-12-12-----12-12-12-12-|-12------12--12-12-12-12-12--12-12-12-14-|
B|--------15--|---------15--15-15-15-15-----15-15-15-15-|-15------15-----15-15-15-15--15-15-15-17-|
G|--------14--|---------14--14-14-14-14-----14-14-14-13-|-13------13-----13-13-13-13--13-13-13-17-|
D|------------|-0---0---0---0--0--0--0--0---0--0--0--0--|-0---0---0------0--0--0--0---0--0--0--0--|
A|------------|-----------------------------------------|-----------------------------------------|
E|------------|-----------------------------------------|-----------------------------------------|


E|-14------14--14-14----14-14--14--14-12-|-12------12-----12-12-12-12--12-12-12-12-|
B|-17------17--17-17----17-17--17--17-15-|-15------15-----15-15-15-15--15-15-15-15-|
G|-17------17--17-17----16-16--16--16-15-|-15------15-----15-15-15-15--15-15-15-14-|
D|-0---0---0---0--0--0--0--0---0---0--0--|-0---0-------0-----0--0--0---0--0--0--0--|
A|---------------------------------------|-----------------------------------------|
E|---------------------------------------|-----------------------------------------|


E|-12--12--12--12-12-12-12-12--12-12-12-12-|-12--12--12--12-12-12-12-12-12-12-12-12-14-|
B|-15--15--15--15-15-15-15-15--15-15-15-15-|-15--15--15--15-15-15-15-15-15-15-15-15-17-|
G|-14--14--14--14-14-14-14-14--14-14-14-13-|-13--13--13--13-13-13-13-13-13-13-13-13-17-|
D|-0---0---0---0--0--0--0--0---0--0--0--0--|-0---0---0---0--0--0--0--0--0--0--0--0--0--|
A|-----------------------------------------|-------------------------------------------|
E|-----------------------------------------|-------------------------------------------|


E|-14--14--14--14-14-14-14-14--14--14-12-|-12------12--12-12-12-12-12--12--12-12-|
B|-17--17--17--17-17-17-17-17--17--17-15-|-15------15--15-15-15-15-15--15--15-15-|
G|-17--17--17--17-17-17-16-16--16--16-15-|-15------15--15-15-15-15-15--15--14-14-|
D|-0---0---0---0--0-----0------0---0--0--|-0---0---0---0--0--0--0--0---0---0--0--|
A|---------------------------------------|---------------------------------------|
E|---------------------------------------|---------------------------------------|


E|-12-----|-12-----|--------|--------|--------|--------|--------|--------|--------|
B|-15-----|-15-----|--------|--------|--------|--------|--------|--------|--------|
G|-14-----|-14-----|--------|--------|--------|--------|--------|--------|--------|
D|-0------|-0------|--------|--------|--------|--------|--------|--------|--------|
A|--------|--------|--------|--------|--------|--------|--------|--------|--------|
E|--------|--------|--------|--------|--------|--------|--------|--------|--------|


E|--------|--------|--------|--------|--------|--------|--------|--------|--------|
B|--------|--------|--------|--------|--------|--------|--------|--------|--------|
G|--------|--------|--------|--------|--------|--------|--------|--------|--------|
D|--------|--------|--------|--------|--------|--------|--------|--------|--------|
A|--------|--------|--------|--------|--------|--------|--------|--------|--------|
E|--------|--------|--------|--------|--------|--------|--------|--------|--------|


E|--------|--------|--------|--------|--------|--------|--------|--------|--------|
B|--------|--------|--------|--------|--------|--------|--------|--------|--------|
G|--------|--------|--------|--------|--------|--------|--------|--------|--------|
D|--------|--------|--------|--------|--------|--------|--------|--------|--------|
A|--------|--------|--------|--------|--------|--------|--------|--------|--------|
E|--------|--------|--------|--------|--------|--------|--------|--------|--------|


E|--------|--------|--------|--------|--------|--------|--------|--------|--------|
B|--------|--------|--------|--------|--------|--------|--------|--------|--------|
G|--------|--------|--------|--------|--------|--------|--------|--------|--------|
D|--------|--------|--------|--------|--------|--------|--------|--------|--------|
A|--------|--------|--------|--------|--------|--------|--------|--------|--------|
E|--------|--------|--------|--------|--------|--------|--------|--------|--------|


E|--------|--------|--------|--------|--------|--------|--------|--------|--------|
B|--------|--------|--------|--------|--------|--------|--------|--------|--------|
G|--------|--------|--------|--------|--------|--------|--------|--------|--------|
D|--------|--------|--------|--------|--------|--------|--------|--------|--------|
A|--------|--------|--------|--------|--------|--------|--------|--------|--------|
E|--------|--------|--------|--------|--------|--------|--------|--------|--------|


E|-12---12---12-12-12-12--12--12-12-|-12---12---12-12-12-12--12--12-14-|-14--14--14--14-14-14-14-14--14--14-14-|
B|-15---15---15-15-15-15--15--15-15-|-15---15---15-15-15-15--15--15-17-|-17--17--17--17-17-17-15-15--15--15-15-|
G|-14---14---14-14-14-14--14--14-3--|-13---13---13-13-13-13--13--13-17-|-17--17--17--17-17-17-16-16--16--16-16-|
D|-0----0----0--0--0--0---0---0--0--|-0----0----0--0--0--0---0---0--0--|-0---0---0---0--0--0--0--0---0---0--0--|
A|----------------------------------|----------------------------------|---------------------------------------|
E|----------------------------------|----------------------------------|---------------------------------------|


E|-12--12--12--12-12-12-12-12--12-12-12-12-|-12---12---12-12-12-12--12--12-12-|-12---12---12-12-12-12--12--12-14-|
B|-15--15--15--15-15-15-15-15--15-15-15-15-|-15---15---15-15-15-15--15--15-15-|-15---15---15-15-15-15--15--15-17-|
G|-15--15--15--15-15-15-15-15--15-15-15-14-|-14---14---14-14-14-14--14--14-13-|-13---13---13-13-13-13--13--13-17-|
D|-0---0---0---0--0--0--0--0---0--0--0--0--|-0----0----0--0--0--0---0---0--0--|-0----0----0--0--0--0---0---0--0--|
A|-----------------------------------------|----------------------------------|----------------------------------|
E|-----------------------------------------|----------------------------------|----------------------------------|


E|-14---14--14-14----14-14--14--14-14-|-12---12--12-12-12-12-12--12-12-12-12-|-12-----|
B|-17---17--17-17----17-17--17--17-17-|-15---15--15-15-15-15-15--15-15-15-15-|-15-----|
G|-17---17--17-17----16-16--16--16-16-|-15---15--15-15-15-15-15--15-15-15-15-|-14-----|
D|-0----0---0--0-----0--0---0---0--0--|-0----0---0--0--0--0--0---0--0--0--0--|-0------|
A|------------------------------------|--------------------------------------|--------|
E|------------------------------------|--------------------------------------|--------|


E|-12-----|--------|--------|--------|--------|--------|--------|--------|--------|
B|-15-----|--------|--------|--------|--------|--------|--------|--------|--------|
G|-14-----|--------|--------|--------|--------|--------|--------|--------|--------|
D|-0------|--------|--------|--------|--------|--------|--------|--------|--------|
A|--------|--------|--------|--------|--------|--------|--------|--------|--------|
E|--------|--------|--------|--------|--------|--------|--------|--------|--------|


E|--------|--------|--------|--------|--------|--------|--------|--------|--------|
B|--------|--------|--------|--------|--------|--------|--------|--------|--------|
G|--------|--------|--------|--------|--------|--------|--------|--------|--------|
D|--------|--------|--------|--------|--------|--------|--------|--------|--------|
A|--------|--------|--------|--------|--------|--------|--------|--------|--------|
E|--------|--------|--------|--------|--------|--------|--------|--------|--------|


E|--------|--------|--------|--------|--------|--------|--------|--------|
B|--------|--------|--------|--------|--------|--------|--------|--------|
G|--------|--------|--------|--------|--------|--------|--------|--------|
D|--------|--------|--------|--------|--------|--------|--------|--------|
A|--------|--------|--------|--------|--------|--------|--------|--------|
E|--------|--------|--------|--------|--------|--------|--------|--------|





Track 2: Dist. Guitar 1

E|--------|--------|--------|--------|--------|--------|--------|--------|--------|
B|--------|--------|--------|--------|--------|--------|--------|--------|--------|
G|--------|--------|--------|--------|--------|--------|--------|--------|--------|
D|--------|--------|--------|--------|--------|--------|--------|--------|--------|
A|--------|--------|--------|--------|--------|--------|--------|--------|--------|
E|--------|--------|--------|--------|--------|--------|--------|--------|--------|


E|--------|--------|-----------------------------------------------|-----------------------------------------------|
B|--------|--------|-----------------------------------------------|-----------------------------------------------|
G|--------|--------|-5--7--7--7--7---7--7--------------------------|-9--10-10-10-10--10-10-------------------------|
D|--------|--------|-5--7--7--7--7---7--7--7--7--7--7--9--9--9--9--|-9--10-10-10-10--10-10-10-10-10-10-10-10-10-10-|
A|--------|--------|-3--5--5--5--5---5--5--7--7--7--7--9--9--9--9--|-7--8--8--8--8---8--8--10-10-10-10-10-10-10-10-|
E|--------|--------|-----------------------5--5--5--5--7--7--7--7--|-7--8--8--8--8---8--8--8--8--8--8--8--8--8--8--|


E|-----------------------------------------------|-----------------------------------------------|
B|-----------------------------------------------|-----------------------------------------------|
G|-5--7--7--7--7---7--7--------------------------|-9--10-10-10-10--10-10-------------------------|
D|-5--7--7--7--7---7--7--7--7--7--7--9--9--9--9--|-9--10-10-10-10--10-10-10-10-10-10-10-10-10-10-|
A|-3--5--5--5--5---5--5--7--7--7--7--9--9--9--9--|-7--8--8--8--8---8--8--10-10-10-10-10-10-10-10-|
E|-----------------------5--5--5--5--7--7--7--7--|-7--8--8--8--8---8--8--8--8--8--8--8--8--8--8--|


E|-----------------------------------------------|-----------------------------------------------|
B|-----------------------------------------------|-----------------------------------------------|
G|-5--7--7--7--7---7--7--------------------------|-9--10-10-10-10--10-10-------------------------|
D|-5--7--7--7--7---7--7--7--7--7--7--9--9--9--9--|-9--10-10-10-10--10-10-10-10-10-10-10-10-10-10-|
A|-3--5--5--5--5---5--5--7--7--7--7--9--9--9--9--|-7--8--8--8--8---8--8--10-10-10-10-10-10-10-10-|
E|-----------------------5--5--5--5--7--7--7--7--|-7--8--8--8--8---8--8--8--8--8--8--8--8--8--8--|


E|-----------------------------------------------|-----------------------------------------------|
B|-----------------------------------------------|-----------------------------------------------|
G|-5--7--7--7--7---7--7--------------------------|-9--10-10-10-10--10-10-------------------------|
D|-5--7--7--7--7---7--7--7--7--7--7--9--9--9--9--|-9--10-10-10-10--10-10-10-10-10-10-10-10-10-10-|
A|-3--5--5--5--5---5--5--7--7--7--7--9--9--9--9--|-7--8--8--8--8---8--8--10-10-10-10-10-10-10-10-|
E|-----------------------5--5--5--5--7--7--7--7--|-7--8--8--8--8---8--8--8--8--8--8--8--8--8--8--|


E|-------------------------------------------------|-------------------------------------------------|
B|-------------------------------------------------|-------------------------------------------------|
G|-------------------------------------------------|-------------------------------------------------|
D|-7--7--7--7--7--7--5--5--5--5--5--5--5--5--5--5--|-7--7--7--7--7--7--5--5--5--5--5--5--5--5--5--5--|
A|-0--0--0--0--0--0--0--0--0--0--0--0--0--0--0--0--|-0--0--0--0--0--0--0--0--0--0--0--0--0--0--0--0--|
E|-------------------------------------------------|-------------------------------------------------|


E|-------------------------------------------------|-------------------------------------------------|
B|-------------------------------------------------|-------------------------------------------------|
G|-------------------------------------------------|----------------------------------5--5--5--5--5--|
D|-7--7--7--7--7--7--5--5--5--5--5--5--5--5--5--5--|-7--7--7--7--7--7--5--5--5--5--5--5--5--5--5--5--|
A|-0--0--0--0--0--0--0--0--0--0--0--0--0--0--0--0--|-0--0--0--0--0--0--0--0--0--0--0--0--0--0--0--0--|
E|-------------------------------------------------|----------------------------------0--0--0--0--0--|


E|---------------------------------------------|---------------------------------------------|
B|-2--2--2--2--2--2--2--2--2--2----2--2--2--2--|-2--2--2--2--2--2--2--2--2--2----2--2--2--2--|
G|-2--2--2--2--2--2--2--2--2--2----2--2--2--2--|-2--2--2--2--2--2--2--2--2--2----2--2--2--2--|
D|-2--2--2--2--2--2--2--2--2--2----2--2--2--2--|-2--2--2--2--2--2--2--2--2--2----2--2--2--2--|
A|-0--0--0--0--0--0--0--0--0--0----0--0--0--0--|-0--0--0--0--0--0--0--0--0--0----0--0--0--0--|
E|---------------------------------------------|---------------------------------------------|


E|--------------------------------5------------|-----------------------------------------------|
B|-2---2--2--2--2--2--2--2--2--2--5---2--2--2--|-2--2--2--2--2--2--2--2--2--2--2---2--2--2--2--|
G|-2---2--2--2--2--2--2--2--2--2------2--2--2--|-2--2--2--2--2--2--2--2--2--2--2---2--2--2--2--|
D|-2---2--2--2--2--2--2--2--2--2------2--2--2--|-2--2--2--2--2--2--2--2--2--2--2---2--2--2--2--|
A|-0---0--0--0--0--0--0--0--0--0------0--0--0--|-0--0--0--0--0--0--0--0--0--0--0---0--0--0--0--|
E|---------------------------------------------|-----------------------------------------------|


E|-------------------------------------------------|-------------------------------------------------|
B|-------------------------------------------------|-------------------------------------------------|
G|-7--7--7--7--7--7--7--7--------------------------|-9--10-10-10-10-10-10-10-------------------------|
D|-7--7--7--7--7--7--7--7--7--7--7--7--9--9--9--9--|-9--10-10-10-10-10-10-10-10-10-10-10-10-10-10-10-|
A|-5--5--5--5--5--5--5--5--7--7--7--7--9--9--9--9--|-7--8--8--8--8--8--8--8--10-10-10-10-10-10-10-10-|
E|-5--5--5--5--5--5--5--5--5--5--5--5--7--7--7--7--|-7--8--8--8--8--8--8--8--8--8--8--8--8--8--8--8--|


E|-------------------------------------------------|-------------------------------------------------|
B|-------------------------------------------------|-------------------------------------------------|
G|-7--7--7--7--7--7--7--7--------------------------|-9--10-10-10-10-10-10-10-------------------------|
D|-7--7--7--7--7--7--7--7--7--7--7--7--9--9--9--9--|-9--10-10-10-10-10-10-10-10-10-10-10-10-10-10-10-|
A|-5--5--5--5--5--5--5--5--7--7--7--7--9--9--9--9--|-7--8--8--8--8--8--8--8--10-10-10-10-10-10-10-10-|
E|-5--5--5--5--5--5--5--5--5--5--5--5--7--7--7--7--|-7--8--8--8--8--8--8--8--8--8--8--8--8--8--8--8--|


E|-------------------------------------------------|-------------------------------------------------|
B|-------------------------------------------------|-------------------------------------------------|
G|-7--7--7--7--7--7--7--7--------------------------|-10-10-10-10-10-10-10-10-9--9--9--9--9--9--9--9--|
D|-7--7--7--7--7--7--7--7--7--7--7--7--9--9--9--9--|-10-10-10-10-10-10-10-10-10-10-10-10-10-10-10-10-|
A|-5--5--5--5--5--5--5--5--7--7--7--7--9--9--9--9--|-8--8--8--8--8--8--8--8--10-10-10-10-10-10-10-10-|
E|-5--5--5--5--5--5--5--5--5--5--5--5--7--7--7--7--|-8--8--8--8--8--8--8--8--8--8--8--8--8--8--8--8--|


E|-------------------------------------------------|-------------------------------------------------|
B|-------------------------------------------------|-------------------------------------------------|
G|-7--7--7--7--7--7--7--7--------------------------|-10-10-10-10-10-10-10-10-9--9--9--9--9--9--9--9--|
D|-7--7--7--7--7--7--7--7--7--7--7--7--9--9--9--9--|-10-10-10-10-10-10-10-10-10-10-10-10-10-10-10-10-|
A|-5--5--5--5--5--5--5--5--7--7--7--7--9--9--9--9--|-8--8--8--8--8--8--8--8--10-10-10-10-10-10-10-10-|
E|-5--5--5--5--5--5--5--5--5--5--5--5--7--7--7--7--|-8--8--8--8--8--8--8--8--8--8--8--8--8--8--8--8--|


E|-------------------------------------------|-------------------------------------------|
B|-2---2--2--2--2---------2---2--2--2--2--2--|-2---2--2--2--2---------2---2--2--2--2--2--|
G|-2---2--2--2--2--0---0--0---0--0--0--0--0--|-2---2--2--2--2--0---0--0---0--0--0--0--0--|
D|-2---2--2--2--2---------2---2--2--2--2--2--|-2---2--2--2--2---------2---2--2--2--2--2--|
A|-0---0--0--0--0---------0---0--0--0--0--0--|-0---0--0--0--0---------0---0--0--0--0--0--|
E|-------------------------------------------|-------------------------------------------|


E|-------------------------------------------|-----------------------------------------|
B|-2---2--2--2--2--0---0--0---0--0--0--0--0--|-2---2--2--2--2---0--0--0----------------|
G|-2---2--2--2--2--0---0--0---0--0--0--0--0--|-2---2--2--2--2---0--0--0----0--0--0--0--|
D|-2---2--2--2--2------2--2---2--2--2--2--2--|-2---2--2--2--2---2--2--2----0--0--0--0--|
A|-0---0--0--0--0------0--0---0--0--0--0--0--|-0---0--0--0--0---0--0--0----0--0--0--0--|
E|-------------------------------------------|-----------------------------0--0--0--0--|


E|-----------------------------------------------|-----------------------------------------------|
B|-0--2--2--2--2--2--2--2--2--2---2--2--2--2--2--|-0--2--2--2--2--2--2--2--2--2---2--2--2--2--2--|
G|-2-----2--2--2--2--2--2--2--2---2--2--2--2--2--|-2-----2--2--2--2--2--2--2--2---2--2--2--2--2--|
D|-2-----2--2--2--2--2--2--2--2---2--2--2--2--2--|-2-----2--2--2--2--2--2--2--2---2--2--2--2--2--|
A|-0-----0--0--0--0--0--0--0--0---0--0--0--0--0--|-0-----0--0--0--0--0--0--0--0---0--0--0--0--0--|
E|-----------------------------------------------|-----------------------------------------------|


E|-----------------------------------------------|-----------------------------------------------|
B|-0--2--2--2--2--2--2--2--2--2---2--2--2--2--2--|-0--2--2--2--2--2--2--2--2--2---2--2--2--2--2--|
G|-2-----2--2--2--2--2--2--2--2---2--2--2--2--2--|-2-----2--2--2--2--2--2--2--2---2--2--2--2--2--|
D|-2-----2--2--2--2--2--2--2--2---2--2--2--2--2--|-2-----2--2--2--2--2--2--2--2---2--2--2--2--2--|
A|-0-----0--0--0--0--0--0--0--0---0--0--0--0--0--|-0-----0--0--0--0--0--0--0--0---0--0--0--0--0--|
E|-----------------------------------------------|-----------------------------------------------|


E|-----------------------------------------------|-----------------------------------------------|
B|-----------------------------------------------|-----------------------------------------------|
G|-5--7--7--7--7---7--7--------------------------|-9--10-10-10-10--10-10-------------------------|
D|-5--7--7--7--7---7--7--7--7--7--7--9--9--9--9--|-9--10-10-10-10--10-10-10-10-10-10-10-10-10-10-|
A|-3--5--5--5--5---5--5--7--7--7--7--9--9--9--9--|-7--8--8--8--8---8--8--10-10-10-10-10-10-10-10-|
E|-----------------------5--5--5--5--7--7--7--7--|-7--8--8--8--8---8--8--8--8--8--8--8--8--8--8--|


E|-----------------------------------------------|-----------------------------------------------|
B|-----------------------------------------------|-----------------------------------------------|
G|-7---7--7--7--7--7--7--------------------------|-9--10-10-10-10--10-10-------------------------|
D|-7---7--7--7--7--7--7--7--7--7--7--9--9--9--9--|-9--10-10-10-10--10-10-10-10-10-10-10-10-10-10-|
A|-5---5--5--5--5--5--5--7--7--7--7--9--9--9--9--|-7--8--8--8--8---8--8--10-10-10-10-10-10-10-10-|
E|-5---5--5--5--5--5--5--5--5--5--5--7--7--7--7--|-7--8--8--8--8---8--8--8--8--8--8--8--8--8--8--|


E|-------------------------------------------------|---------------------------------------------|
B|-------------------------------------------------|---------------------------------------------|
G|-7--7--7--7--7--7--7--------------------------9--|-10--10-10-10--10-10-9--9--9--9--9--9--9--9--|
D|-7--7--7--7--7--7--7--7--7--7--7--9--9--9--9--9--|-10--10-10-10--10-10-10-10-10-10-10-10-10-10-|
A|-5--5--5--5--5--5--5--7--7--7--7--9--9--9--9--7--|-8---8--8--8---8--8--10-10-10-10-10-10-10-10-|
E|-5--5--5--5--5--5--5--5--5--5--5--7--7--7--7--7--|-8---8--8--8---8--8--8--8--8--8--8--8--8--8--|


E|-------------------------------------------------|---------------------------------------------|
B|-------------------------------------------------|---------------------------------------------|
G|-7--7--7--7--7--7--7--------------------------9--|-10-10-10-10--10-10-9--9--9--9--9--9--9--9---|
D|-7--7--7--7--7--7--7--7--7--7--7--9--9--9--9--9--|-10-10-10-10--10-10-10-10-10-10-10-10-10-10--|
A|-5--5--5--5--5--5--5--7--7--7--7--9--9--9--9--7--|-8--8--8--8---8--8--10-10-10-10-10-10-10-10--|
E|-5--5--5--5--5--5--5--5--5--5--5--7--7--7--7--7--|-8--8--8--8---8--8--8--8--8--8--8--8--8--8---|


E|-6--6--6--6--------------------------|-5--5--5--5--5--5-----5-----5-----5--5--5--5--5--|
B|-6--6--6--6------2---2---2---2---2---|-5--5--5--5--5--5-----5-----5-----5--5--5--5--5--|
G|-8--8--8--8------3---3---3---3---3---|-7--7--7--7--7--7-----7-----7-----7--7--7--7--7--|
D|-8--8--8--8------2---2---2---2---2---|-7--7--7--7--7--7-----7-----7-----7--7--7--7--7--|
A|-6--6--6--6------0---0---0---0---0---|-5--5--5--5--5--5-----5-----5-----5--5--5--5--5--|
E|-------------------------------------|-------------------------------------------------|


E|-6--6--6--6----------------------------------|--------|--------|--------|--------|
B|-6--6--6--6--0--0--2---2--2--2--2--2---2--3--|--------|--------|--------|--------|
G|-8--8--8--8--0--0--2---2--2--2--2--2---2--2--|--------|--------|--------|--------|
D|-8--8--8--8--0--0--3---3--3--3--3--3---3--3--|--------|--------|--------|--------|
A|-6--6--6--6--0--0--0---0--0--0--0--0---0--0--|--------|--------|--------|--------|
E|-------------0--0----------------------------|--------|--------|--------|--------|


E|--------|--------|--------|--------|--------|--------|------------------------------|
B|--------|--------|--------|--------|--------|--------|------------------------------|
G|--------|--------|--------|--------|--------|--------|-14---13--14--14--13--13--14--|
D|--------|--------|--------|--------|--------|--------|------------------------------|
A|--------|--------|--------|--------|--------|--------|------------------------------|
E|--------|--------|--------|--------|--------|--------|------------------------------|


E|-----------------------------|---------------------------------------------------|
B|----13-----------------------|---------------------------------------------------|
G|-14-----12--12-10---9---9----|-5--7--5--4--------------0-2--0--------------------|
D|-----------------------------|-------------7--5--3--2---------3--2--5-6--5-2--0--|
A|-----------------------------|---------------------------------------------------|
E|-----------------------------|---------------------------------------------------|


E|--------------------------|------------------------------------------|--------------10-12-13-12-10-----------------------|
B|--------------------------|-1213121012--12--1213121012---1213121012--|-12--10-12-13----------------13-12-10--------------|
G|--------------------------|------------------------------------------|-------------------------------------14131210--1012|
D|----------3--5--5---------|------------------------------------------|---------------------------------------------12----|
A|-3----3-------------------|------------------------------------------|---------------------------------------------------|
E|--------------------------|------------------------------------------|---------------------------------------------------|


E|-----------------------------------------------|---------------------------------|
B|-----------------------------------------------|-0--1--3--0--1-------------------|
G|-10--------------------1--1--1--1--1--1--1-----|----------------2------2---------|
D|-----12-10-------------1--1--1--1--1--1--1--3--|--------------------3------------|
A|-----------12-12-12-12-1--1--1--1--1--1--1-----|---------------------------------|
E|-----------------------1--1--1--1--1--1--1-----|---------------------------------|


E|--------|---------------------|-----------------|---------------------------------------------|
B|--------|-3----3----3----3----|-----------------|-----------13-------13-------13--------------|
G|--------|-2----2----2----2----|-2---------------|-----12-14----12-14----12-14----14-12--------|
D|--------|-0----0----0----0----|-----------------|--------------------------------------15-12--|
A|--------|-0----0----0----0----|-----------------|---------------------------------------------|
E|--------|---------------------|-----------------|---------------------------------------------|


E|-----------------|--------|-------------------------------------------------|-------------------------------------------------|
B|-----------------|--------|-------------------------------------------------|-------------------------------------------------|
G|-----------------|--------|-7--7--7--7--7--7--6--6--6--6--6--6--6--6--6--6--|-7--7--7--7--7--7--6--6--6--6--6--6--6--6--6--6--|
D|-12--------------|--------|-5--5--5--5--5--5--5--5--5--5--5--5--5--5--5--5--|-5--5--5--5--5--5--5--5--5--5--5--5--5--5--5--5--|
A|-----------------|--------|-0--0--0--0--0--0--0--0--0--0--0--0--0--0--0--0--|-0--0--0--0--0--0--0--0--0--0--0--0--0--0--0--0--|
E|-----------------|--------|-------------------------------------------------|-------------------------------------------------|


E|-------------------------------------------------|-----------------------------------------------|
B|-------------------------------------------------|-2--2--2--2--2--2------------------------------|
G|-7--7--7--7--7--7--6--6--6--6--6--6--6--6--6--6--|-2--2--2--2--2--2---------6--6--6--6--6--6--6--|
D|-5--5--5--5--5--5--5--5--5--5--5--5--5--5--5--5--|-2--2--2--2--2--2--5---5--5--5--5--5--5--5--5--|
A|-0--0--0--0--0--0--0--0--0--0--0--0--0--0--0--0--|-0--0--0--0--0--0--0---0--0--0--0--0--0--0--0--|
E|-------------------------------------------------|--------------------------------------0--0--0--|


E|-------------------------------------------------|-------------------------------------------------|
B|-------------------------------------------------|-------------------------------------------------|
G|-4--6--6--6--6--6--6--6--6--6--6--6--6--6--6--6--|-6--6--6--6--6--6--6--6--6--6--6--6--6--6--6--6--|
D|-5--7--7--7--7--7--7--7--7--7--7--7--7--7--7--7--|-7--7--7--7--7--7--7--7--7--7--7--7--7--7--7--7--|
A|-5--7--7--7--7--7--7--7--7--7--7--7--7--7--7--7--|-7--7--7--7--7--7--7--7--7--7--7--7--7--7--7--7--|
E|-3--5--5--5--5--5--5--5--5--5--5--5--5--5--5--5--|-5--5--5--5--5--5--5--5--5--5--5--5--5--5--5--5--|


E|-------------------------------------------------|-------------------------------------------------|
B|-------------------------------------------------|-------------------------------------------------|
G|-6--6--6--6--6--6--6--6--6--6--6--6--6--6--6--6--|-6--6--6--6--6--6--6--6--6--6--6--6--6--6--6--6--|
D|-7--7--7--7--7--7--7--7--7--7--7--7--7--7--7--7--|-7--7--7--7--7--7--7--7--7--7--7--7--7--7--7--7--|
A|-7--7--7--7--7--7--7--7--7--7--7--7--7--7--7--7--|-7--7--7--7--7--7--7--7--7--7--7--7--7--7--7--7--|
E|-5--5--5--5--5--5--5--5--5--5--5--5--5--5--5--5--|-5--5--5--5--5--5--5--5--5--5--5--5--5--5--5--5--|


E|-5----5------5---5--5------5--5--5--5--|-5--5--5--5-----5--5--5--5--5--5--5--5--5--5--5--|
B|-5----5------5---5--5------5--5--5--5--|-5--5--5--5-----5--5--5--5--5--5--5--5--5--5--5--|
G|-6----6------6---6--6------6--6--6--6--|-6--6--6--6-----6--6--6--6--6--6--6--6--6--6--6--|
D|-7----7------7---7--7------7--7--7--7--|-7--7--7--7-----7--7--7--7--7--7--7--7--7--7--7--|
A|-7----7------7---7--7------7--7--7--7--|-7--7--7--7-----7--7--7--7--7--7--7--7--7--7--7--|
E|-5----5------5---5--5------5--5--5--5--|-5--5--5--5-----5--5--5--5--5--5--5--5--5--5--5--|


E|--------|
B|--------|
G|--------|
D|-8------|
A|-8------|
E|-6------|





Track 3: Guitar 2 with Phase Shifter

E|--------|--------|--------|--------|--------|--------|--------|--------|--------|
B|--------|--------|--------|--------|--------|--------|--------|--------|--------|
G|--------|--------|--------|--------|--------|--------|--------|--------|--------|
D|--------|--------|--------|--------|--------|--------|--------|--------|--------|
A|--------|--------|--------|--------|--------|--------|--------|--------|--------|
E|--------|--------|--------|--------|--------|--------|--------|--------|--------|


E|--------|--------|--------|--------|--------|--------|--------|--------|--------|
B|--------|--------|--------|--------|--------|--------|--------|--------|--------|
G|--------|--------|--------|--------|--------|--------|--------|--------|--------|
D|--------|--------|--------|--------|--------|--------|--------|--------|--------|
A|--------|--------|--------|--------|--------|--------|--------|--------|--------|
E|--------|--------|--------|--------|--------|--------|--------|--------|--------|


E|--------|--------|--------|--------|--------|--------|--------|--------|--------|
B|--------|--------|--------|--------|--------|--------|--------|--------|--------|
G|--------|--------|--------|--------|--------|--------|--------|--------|--------|
D|--------|--------|--------|--------|--------|--------|--------|--------|--------|
A|--------|--------|--------|--------|--------|--------|--------|--------|--------|
E|--------|--------|--------|--------|--------|--------|--------|--------|--------|


E|--------|--------|--------|--------|--------|--------|--------|--------|--------|
B|--------|--------|--------|--------|--------|--------|--------|--------|--------|
G|--------|--------|--------|--------|--------|--------|--------|--------|--------|
D|--------|--------|--------|--------|--------|--------|--------|--------|--------|
A|--------|--------|--------|--------|--------|--------|--------|--------|--------|
E|--------|--------|--------|--------|--------|--------|--------|--------|--------|


E|--------|--------|--------|--------|--------|--------|--------|--------|--------|
B|--------|--------|--------|--------|--------|--------|--------|--------|--------|
G|--------|--------|--------|--------|--------|--------|--------|--------|--------|
D|--------|--------|--------|--------|--------|--------|--------|--------|--------|
A|--------|--------|--------|--------|--------|--------|--------|--------|--------|
E|--------|--------|--------|--------|--------|--------|--------|--------|--------|


E|--------|--------|--------|--------|--------|--------|--------|--------|--------|
B|--------|--------|--------|--------|--------|--------|--------|--------|--------|
G|--------|--------|--------|--------|--------|--------|--------|--------|--------|
D|--------|--------|--------|--------|--------|--------|--------|--------|--------|
A|--------|--------|--------|--------|--------|--------|--------|--------|--------|
E|--------|--------|--------|--------|--------|--------|--------|--------|--------|


E|--------|--------|--------|--------|--------|--------|--------|--------|--------|
B|--------|--------|--------|--------|--------|--------|--------|--------|--------|
G|--------|--------|--------|--------|--------|--------|--------|--------|--------|
D|--------|--------|--------|--------|--------|--------|--------|--------|--------|
A|--------|--------|--------|--------|--------|--------|--------|--------|--------|
E|--------|--------|--------|--------|--------|--------|--------|--------|--------|


E|--------|--------|--------|--------|--------|--------|--------|--------|--------|
B|--------|--------|--------|--------|--------|--------|--------|--------|--------|
G|--------|--------|--------|--------|--------|--------|--------|--------|--------|
D|--------|--------|--------|--------|--------|--------|--------|--------|--------|
A|--------|--------|--------|--------|--------|--------|--------|--------|--------|
E|--------|--------|--------|--------|--------|--------|--------|--------|--------|


E|--------|--------|--------|--------|--------|--------|--------|--------|--------|
B|--------|--------|--------|--------|--------|--------|--------|--------|--------|
G|--------|--------|--------|--------|--------|--------|--------|--------|--------|
D|--------|--------|--------|--------|--------|--------|--------|--------|--------|
A|--------|--------|--------|--------|--------|--------|--------|--------|--------|
E|--------|--------|--------|--------|--------|--------|--------|--------|--------|


E|--------|--------|--------|--------|--------|--------|--------|--------|
B|--------|--------|--------|--------|--------|--------|--------|--------|
G|--------|--------|--------|--------|--------|--------|--------|--------|
D|--------|--------|--------|--------|--------|--------|--------|--------|
A|--------|--------|--------|--------|--------|--------|--------|--------|
E|--------|--------|--------|--------|--------|--------|--------|--------|





Track 4: Guitar 1 with Phase Shifter

E|--------|--------|--------|--------|--------|--------|--------|--------|--------|
B|--------|--------|--------|--------|--------|--------|--------|--------|--------|
G|--------|--------|--------|--------|--------|--------|--------|--------|--------|
D|--------|--------|--------|--------|--------|--------|--------|--------|--------|
A|--------|--------|--------|--------|--------|--------|--------|--------|--------|
E|--------|--------|--------|--------|--------|--------|--------|--------|--------|


E|--------|--------|--------|--------|--------|--------|--------|--------|--------|
B|--------|--------|--------|--------|--------|--------|--------|--------|--------|
G|--------|--------|--------|--------|--------|--------|--------|--------|--------|
D|--------|--------|--------|--------|--------|--------|--------|--------|--------|
A|--------|--------|--------|--------|--------|--------|--------|--------|--------|
E|--------|--------|--------|--------|--------|--------|--------|--------|--------|


E|--------|--------|--------|--------|--------|--------|--------|--------|--------|
B|--------|--------|--------|--------|--------|--------|--------|--------|--------|
G|--------|--------|--------|--------|--------|--------|--------|--------|--------|
D|--------|--------|--------|--------|--------|--------|--------|--------|--------|
A|--------|--------|--------|--------|--------|--------|--------|--------|--------|
E|--------|--------|--------|--------|--------|--------|--------|--------|--------|


E|--------|--------|--------|--------|--------|--------|--------|--------|--------|
B|--------|--------|--------|--------|--------|--------|--------|--------|--------|
G|--------|--------|--------|--------|--------|--------|--------|--------|--------|
D|--------|--------|--------|--------|--------|--------|--------|--------|--------|
A|--------|--------|--------|--------|--------|--------|--------|--------|--------|
E|--------|--------|--------|--------|--------|--------|--------|--------|--------|


E|--------|--------|--------|--------|--------|--------|--------|--------|--------|
B|--------|--------|--------|--------|--------|--------|--------|--------|--------|
G|--------|--------|--------|--------|--------|--------|--------|--------|--------|
D|--------|--------|--------|--------|--------|--------|--------|--------|--------|
A|--------|--------|--------|--------|--------|--------|--------|--------|--------|
E|--------|--------|--------|--------|--------|--------|--------|--------|--------|


E|--------|--------|--------|--------|--------|--------|--------|--------|--------|
B|--------|--------|--------|--------|--------|--------|--------|--------|--------|
G|--------|--------|--------|--------|--------|--------|--------|--------|--------|
D|--------|--------|--------|--------|--------|--------|--------|--------|--------|
A|--------|--------|--------|--------|--------|--------|--------|--------|--------|
E|--------|--------|--------|--------|--------|--------|--------|--------|--------|


E|--------|--------|--------|--------|--------|--------|--------|--------|--------|
B|-3------|-3------|-3------|-3------|--------|--------|--------|--------|--------|
G|-2------|-2------|-2------|-2------|--------|--------|--------|--------|--------|
D|-0------|-0------|-0------|-0------|--------|--------|--------|--------|--------|
A|-0------|-0------|-0------|-0------|--------|--------|--------|--------|--------|
E|--------|--------|--------|--------|--------|--------|--------|--------|--------|


E|--------|--------|--------|--------|--------|--------|--------|--------|--------|
B|--------|--------|--------|--------|--------|--------|--------|--------|--------|
G|--------|--------|--------|--------|--------|--------|--------|--------|--------|
D|--------|--------|--------|--------|--------|--------|--------|--------|--------|
A|--------|--------|--------|--------|--------|--------|--------|--------|--------|
E|--------|--------|--------|--------|--------|--------|--------|--------|--------|


E|--------|--------|--------|--------|--------|--------|--------|--------|--------|
B|--------|--------|--------|--------|--------|--------|--------|--------|--------|
G|--------|--------|--------|--------|--------|--------|--------|--------|--------|
D|--------|--------|--------|--------|--------|--------|--------|--------|--------|
A|--------|--------|--------|--------|--------|--------|--------|--------|--------|
E|--------|--------|--------|--------|--------|--------|--------|--------|--------|


E|--------|--------|--------|--------|--------|--------|--------|--------|
B|--------|--------|--------|--------|--------|--------|--------|--------|
G|--------|--------|--------|--------|--------|--------|--------|--------|
D|--------|--------|--------|--------|--------|--------|--------|--------|
A|--------|--------|--------|--------|--------|--------|--------|--------|
E|--------|--------|--------|--------|--------|--------|--------|--------|





Track 5: Dist Guitar 2

E|--------|--------|--------|--------|--------|--------|--------|--------|--------|
B|--------|--------|--------|--------|--------|--------|--------|--------|--------|
G|--------|--------|--------|--------|--------|--------|--------|--------|--------|
D|--------|--------|--------|--------|--------|--------|--------|--------|--------|
A|--------|--------|--------|--------|--------|--------|--------|--------|--------|
E|--------|--------|--------|--------|--------|--------|--------|--------|--------|


E|--------|--------|--------|--------|--------|--------|--------|--------|--------|
B|--------|--------|--------|--------|--------|--------|--------|--------|--------|
G|--------|--------|--------|--------|--------|--------|--------|--------|--------|
D|--------|--------|--------|--------|--------|--------|--------|--------|--------|
A|--------|--------|--------|--------|--------|--------|--------|--------|--------|
E|--------|--------|--------|--------|--------|--------|--------|--------|--------|


E|--------|--------|--------|--------|--------|--------|--------|--------|--------|
B|--------|--------|--------|--------|--------|--------|--------|--------|--------|
G|--------|--------|--------|--------|--------|--------|--------|--------|--------|
D|--------|--------|--------|--------|--------|--------|--------|--------|--------|
A|--------|--------|--------|--------|--------|--------|--------|--------|--------|
E|--------|--------|--------|--------|--------|--------|--------|--------|--------|


E|--------|--------|--------|--------|--------|--------|--------|--------|--------|
B|--------|--------|--------|--------|--------|--------|--------|--------|--------|
G|--------|--------|--------|--------|--------|--------|--------|--------|--------|
D|--------|--------|--------|--------|--------|--------|--------|--------|--------|
A|--------|--------|--------|--------|--------|--------|--------|--------|--------|
E|--------|--------|--------|--------|--------|--------|--------|--------|--------|


E|--------|--------|--------|--------|--------|--------|--------|--------|--------|
B|--------|--------|--------|--------|--------|--------|--------|--------|--------|
G|--------|--------|--------|--------|--------|--------|--------|--------|--------|
D|--------|--------|--------|--------|--------|--------|--------|--------|--------|
A|--------|--------|--------|--------|--------|--------|--------|--------|--------|
E|--------|--------|--------|--------|--------|--------|--------|--------|--------|


E|--------|--------|--------|--------|--------|--------|--------|--------|--------|
B|--------|--------|--------|--------|--------|--------|--------|--------|--------|
G|--------|--------|--------|--------|--------|--------|--------|--------|--------|
D|--------|--------|--------|--------|--------|--------|--------|--------|--------|
A|--------|--------|--------|--------|--------|--------|--------|--------|--------|
E|--------|--------|--------|--------|--------|--------|--------|--------|--------|


E|--------|--------|--------|--------|--------|--------|--------|--------|--------|
B|--------|--------|--------|--------|--------|--------|--------|--------|--------|
G|--------|--------|--------|--------|--------|--------|--------|--------|--------|
D|--------|--------|--------|--------|--------|--------|--------|--------|--------|
A|--------|--------|--------|--------|--------|--------|--------|--------|--------|
E|--------|--------|--------|--------|--------|--------|--------|--------|--------|


E|--------|-------------------------------------------------|-------------------------------------------------|
B|--------|-------------------------------------------------|-------------------------------------------------|
G|--------|-7--7--7--7--7--7--7--7--------------------------|-10-10-10-10-10-10-10-10-------------------------|
D|--------|-7--7--7--7--7--7--7--7--7--7--7--7--9--9--9--9--|-10-10-10-10-10-10-10-10-10-10-10-10-10-10-10-10-|
A|--------|-5--5--5--5--5--5--5--5--7--7--7--7--9--9--9--9--|-8--8--8--8--8--8--8--8--10-10-10-10-10-10-10-10-|
E|--------|-5--5--5--5--5--5--5--5--5--5--5--5--7--7--7--7--|-8--8--8--8--8--8--8--8--8--8--8--8--8--8--8--8--|


E|-------------------------------------------------|-------------------------------------------------|
B|-------------------------------------------------|-------------------------------------------------|
G|-7--7--7--7--7--7--7--7--------------------------|-10-10-10-10-10-10-10-10-------------------------|
D|-7--7--7--7--7--7--7--7--7--7--7--7--9--9--9--9--|-10-10-10-10-10-10-10-10-10-10-10-10-10-10-10-10-|
A|-5--5--5--5--5--5--5--5--7--7--7--7--9--9--9--9--|-8--8--8--8--8--8--8--8--10-10-10-10-10-10-10-10-|
E|-5--5--5--5--5--5--5--5--5--5--5--5--7--7--7--7--|-8--8--8--8--8--8--8--8--8--8--8--8--8--8--8--8--|


E|-------------------------------------------------|-------------------------------------------------|
B|-------------------------------------------------|-------------------------------------------------|
G|-7--7--7--7--7--7--7--7--------------------------|-10-10-10-10-10-10-10-10-------------------------|
D|-7--7--7--7--7--7--7--7--7--7--7--7--9--9--9--9--|-10-10-10-10-10-10-10-10-10-10-10-10-10-10-10-10-|
A|-5--5--5--5--5--5--5--5--7--7--7--7--9--9--9--9--|-8--8--8--8--8--8--8--8--10-10-10-10-10-10-10-10-|
E|-5--5--5--5--5--5--5--5--5--5--5--5--7--7--7--7--|-8--8--8--8--8--8--8--8--8--8--8--8--8--8--8--8--|


E|-------------------------------------------------|-------------------------------------------------|
B|-------------------------------------------------|-------------------------------------------------|
G|-7--7--7--7--7--7--7--7--------------------------|-10-10-10-10-10-10-10-10-------------------------|
D|-7--7--7--7--7--7--7--7--7--7--7--7--9--9--9--9--|-10-10-10-10-10-10-10-10-10-10-10-10-10-10-10-10-|
A|-5--5--5--5--5--5--5--5--7--7--7--7--9--9--9--9--|-8--8--8--8--8--8--8--8--10-10-10-10-10-10-10-10-|
E|-5--5--5--5--5--5--5--5--5--5--5--5--7--7--7--7--|-8--8--8--8--8--8--8--8--8--8--8--8--8--8--8--8--|


E|-5--6--6--6----------------------------|-------------------------------------------------|
B|-5--6--6--6--------2---2---2---2---2---|-3--3--3--3--3--3-----3-----3-----3--3--3--3--3--|
G|-7--8--8--8--0--0--3---3---3---3---3---|-2--2--2--2--2--2-----2-----2-----2--2--2--2--2--|
D|-7--8--8--8--0--0--2---2---2---2---2---|-0--0--0--0--0--0-----0-----0-----0--0--0--0--0--|
A|-5--6--6--6--0--0--0---0---0---0---0---|-0--0--0--0--0--0-----0-----0-----0--0--0--0--0--|
E|-------------0--0----------------------|-------------------------------------------------|


E|-6---6---------------------------|-0--0--0--0--0--0-----0-----0-----0--0--0--0--0--|
B|-6---6-------2---2---2---2---2---|-3--3--3--3--3--3-----3-----3-----3--3--3--3--3--|
G|-8---8-------2---2---2---2---2---|-2--2--2--2--2--2-----2-----2-----2--2--2--2--2--|
D|-8---8-------2---2---2---2---2---|-0--0--0--0--0--0-----0-----0-----0--0--0--0--0--|
A|-6---6-------0---0---0---0---0---|-0--0--0--0--0--0-----0-----0-----0--0--0--0--0--|
E|-6---6---------------------------|-------------------------------------------------|


E|-1---1---------------------------|---------------------------------|--------|--------|
B|-4---4-------2---2---2---2---2---|-3---3---------------------------|--------|--------|
G|-3---3-------2---2---2---2---2---|-2---2-------5---5---5---5---5---|--------|--------|
D|-1---1-------2---2---2---2---2---|-0---0-------6---6---6---6---6---|--------|--------|
A|-1---1-------0---0---0---0---0---|-0---0-------6---6---6---6---6---|--------|--------|
E|---------------------------------|-------------4---4---4---4---4---|--------|--------|


E|--------|--------|--------|--------|--------|--------|--------|--------|--------|
B|--------|--------|--------|--------|--------|--------|--------|--------|--------|
G|--------|--------|--------|--------|--------|--------|--------|--------|--------|
D|--------|--------|--------|--------|--------|--------|--------|--------|--------|
A|--------|--------|--------|--------|--------|--------|--------|--------|--------|
E|--------|--------|--------|--------|--------|--------|--------|--------|--------|





Track 6: Untitled

G|--------|--------|--------|--------|--------|--------|--------|--------|--------|
D|--------|--------|--------|--------|--------|--------|--------|--------|--------|
A|--------|--------|--------|--------|--------|--------|--------|--------|--------|
E|--------|--------|--------|--------|--------|--------|--------|--------|--------|


G|--------|--------|--------|--------|--------|--------|--------|--------|--------|
D|--------|--------|--------|--------|--------|--------|--------|--------|--------|
A|--------|--------|--------|--------|--------|--------|--------|--------|--------|
E|--------|--------|--------|--------|--------|--------|--------|--------|--------|


G|--------|--------|--------|--------|--------|--------|--------|--------|--------|
D|--------|--------|--------|--------|--------|--------|--------|--------|--------|
A|--------|--------|--------|--------|--------|--------|--------|--------|--------|
E|--------|--------|--------|--------|--------|--------|--------|--------|--------|


G|--------|--------|--------|--------|--------|--------|--------|--------|--------|
D|--------|--------|--------|--------|--------|--------|--------|--------|--------|
A|--------|--------|--------|--------|--------|--------|--------|--------|--------|
E|--------|--------|--------|--------|--------|--------|--------|--------|--------|


G|--------|--------|--------|--------|--------|--------|--------|--------|--------|
D|--------|--------|--------|--------|--------|--------|--------|--------|--------|
A|--------|--------|--------|--------|--------|--------|--------|--------|--------|
E|--------|--------|--------|--------|--------|--------|--------|--------|--------|


G|--------|--------|--------|--------|--------|--------|--------|--------|--------|
D|--------|--------|--------|--------|--------|--------|--------|--------|--------|
A|--------|--------|--------|--------|--------|--------|--------|--------|--------|
E|--------|--------|--------|--------|--------|--------|--------|--------|--------|


G|--------|--------|--------|--------|--------|--------|--------|--------|--------|
D|--------|--------|--------|--------|--------|--------|--------|--------|--------|
A|--------|--------|--------|--------|--------|--------|--------|--------|--------|
E|--------|--------|--------|--------|--------|--------|--------|--------|--------|


G|--------|--------|--------|--------|--------|--------|--------|--------|--------|
D|--------|--------|--------|--------|--------|--------|--------|--------|--------|
A|--------|--------|--------|--------|--------|--------|--------|--------|--------|
E|--------|--------|--------|--------|--------|--------|--------|--------|--------|


G|--------|--------|--------|--------|--------|--------|--------|--------|--------|
D|--------|--------|--------|--------|--------|--------|--------|--------|--------|
A|--------|--------|--------|--------|--------|--------|--------|--------|--------|
E|--------|--------|--------|--------|--------|--------|--------|--------|--------|


G|--------|--------|--------|--------|--------|--------|--------|--------|
D|--------|--------|--------|--------|--------|--------|--------|--------|
A|--------|--------|--------|--------|--------|--------|--------|--------|
E|--------|--------|--------|--------|--------|--------|--------|--------|