Menu:

 

Search:

 

stone temple pilots - adhesive:

 



Title: Adhesive
Artist: 
Album: Tiny Music
Author: 


Track 1: Guitar 1

E|-5------|-5------|-5------|-5------|--------|--------|--------|--------|--------|
B|-5------|-5------|-5------|-5------|--------|--------|--------|--------|--------|
G|-6------|-6------|-6------|-6------|--------|--------|--------|--------|--------|
D|-7------|-7------|-7------|-7------|--------|--------|--------|--------|--------|
A|-7------|-7------|-7------|-7------|--------|--------|--------|--------|--------|
E|-5------|-5------|-5------|-5------|--------|--------|--------|--------|--------|


E|--------|--------|--------|--------|--------|--------|--------|-5------|-5------|
B|--------|--------|--------|--------|--------|--------|--------|-5------|-5------|
G|--------|--------|--------|--------|--------|--------|--------|-6------|-6------|
D|--------|--------|--------|--------|--------|--------|--------|-7------|-7------|
A|--------|--------|--------|--------|--------|--------|--------|-7------|-7------|
E|--------|--------|--------|--------|--------|--------|--------|-5------|-5------|


E|-5------|-5------|--------|--------|--------|--------|-5------|-5------|-5------|
B|-5------|-5------|--------|--------|--------|--------|-5------|-5------|-5------|
G|-6------|-6------|--------|--------|--------|--------|-6------|-6------|-6------|
D|-7------|-7------|--------|--------|--------|--------|-7------|-7------|-7------|
A|-7------|-7------|--------|--------|--------|--------|-7------|-7------|-7------|
E|-5------|-5------|--------|--------|--------|--------|-5------|-5------|-5------|


E|-5------|--------|--------|--------|--------|-2-----2-----|-2----2-----2----|------2-----2----|
B|-5------|--------|--------|--------|--------|-5-----4-----|-5----4-----5----|------4-----5----|
G|-6------|--------|--------|--------|--------|-2-----2-----|-2----2-----2----|------2-----2----|
D|-7------|--------|--------|--------|--------|-4-----4-----|-4----4-----4----|------4-----4----|
A|-7------|--------|--------|--------|--------|-4-----4-----|-4----4-----4----|------4-----4----|
E|-5------|--------|--------|--------|--------|-2-----2-----|-2----2-----2----|------2-----2----|


E|-2-----------|-----------------|-----------------|-----------------|-------5-----|
B|-4-----5-----|-4-----5----4----|------5-----4----|------5----4-----|-5-----5-----|
G|-2-----2-----|-2-----2----2----|------4-----4----|------4----4-----|-4-----6-----|
D|-4-----2-----|-2-----2----2----|------4-----4----|------4----4-----|-4-----7-----|
A|-4-----0-----|-0-----0----0----|------2-----2----|------2----2-----|-2-----7-----|
E|-2-----------|-----------------|-----------------|-----------------|-------5-----|


E|-------5-----|-------5-----|-------5-----|--------|--------|--------|--------|--------|
B|-------5-----|-------5-----|-------5-----|--------|--------|--------|--------|--------|
G|-------6-----|-------6-----|-------6-----|--------|--------|--------|--------|--------|
D|-------7-----|-------7-----|-------7-----|--------|--------|--------|--------|--------|
A|-------7-----|-------7-----|-------7-----|--------|--------|--------|--------|--------|
E|-------5-----|-------5-----|-------5-----|--------|--------|--------|--------|--------|


E|--------|--------|--------|--------|--------|--------|--------|-------5-----|-------5-----|
B|--------|--------|--------|--------|--------|--------|--------|-------5-----|-------5-----|
G|--------|--------|--------|--------|--------|--------|--------|-------6-----|-------6-----|
D|--------|--------|--------|--------|--------|--------|--------|-------7-----|-------7-----|
A|--------|--------|--------|--------|--------|--------|--------|-------7-----|-------7-----|
E|--------|--------|--------|--------|--------|--------|--------|-------5-----|-------5-----|


E|-------5-----|-------5-----|--------|--------|--------|--------|-------5-----|-------5-----|
B|-------5-----|-------5-----|--------|--------|--------|--------|-------5-----|-------5-----|
G|-------6-----|-------6-----|--------|--------|--------|--------|-------6-----|-------6-----|
D|-------7-----|-------7-----|--------|--------|--------|--------|-------7-----|-------7-----|
A|-------7-----|-------7-----|--------|--------|--------|--------|-------7-----|-------7-----|
E|-------5-----|-------5-----|--------|--------|--------|--------|-------5-----|-------5-----|


E|-------5-----|-------5-----|--------|--------|--------|--------|-------2-----|-2-----2----2----|
B|-------5-----|-------5-----|--------|--------|--------|--------|-------5-----|-4-----5----4----|
G|-------6-----|-------6-----|--------|--------|--------|--------|-------2-----|-2-----2----2----|
D|-------7-----|-------7-----|--------|--------|--------|--------|-------4-----|-4-----4----4----|
A|-------7-----|-------7-----|--------|--------|--------|--------|-------4-----|-4-----4----4----|
E|-------5-----|-------5-----|--------|--------|--------|--------|-------2-----|-2-----2----2----|


E|------2-----2----|------2----2-----|-------------|-----------------|-----------------|
B|------5-----4----|------5----4-----|-5-----4-----|-5----4-----5----|------4-----5----|
G|------2-----2----|------2----2-----|-2-----2-----|-2----2-----4----|------4-----4----|
D|------4-----4----|------4----4-----|-2-----2-----|-2----2-----4----|------4-----4----|
A|------4-----4----|------4----4-----|-0-----0-----|-0----0-----2----|------2-----2----|
E|------2-----2----|------2----2-----|-------------|-----------------|-----------------|


E|-------------|-2-----2-----|-2----2-----2----|------2-----2----|-2-----------|-----------------|
B|-4-----5-----|-5-----4-----|-5----4-----5----|------4-----5----|-4-----5-----|-4-----5----4----|
G|-4-----4-----|-2-----2-----|-2----2-----2----|------2-----2----|-2-----2-----|-2-----2----2----|
D|-4-----4-----|-4-----4-----|-4----4-----4----|------4-----4----|-4-----2-----|-2-----2----2----|
A|-2-----2-----|-4-----4-----|-4----4-----4----|------4-----4----|-4-----0-----|-0-----0----0----|
E|-------------|-2-----2-----|-2----2-----2----|------2-----2----|-2-----------|-----------------|


E|-----------------|-----------------|-------5-----|-4-----5----4----|------5-----4----|
B|------5-----4----|------5----4-----|-5-----5-----|-5-----5----5----|------5-----5----|
G|------4-----4----|------4----4-----|-4-----6-----|-4-----6----4----|------6-----4----|
D|------4-----4----|------4----4-----|-4-----7-----|-6-----7----6----|------7-----6----|
A|------2-----2----|------2----2-----|-2-----7-----|-7-----7----7----|------7-----7----|
E|-----------------|-----------------|-------------|-----------------|-----------------|


E|------4----4----4----|-0-----0-----|-2----2-----2----|-2------2----|-2----2----5-----|
B|------5----5----5----|-0-----0-----|-3----3-----3----|-3------3----|-3----3----5-----|
G|------4----4----4----|-0-----0-----|-2----2-----2----|-2------2----|-2----2----6-----|
D|------6----6----6----|-2-----2-----|-4----4-----4----|-4------4----|-4----4----7-----|
A|------7----7----7----|-3-----3-----|-3----3-----3----|-3------3----|-3----3----7-----|
E|---------------------|-------------|-----------------|-------------|-----------------|


E|-4-----5----4----|------5-----4----|------4----4----4----|-0-----0-----|-2----2-----2----|
B|-5-----5----5----|------5-----5----|------5----5----5----|-0-----0-----|-3----3-----3----|
G|-4-----6----4----|------6-----4----|------4----4----4----|-0-----0-----|-2----2-----2----|
D|-6-----7----6----|------7-----6----|------6----6----6----|-2-----2-----|-4----4-----4----|
A|-7-----7----7----|------7-----7----|------7----7----7----|-3-----3-----|-3----3-----3----|
E|-----------------|-----------------|---------------------|-------------|-----------------|


E|-2------2----|-2----2----------|--------------------|---------------------------|
B|-3------3----|-3----3----3-----|-3---3---7----7-----|-7---7-----------7---6-----|
G|-2------2----|-2----2----2-----|-2---2---7----7-----|-7---7-----------7---7-----|
D|-4------4----|-4----4----0-----|-0---0---7----7-----|-7---7-----------7---8-----|
A|-3------3----|-3----3----2-----|-2---2---7----------|-7---7-----------7---8-----|
E|-------------|-----------------|---------7----7-----|-7---7-----------7---6-----|


E|--------------------|------------------0-----|-------0-----|-------0-----|-------0-----|
B|-6---6---6----6-----|-6---6-------6----3-----|-------3-----|-------3-----|-------3-----|
G|-7---7---7----7-----|-7---7-------7----2-----|-------2-----|-------2-----|-------2-----|
D|-8---8---8----8-----|-8---8-------8----0-----|-------0-----|-------0-----|-------0-----|
A|-----8---8----8-----|-8---8-------8----------|-------------|-------------|-------------|
E|-6---6---6----6-----|-6---6-------6----------|-------------|-------------|-------------|


E|-------5-----|-------5-----|-------5-----|-------5-----|--------|--------|--------|
B|-------5-----|-------5-----|-------5-----|-------5-----|--------|--------|--------|
G|-------6-----|-------6-----|-------6-----|-------6-----|--------|--------|--------|
D|-------7-----|-------7-----|-------7-----|-------7-----|--------|--------|--------|
A|-------7-----|-------7-----|-------7-----|-------7-----|--------|--------|--------|
E|-------5-----|-------5-----|-------5-----|-------5-----|--------|--------|--------|


E|--------|-------5-----|-------5-----|-------5-----|-------5-----|--------|--------|
B|--------|-------5-----|-------5-----|-------5-----|-------5-----|--------|--------|
G|--------|-------6-----|-------6-----|-------6-----|-------6-----|--------|--------|
D|--------|-------7-----|-------7-----|-------7-----|-------7-----|--------|--------|
A|--------|-------7-----|-------7-----|-------7-----|-------7-----|--------|--------|
E|--------|-------5-----|-------5-----|-------5-----|-------5-----|--------|--------|


E|--------|--------|-------5-----|-------5-----|-------5-----|-------5-----|--------|
B|--------|--------|-------5-----|-------5-----|-------5-----|-------5-----|--------|
G|--------|--------|-------6-----|-------6-----|-------6-----|-------6-----|--------|
D|--------|--------|-------7-----|-------7-----|-------7-----|-------7-----|--------|
A|--------|--------|-------7-----|-------7-----|-------7-----|-------7-----|--------|
E|--------|--------|-------5-----|-------5-----|-------5-----|-------5-----|--------|


E|--------|--------|--------|-------5-----|-------5-----|-------5-----|-------5-----|
B|--------|--------|--------|-------5-----|-------5-----|-------5-----|-------5-----|
G|--------|--------|--------|-------6-----|-------6-----|-------6-----|-------6-----|
D|--------|--------|--------|-------7-----|-------7-----|-------7-----|-------7-----|
A|--------|--------|--------|-------7-----|-------7-----|-------7-----|-------7-----|
E|--------|--------|--------|-------5-----|-------5-----|-------5-----|-------5-----|


E|--------|--------|--------|--------|-------2-----|-2-----2----2----|------2-----2----|
B|--------|--------|--------|--------|-------5-----|-4-----5----4----|------5-----4----|
G|--------|--------|--------|--------|-------2-----|-2-----2----2----|------2-----2----|
D|--------|--------|--------|--------|-------4-----|-4-----4----4----|------4-----4----|
A|--------|--------|--------|--------|-------4-----|-4-----4----4----|------4-----4----|
E|--------|--------|--------|--------|-------2-----|-2-----2----2----|------2-----2----|


E|------2----2-----|-------------|-----------------|-----------------|-------------|
B|------5----4-----|-5-----4-----|-5----4-----5----|------4-----5----|-4-----5-----|
G|------2----2-----|-2-----2-----|-2----2-----4----|------4-----4----|-4-----4-----|
D|------4----4-----|-2-----2-----|-2----2-----4----|------4-----4----|-4-----4-----|
A|------4----4-----|-0-----0-----|-0----0-----2----|------2-----2----|-2-----2-----|
E|------2----2-----|-------------|-----------------|-----------------|-------------|


E|-2-----2-----|-2----2-----2----|------2-----2----|-2-----------|-----------------|
B|-5-----4-----|-5----4-----5----|------4-----5----|-4-----5-----|-4-----5----4----|
G|-2-----2-----|-2----2-----2----|------2-----2----|-2-----2-----|-2-----2----2----|
D|-4-----4-----|-4----4-----4----|------4-----4----|-4-----2-----|-2-----2----2----|
A|-4-----4-----|-4----4-----4----|------4-----4----|-4-----0-----|-0-----0----0----|
E|-2-----2-----|-2----2-----2----|------2-----2----|-2-----------|-----------------|


E|-----------------|-----------------|-------5-----|-4-----5----4----|------5-----4----|
B|------5-----4----|------5----4-----|-5-----5-----|-5-----5----5----|------5-----5----|
G|------4-----4----|------4----4-----|-4-----6-----|-4-----6----4----|------6-----4----|
D|------4-----4----|------4----4-----|-4-----7-----|-6-----7----6----|------7-----6----|
A|------2-----2----|------2----2-----|-2-----7-----|-7-----7----7----|------7-----7----|
E|-----------------|-----------------|-------------|-----------------|-----------------|


E|------4----4----4----|-0-----0-----|-2----2-----2----|-2------2----|-2----2----5-----|
B|------5----5----5----|-0-----0-----|-3----3-----3----|-3------3----|-3----3----5-----|
G|------4----4----4----|-0-----0-----|-2----2-----2----|-2------2----|-2----2----6-----|
D|------6----6----6----|-2-----2-----|-4----4-----4----|-4------4----|-4----4----7-----|
A|------7----7----7----|-3-----3-----|-3----3-----3----|-3------3----|-3----3----7-----|
E|---------------------|-------------|-----------------|-------------|-----------------|


E|-4-----5----4----|------5-----4----|------4----4----4----|-0-----0-----|-2----2-----2----|
B|-5-----5----5----|------5-----5----|------5----5----5----|-0-----0-----|-3----3-----3----|
G|-4-----6----4----|------6-----4----|------4----4----4----|-0-----0-----|-2----2-----2----|
D|-6-----7----6----|------7-----6----|------6----6----6----|-2-----2-----|-4----4-----4----|
A|-7-----7----7----|------7-----7----|------7----7----7----|-3-----3-----|-3----3-----3----|
E|-----------------|-----------------|---------------------|-------------|-----------------|


E|-2------2----|-2----2----------|--------------------|---------------------------|
B|-3------3----|-3----3----3-----|-3---3---7----7-----|-7---7-----------7---6-----|
G|-2------2----|-2----2----2-----|-2---2---7----7-----|-7---7-----------7---7-----|
D|-4------4----|-4----4----0-----|-0---0---7----7-----|-7---7-----------7---8-----|
A|-3------3----|-3----3----2-----|-2---2---7----------|-7---7-----------7---8-----|
E|-------------|-----------------|---------7----7-----|-7---7-----------7---6-----|


E|--------------------|------------------0-----|-------0-----|-------0-----|-------0-----|
B|-6---6---6----6-----|-6---6-------6----3-----|-------3-----|-------3-----|-------3-----|
G|-7---7---7----7-----|-7---7-------7----2-----|-------2-----|-------2-----|-------2-----|
D|-8---8---8----8-----|-8---8-------8----0-----|-------0-----|-------0-----|-------0-----|
A|-----8---8----8-----|-8---8-------8----------|-------------|-------------|-------------|
E|-6---6---6----6-----|-6---6-------6----------|-------------|-------------|-------------|


E|--------|
B|--------|
G|--------|
D|--------|
A|--------|
E|--------|





Track 2: Guitar 3

E|-5------|-5------|-5------|-5---------7-----------|--------|--------|-------------|
B|-5------|-5------|-5------|-5-----9---------------|--------|--------|-------------|
G|-6------|-6------|-6------|-6-----------------9---|-8------|-8------|-8-----------|
D|-7------|-7------|-7------|-7-------------9-------|-9------|-9------|-9-----------|
A|-7------|-7------|-7------|-7---------------------|--------|--------|-------------|
E|-5------|-5------|-5------|-5---------------------|--------|--------|-------------|


E|--------|-5------|-5------|-5------|-5------|--------|--------|-------------|--------|
B|--------|-5------|-5------|-5------|-5------|--------|--------|-------------|--------|
G|--------|-6------|-6------|-6------|-6------|-8------|-8------|-8-----------|--------|
D|--------|-7------|-7------|-7------|-7------|-9------|-9------|-9-----------|--------|
A|--------|-7------|-7------|-7------|-7------|--------|--------|-------------|--------|
E|--------|-5------|-5------|-5------|-5------|--------|--------|-------------|--------|


E|-5------|-5------|-5------|-5---------7-----------|--------|--------|-------------|
B|-5------|-5------|-5------|-5-----9---------------|--------|--------|-------------|
G|-6------|-6------|-6------|-6-----------------9---|-8------|-8------|-8-----------|
D|-7------|-7------|-7------|-7-------------9-------|-9------|-9------|-9-----------|
A|-7------|-7------|-7------|-7---------------------|--------|--------|-------------|
E|-5------|-5------|-5------|-5---------------------|--------|--------|-------------|


E|--------|-5------|-5------|-5------|-5---------7-----------|--------|--------|-------------|
B|--------|-5------|-5------|-5------|-5-----9---------------|--------|--------|-7-----------|
G|--------|-6------|-6------|-6------|-6-----------------9---|-8------|-8------|-8-----------|
D|--------|-7------|-7------|-7------|-7-------------9-------|-9------|-9------|-9-----------|
A|--------|-7------|-7------|-7------|-7---------------------|--------|--------|-------------|
E|--------|-5------|-5------|-5------|-5---------------------|--------|--------|-------------|


E|--------|--------|--------|--------|--------|--------|--------|--------|-------5-----|
B|--------|--------|--------|--------|--------|--------|--------|--------|-------5-----|
G|--------|--------|--------|--------|--------|--------|--------|--------|-------6-----|
D|--------|--------|--------|--------|--------|--------|--------|--------|-------7-----|
A|--------|--------|--------|--------|--------|--------|--------|--------|-------7-----|
E|--------|--------|--------|--------|--------|--------|--------|--------|-------5-----|


E|-------5-----|-------5-----|-------5-----|-----7-----------------|-------------|
B|-------5-----|-------5-----|-------5-----|-9---------------------|-------------|
G|-------6-----|-------6-----|-------6-----|-------------9---8-----|-------8-----|
D|-------7-----|-------7-----|-------7-----|---------9-------9-----|-------9-----|
A|-------7-----|-------7-----|-------7-----|-----------------------|-------------|
E|-------5-----|-------5-----|-------5-----|-----------------------|-------------|


E|--------------------|-------------|-------5-----|-------5-----|-------5-----|-------5-----|
B|--------------7-----|-------------|-------5-----|-------5-----|-------5-----|-------5-----|
G|-8---8--------8-----|-------------|-------6-----|-------6-----|-------6-----|-------6-----|
D|-9---9--------9-----|-------------|-------7-----|-------7-----|-------7-----|-------7-----|
A|--------------------|-------------|-------7-----|-------7-----|-------7-----|-------7-----|
E|--------------------|-------------|-------5-----|-------5-----|-------5-----|-------5-----|


E|-------------|-------------|--------------------|-------------|-------5-----|-------5-----|
B|-------------|-------------|--------------7-----|-------------|-------5-----|-------5-----|
G|-------8-----|-------8-----|-8---8--------8-----|-------------|-------6-----|-------6-----|
D|-------9-----|-------9-----|-9---9--------9-----|-------------|-------7-----|-------7-----|
A|-------------|-------------|--------------------|-------------|-------7-----|-------7-----|
E|-------------|-------------|--------------------|-------------|-------5-----|-------5-----|


E|-------5-----|-------5-----|-----7-----------------|-------------|--------------------|
B|-------5-----|-------5-----|-9---------------------|-------------|--------------------|
G|-------6-----|-------6-----|-------------9---8-----|-------8-----|-----------8--------|
D|-------7-----|-------7-----|---------9-------9-----|-------9-----|-----------9--------|
A|-------7-----|-------7-----|-----------------------|-------------|--------------------|
E|-------5-----|-------5-----|-----------------------|-------------|--------------------|


E|-------------|-------5-----|-------5-----|-------5-----|-------5-----|-----7-----------------|
B|-------------|-------5-----|-------5-----|-------5-----|-------5-----|-9---------------------|
G|-------8-----|-9-----6-----|-------6-----|-------6-----|-------6-----|-------------9---8-----|
D|-------9-----|-9-----7-----|-------7-----|-------7-----|-------7-----|---------9-------9-----|
A|-------------|-------7-----|-------7-----|-------7-----|-------7-----|-----------------------|
E|-------------|-------5-----|-------5-----|-------5-----|-------5-----|-----------------------|


E|-------------|--------------------|-------------|--------|--------|--------|--------|
B|-------------|--------------------|-------------|--------|--------|--------|--------|
G|-------8-----|-8---8--------8-----|-------8-----|--------|--------|--------|--------|
D|-------9-----|-9---9--------9-----|-------9-----|--------|--------|--------|--------|
A|-------------|--------------------|-------------|--------|--------|--------|--------|
E|-------------|--------------------|-------------|--------|--------|--------|--------|


E|--------|--------|--------|--------|--------|--------|--------|--------|--------|
B|--------|--------|--------|--------|--------|--------|--------|--------|--------|
G|--------|--------|--------|--------|--------|--------|--------|--------|--------|
D|--------|--------|--------|--------|--------|--------|--------|--------|--------|
A|--------|--------|--------|--------|--------|--------|--------|--------|--------|
E|--------|--------|--------|--------|--------|--------|--------|--------|--------|


E|--------|--------|--------|--------|--------|--------|--------|--------|--------|
B|--------|--------|--------|--------|--------|--------|--------|--------|--------|
G|--------|--------|--------|--------|--------|--------|--------|--------|--------|
D|--------|--------|--------|--------|--------|--------|--------|--------|--------|
A|--------|--------|--------|--------|--------|--------|--------|--------|--------|
E|--------|--------|--------|--------|--------|--------|--------|--------|--------|


E|--------|--------|--------|--------|--------|--------|--------|--------|--------|
B|--------|--------|--------|--------|--------|--------|--------|--------|--------|
G|--------|--------|--------|--------|--------|--------|--------|--------|--------|
D|--------|--------|--------|--------|--------|--------|--------|--------|--------|
A|--------|--------|--------|--------|--------|--------|--------|--------|--------|
E|--------|--------|--------|--------|--------|--------|--------|--------|--------|


E|--------|--------|--------|--------|--------|--------|-------5-----|-------5-----|
B|--------|--------|--------|--------|--------|--------|-------5-----|-------5-----|
G|--------|--------|--------|--------|--------|--------|-------6-----|-------6-----|
D|--------|--------|--------|--------|--------|--------|-------7-----|-------7-----|
A|--------|--------|--------|--------|--------|--------|-------7-----|-------7-----|
E|--------|--------|--------|--------|--------|--------|-------5-----|-------5-----|


E|-------5-----|-------5-----|-----7-----------------|-------------|--------------------|
B|-------5-----|-------5-----|-9---------------------|-------------|--------------7-----|
G|-------6-----|-------6-----|-------------9---8-----|-------8-----|-8---8--------8-----|
D|-------7-----|-------7-----|---------9-------9-----|-------9-----|-9---9--------9-----|
A|-------7-----|-------7-----|-----------------------|-------------|--------------------|
E|-------5-----|-------5-----|-----------------------|-------------|--------------------|


E|-------------|-------5-----|-------5-----|-------5-----|-------5-----|-----7-----------------|
B|-------------|-------5-----|-------5-----|-------5-----|-------5-----|-9---------------------|
G|-------------|-------6-----|-------6-----|-------6-----|-------6-----|-------------9---8-----|
D|-------------|-------7-----|-------7-----|-------7-----|-------7-----|---------9-------9-----|
A|-------------|-------7-----|-------7-----|-------7-----|-------7-----|-----------------------|
E|-------------|-------5-----|-------5-----|-------5-----|-------5-----|-----------------------|


E|-------------|-------------|-------------|-------5-----|-------5-----|-------5-----|
B|-------------|-------7-----|-------------|-------5-----|-------5-----|-------5-----|
G|-------8-----|-------8-----|-------------|-------6-----|-------6-----|-------6-----|
D|-------9-----|-------9-----|-------------|-------7-----|-------7-----|-------7-----|
A|-------------|-------------|-------------|-------7-----|-------7-----|-------7-----|
E|-------------|-------------|-------------|-------5-----|-------5-----|-------5-----|


E|-------5-----|-----7-----------------|-------------|--------------------|-------------|
B|-------5-----|-9---------------------|-------------|--------------------|-------------|
G|-------6-----|-------------9---8-----|-------8-----|-----------8--------|-------8-----|
D|-------7-----|---------9-------9-----|-------9-----|-----------9--------|-------9-----|
A|-------7-----|-----------------------|-------------|--------------------|-------------|
E|-------5-----|-----------------------|-------------|--------------------|-------------|


E|-------5-----|-------5-----|-------5-----|-------5-----|-----7-----------------|
B|-------5-----|-------5-----|-------5-----|-------5-----|-9---------------------|
G|-9-----6-----|-------6-----|-------6-----|-------6-----|-------------9---8-----|
D|-9-----7-----|-------7-----|-------7-----|-------7-----|---------9-------9-----|
A|-------7-----|-------7-----|-------7-----|-------7-----|-----------------------|
E|-------5-----|-------5-----|-------5-----|-------5-----|-----------------------|


E|-------------|--------------------|-------------|--------|--------|--------|--------|
B|-------------|--------------------|-------------|--------|--------|--------|--------|
G|-------8-----|-8---8--------8-----|-------8-----|--------|--------|--------|--------|
D|-------9-----|-9---9--------9-----|-------9-----|--------|--------|--------|--------|
A|-------------|--------------------|-------------|--------|--------|--------|--------|
E|-------------|--------------------|-------------|--------|--------|--------|--------|


E|--------|--------|--------|--------|--------|--------|--------|--------|--------|
B|--------|--------|--------|--------|--------|--------|--------|--------|--------|
G|--------|--------|--------|--------|--------|--------|--------|--------|--------|
D|--------|--------|--------|--------|--------|--------|--------|--------|--------|
A|--------|--------|--------|--------|--------|--------|--------|--------|--------|
E|--------|--------|--------|--------|--------|--------|--------|--------|--------|


E|--------|--------|--------|--------|--------|--------|--------|--------|--------|
B|--------|--------|--------|--------|--------|--------|--------|--------|--------|
G|--------|--------|--------|--------|--------|--------|--------|--------|--------|
D|--------|--------|--------|--------|--------|--------|--------|--------|--------|
A|--------|--------|--------|--------|--------|--------|--------|--------|--------|
E|--------|--------|--------|--------|--------|--------|--------|--------|--------|


E|--------|--------|--------|--------|--------|--------|--------|--------|--------|
B|--------|--------|--------|--------|--------|--------|--------|--------|--------|
G|--------|--------|--------|--------|--------|--------|--------|--------|--------|
D|--------|--------|--------|--------|--------|--------|--------|--------|--------|
A|--------|--------|--------|--------|--------|--------|--------|--------|--------|
E|--------|--------|--------|--------|--------|--------|--------|--------|--------|


E|--------|--------|--------|--------|--------|--------|--------|
B|--------|--------|--------|--------|--------|--------|--------|
G|--------|--------|--------|--------|--------|--------|--------|
D|--------|--------|--------|--------|--------|--------|--------|
A|--------|--------|--------|--------|--------|--------|--------|
E|--------|--------|--------|--------|--------|--------|--------|





Track 3: Guitar 1

E|--------|--------|--------|--------|--------|--------|--------|--------|-5------|
B|--------|--------|--------|--------|--------|--------|--------|--------|-5------|
G|--------|--------|--------|--------|--------|--------|--------|--------|-6------|
D|--------|--------|--------|--------|--------|--------|--------|--------|-7------|
A|--------|--------|--------|--------|--------|--------|--------|--------|-7------|
E|--------|--------|--------|--------|--------|--------|--------|--------|-5------|


E|-5------|-5------|-5---------7-----------|--------|--------|--------|--------|--------|
B|-5------|-5------|-5-----9---------------|--------|--------|--------|--------|--------|
G|-6------|-6------|-6-----------------9---|--------|--------|--------|--------|--------|
D|-7------|-7------|-7-------------9-------|--------|--------|--------|--------|--------|
A|-7------|-7------|-7---------------------|--------|--------|--------|--------|--------|
E|-5------|-5------|-5---------------------|--------|--------|--------|--------|--------|


E|--------|--------|--------|--------|--------|--------|--------|--------|--------|
B|--------|--------|--------|--------|--------|--------|--------|--------|--------|
G|--------|--------|--------|--------|--------|--------|--------|--------|--------|
D|--------|--------|--------|--------|--------|--------|--------|--------|--------|
A|--------|--------|--------|--------|--------|--------|--------|--------|--------|
E|--------|--------|--------|--------|--------|--------|--------|--------|--------|


E|--------|--------|--------|--------|--------|--------|--------|--------|--------|
B|--------|--------|--------|--------|--------|--------|--------|--------|--------|
G|--------|--------|--------|--------|--------|--------|--------|--------|--------|
D|--------|--------|--------|--------|--------|--------|--------|--------|--------|
A|--------|--------|--------|--------|--------|--------|--------|--------|--------|
E|--------|--------|--------|--------|--------|--------|--------|--------|--------|


E|--------|--------|--------|--------|--------|--------|--------|--------|--------|
B|--------|--------|--------|--------|--------|--------|--------|--------|--------|
G|--------|--------|--------|--------|--------|--------|--------|--------|--------|
D|--------|--------|--------|--------|--------|--------|--------|--------|--------|
A|--------|--------|--------|--------|--------|--------|--------|--------|--------|
E|--------|--------|--------|--------|--------|--------|--------|--------|--------|


E|--------|--------|--------|--------|--------|--------|--------|--------|--------|
B|--------|--------|--------|--------|--------|--------|--------|--------|--------|
G|--------|--------|--------|--------|--------|--------|--------|--------|--------|
D|--------|--------|--------|--------|--------|--------|--------|--------|--------|
A|--------|--------|--------|--------|--------|--------|--------|--------|--------|
E|--------|--------|--------|--------|--------|--------|--------|--------|--------|


E|--------|--------|--------|--------|--------|--------|--------|--------|--------|
B|--------|--------|--------|--------|--------|--------|--------|--------|--------|
G|--------|--------|--------|--------|--------|--------|--------|--------|--------|
D|--------|--------|--------|--------|--------|--------|--------|--------|--------|
A|--------|--------|--------|--------|--------|--------|--------|--------|--------|
E|--------|--------|--------|--------|--------|--------|--------|--------|--------|


E|--------|--------|--------|--------|--------|--------|--------|--------|--------|
B|--------|--------|--------|--------|--------|--------|--------|--------|--------|
G|--------|--------|--------|--------|--------|--------|--------|--------|--------|
D|--------|--------|--------|--------|--------|--------|--------|--------|--------|
A|--------|--------|--------|--------|--------|--------|--------|--------|--------|
E|--------|--------|--------|--------|--------|--------|--------|--------|--------|


E|--------|--------|--------|--------|--------|--------|--------|--------|--------|
B|--------|--------|--------|--------|--------|--------|--------|--------|--------|
G|--------|--------|--------|--------|--------|--------|--------|--------|--------|
D|--------|--------|--------|--------|--------|--------|--------|--------|--------|
A|--------|--------|--------|--------|--------|--------|--------|--------|--------|
E|--------|--------|--------|--------|--------|--------|--------|--------|--------|


E|--------|--------|--------|--------|--------|--------|--------|--------|--------|
B|--------|--------|--------|--------|--------|--------|--------|--------|--------|
G|--------|--------|--------|--------|--------|--------|--------|--------|--------|
D|--------|--------|--------|--------|--------|--------|--------|--------|--------|
A|--------|--------|--------|--------|--------|--------|--------|--------|--------|
E|--------|--------|--------|--------|--------|--------|--------|--------|--------|


E|--------|--------|--------|--------|--------|--------|--------|--------|--------|
B|--------|--------|--------|--------|--------|--------|--------|--------|--------|
G|--------|--------|--------|--------|--------|--------|--------|--------|--------|
D|--------|--------|--------|--------|--------|--------|--------|--------|--------|
A|--------|--------|--------|--------|--------|--------|--------|--------|--------|
E|--------|--------|--------|--------|--------|--------|--------|--------|--------|


E|--------|--------|--------|--------|--------|--------|--------|--------|--------|
B|--------|--------|--------|--------|--------|--------|--------|--------|--------|
G|--------|--------|--------|--------|--------|--------|--------|--------|--------|
D|--------|--------|--------|--------|--------|--------|--------|--------|--------|
A|--------|--------|--------|--------|--------|--------|--------|--------|--------|
E|--------|--------|--------|--------|--------|--------|--------|--------|--------|


E|--------|--------|--------|--------|--------|--------|--------|--------|--------|
B|--------|--------|--------|--------|--------|--------|--------|--------|--------|
G|--------|--------|--------|--------|--------|--------|--------|--------|--------|
D|--------|--------|--------|--------|--------|--------|--------|--------|--------|
A|--------|--------|--------|--------|--------|--------|--------|--------|--------|
E|--------|--------|--------|--------|--------|--------|--------|--------|--------|


E|--------|--------|--------|--------|--------|--------|--------|--------|--------|
B|--------|--------|--------|--------|--------|--------|--------|--------|--------|
G|--------|--------|--------|--------|--------|--------|--------|--------|--------|
D|--------|--------|--------|--------|--------|--------|--------|--------|--------|
A|--------|--------|--------|--------|--------|--------|--------|--------|--------|
E|--------|--------|--------|--------|--------|--------|--------|--------|--------|


E|--------|--------|--------|--------|--------|--------|--------|--------|--------|
B|--------|--------|--------|--------|--------|--------|--------|--------|--------|
G|--------|--------|--------|--------|--------|--------|--------|--------|--------|
D|--------|--------|--------|--------|--------|--------|--------|--------|--------|
A|--------|--------|--------|--------|--------|--------|--------|--------|--------|
E|--------|--------|--------|--------|--------|--------|--------|--------|--------|


E|--------|--------|--------|--------|--------|--------|--------|--------|--------|
B|--------|--------|--------|--------|--------|--------|--------|--------|--------|
G|--------|--------|--------|--------|--------|--------|--------|--------|--------|
D|--------|--------|--------|--------|--------|--------|--------|--------|--------|
A|--------|--------|--------|--------|--------|--------|--------|--------|--------|
E|--------|--------|--------|--------|--------|--------|--------|--------|--------|


E|--------|--------|--------|--------|--------|--------|--------|--------|--------|
B|--------|--------|--------|--------|--------|--------|--------|--------|--------|
G|--------|--------|--------|--------|--------|--------|--------|--------|--------|
D|--------|--------|--------|--------|--------|--------|--------|--------|--------|
A|--------|--------|--------|--------|--------|--------|--------|--------|--------|
E|--------|--------|--------|--------|--------|--------|--------|--------|--------|


E|--------|--------|--------|--------|--------|--------|--------|--------|--------|
B|--------|--------|--------|--------|--------|--------|--------|--------|--------|
G|--------|--------|--------|--------|--------|--------|--------|--------|--------|
D|--------|--------|--------|--------|--------|--------|--------|--------|--------|
A|--------|--------|--------|--------|--------|--------|--------|--------|--------|
E|--------|--------|--------|--------|--------|--------|--------|--------|--------|


E|--------|--------|--------|--------|--------|--------|--------|--------|--------|
B|--------|--------|--------|--------|--------|--------|--------|--------|--------|
G|--------|--------|--------|--------|--------|--------|--------|--------|--------|
D|--------|--------|--------|--------|--------|--------|--------|--------|--------|
A|--------|--------|--------|--------|--------|--------|--------|--------|--------|
E|--------|--------|--------|--------|--------|--------|--------|--------|--------|


E|--------|--------|--------|--------|--------|--------|--------|--------|
B|--------|--------|--------|--------|--------|--------|--------|--------|
G|--------|--------|--------|--------|--------|--------|--------|--------|
D|--------|--------|--------|--------|--------|--------|--------|--------|
A|--------|--------|--------|--------|--------|--------|--------|--------|
E|--------|--------|--------|--------|--------|--------|--------|--------|





Track 4: Guitar 1

E|--------|--------|--------|--------|--------|--------|--------|--------|--------|
B|--------|--------|--------|--------|--------|--------|--------|--------|--------|
G|--------|--------|--------|--------|--------|--------|--------|--------|--------|
D|--------|--------|--------|--------|--------|--------|--------|--------|--------|
A|--------|--------|--------|--------|--------|--------|--------|--------|--------|
E|--------|--------|--------|--------|--------|--------|--------|--------|--------|


E|--------|--------|--------|--------|--------|--------|--------|--------|--------|
B|--------|--------|--------|--------|--------|--------|--------|--------|--------|
G|--------|--------|--------|--------|--------|--------|--------|--------|--------|
D|--------|--------|--------|--------|--------|--------|--------|--------|--------|
A|--------|--------|--------|--------|--------|--------|--------|--------|--------|
E|--------|--------|--------|--------|--------|--------|--------|--------|--------|


E|--------|--------|--------|--------|--------|--------|--------|--------|--------|
B|--------|--------|--------|--------|--------|--------|--------|--------|--------|
G|--------|--------|--------|--------|--------|--------|--------|--------|--------|
D|--------|--------|--------|--------|--------|--------|--------|--------|--------|
A|--------|--------|--------|--------|--------|--------|--------|--------|--------|
E|--------|--------|--------|--------|--------|--------|--------|--------|--------|


E|--------|--------|--------|--------|--------|--------|--------|--------|--------|
B|--------|--------|--------|--------|--------|--------|--------|--------|--------|
G|--------|--------|--------|--------|--------|--------|--------|--------|--------|
D|--------|--------|--------|--------|--------|--------|--------|--------|--------|
A|--------|--------|--------|--------|--------|--------|--------|--------|--------|
E|--------|--------|--------|--------|--------|--------|--------|--------|--------|


E|--------|--------|--------|--------|--------|--------|--------|--------|--------|
B|--------|--------|--------|--------|--------|--------|--------|--------|--------|
G|--------|--------|--------|--------|--------|--------|--------|--------|--------|
D|--------|--------|--------|--------|--------|--------|--------|--------|--------|
A|--------|--------|--------|--------|--------|--------|--------|--------|--------|
E|--------|--------|--------|--------|--------|--------|--------|--------|--------|


E|--------|--------|-------5-----|-------5-----|-------5-----|-------5-----|-----7-----------------|
B|--------|--------|-------5-----|-------5-----|-------5-----|-------5-----|-9---------------------|
G|--------|--------|-------6-----|-------6-----|-------6-----|-------6-----|-------------9---------|
D|--------|--------|-------7-----|-------7-----|-------7-----|-------7-----|---------9-------------|
A|--------|--------|-------7-----|-------7-----|-------7-----|-------7-----|-----------------------|
E|--------|--------|-------5-----|-------5-----|-------5-----|-------5-----|-----------------------|


E|--------|--------|--------|--------|--------|--------|--------|--------|--------|
B|--------|--------|--------|--------|--------|--------|--------|--------|--------|
G|--------|--------|--------|--------|--------|--------|--------|--------|--------|
D|--------|--------|--------|--------|--------|--------|--------|--------|--------|
A|--------|--------|--------|--------|--------|--------|--------|--------|--------|
E|--------|--------|--------|--------|--------|--------|--------|--------|--------|


E|--------|--------|--------|--------|--------|--------|--------|--------|--------|
B|--------|--------|--------|--------|--------|--------|--------|--------|--------|
G|--------|--------|--------|--------|--------|--------|--------|--------|--------|
D|--------|--------|--------|--------|--------|--------|--------|--------|--------|
A|--------|--------|--------|--------|--------|--------|--------|--------|--------|
E|--------|--------|--------|--------|--------|--------|--------|--------|--------|


E|--------|--------|--------|--------|--------|--------|--------|--------|--------|
B|--------|--------|--------|--------|--------|--------|--------|--------|--------|
G|--------|--------|--------|--------|--------|--------|--------|--------|--------|
D|--------|--------|--------|--------|--------|--------|--------|--------|--------|
A|--------|--------|--------|--------|--------|--------|--------|--------|--------|
E|--------|--------|--------|--------|--------|--------|--------|--------|--------|


E|--------|--------|--------|--------|--------|--------|--------|--------|--------|
B|--------|--------|--------|--------|--------|--------|--------|--------|--------|
G|--------|--------|--------|--------|--------|--------|--------|--------|--------|
D|--------|--------|--------|--------|--------|--------|--------|--------|--------|
A|--------|--------|--------|--------|--------|--------|--------|--------|--------|
E|--------|--------|--------|--------|--------|--------|--------|--------|--------|


E|--------|--------|--------|--------|--------|--------|--------|--------|--------|
B|--------|--------|--------|--------|--------|--------|--------|--------|--------|
G|--------|--------|--------|--------|--------|--------|--------|--------|--------|
D|--------|--------|--------|--------|--------|--------|--------|--------|--------|
A|--------|--------|--------|--------|--------|--------|--------|--------|--------|
E|--------|--------|--------|--------|--------|--------|--------|--------|--------|


E|--------|--------|--------|--------|--------|--------|--------|--------|--------|
B|--------|--------|--------|--------|--------|--------|--------|--------|--------|
G|--------|--------|--------|--------|--------|--------|--------|--------|--------|
D|--------|--------|--------|--------|--------|--------|--------|--------|--------|
A|--------|--------|--------|--------|--------|--------|--------|--------|--------|
E|--------|--------|--------|--------|--------|--------|--------|--------|--------|


E|--------|--------|--------|--------|--------|--------|--------|--------|--------|
B|--------|--------|--------|--------|--------|--------|--------|--------|--------|
G|--------|--------|--------|--------|--------|--------|--------|--------|--------|
D|--------|--------|--------|--------|--------|--------|--------|--------|--------|
A|--------|--------|--------|--------|--------|--------|--------|--------|--------|
E|--------|--------|--------|--------|--------|--------|--------|--------|--------|


E|--------|--------|--------|--------|--------|--------|--------|--------|--------|
B|--------|--------|--------|--------|--------|--------|--------|--------|--------|
G|--------|--------|--------|--------|--------|--------|--------|--------|--------|
D|--------|--------|--------|--------|--------|--------|--------|--------|--------|
A|--------|--------|--------|--------|--------|--------|--------|--------|--------|
E|--------|--------|--------|--------|--------|--------|--------|--------|--------|


E|--------|--------|--------|--------|--------|--------|--------|--------|--------|
B|--------|--------|--------|--------|--------|--------|--------|--------|--------|
G|--------|--------|--------|--------|--------|--------|--------|--------|--------|
D|--------|--------|--------|--------|--------|--------|--------|--------|--------|
A|--------|--------|--------|--------|--------|--------|--------|--------|--------|
E|--------|--------|--------|--------|--------|--------|--------|--------|--------|


E|--------|--------|--------|--------|--------|--------|--------|--------|--------|
B|--------|--------|--------|--------|--------|--------|--------|--------|--------|
G|--------|--------|--------|--------|--------|--------|--------|--------|--------|
D|--------|--------|--------|--------|--------|--------|--------|--------|--------|
A|--------|--------|--------|--------|--------|--------|--------|--------|--------|
E|--------|--------|--------|--------|--------|--------|--------|--------|--------|


E|--------|--------|--------|--------|--------|--------|--------|--------|--------|
B|--------|--------|--------|--------|--------|--------|--------|--------|--------|
G|--------|--------|--------|--------|--------|--------|--------|--------|--------|
D|--------|--------|--------|--------|--------|--------|--------|--------|--------|
A|--------|--------|--------|--------|--------|--------|--------|--------|--------|
E|--------|--------|--------|--------|--------|--------|--------|--------|--------|


E|--------|--------|--------|--------|--------|--------|--------|--------|--------|
B|--------|--------|--------|--------|--------|--------|--------|--------|--------|
G|--------|--------|--------|--------|--------|--------|--------|--------|--------|
D|--------|--------|--------|--------|--------|--------|--------|--------|--------|
A|--------|--------|--------|--------|--------|--------|--------|--------|--------|
E|--------|--------|--------|--------|--------|--------|--------|--------|--------|


E|--------|--------|--------|--------|--------|--------|--------|--------|--------|
B|--------|--------|--------|--------|--------|--------|--------|--------|--------|
G|--------|--------|--------|--------|--------|--------|--------|--------|--------|
D|--------|--------|--------|--------|--------|--------|--------|--------|--------|
A|--------|--------|--------|--------|--------|--------|--------|--------|--------|
E|--------|--------|--------|--------|--------|--------|--------|--------|--------|


E|--------|--------|--------|--------|--------|--------|--------|--------|--------|
B|--------|--------|--------|--------|--------|--------|--------|--------|--------|
G|--------|--------|--------|--------|--------|--------|--------|--------|--------|
D|--------|--------|--------|--------|--------|--------|--------|--------|--------|
A|--------|--------|--------|--------|--------|--------|--------|--------|--------|
E|--------|--------|--------|--------|--------|--------|--------|--------|--------|





Track 5: Trumpet

E|--------|--------|--------|--------|--------|--------|--------|--------|--------|
B|--------|--------|--------|--------|--------|--------|--------|--------|--------|
G|--------|--------|--------|--------|--------|--------|--------|--------|--------|
D|--------|--------|--------|--------|--------|--------|--------|--------|--------|
A|--------|--------|--------|--------|--------|--------|--------|--------|--------|
E|--------|--------|--------|--------|--------|--------|--------|--------|--------|


E|--------|--------|--------|--------|--------|--------|--------|--------|--------|
B|--------|--------|--------|--------|--------|--------|--------|--------|--------|
G|--------|--------|--------|--------|--------|--------|--------|--------|--------|
D|--------|--------|--------|--------|--------|--------|--------|--------|--------|
A|--------|--------|--------|--------|--------|--------|--------|--------|--------|
E|--------|--------|--------|--------|--------|--------|--------|--------|--------|


E|--------|--------|--------|--------|--------|--------|--------|--------|--------|
B|--------|--------|--------|--------|--------|--------|--------|--------|--------|
G|--------|--------|--------|--------|--------|--------|--------|--------|--------|
D|--------|--------|--------|--------|--------|--------|--------|--------|--------|
A|--------|--------|--------|--------|--------|--------|--------|--------|--------|
E|--------|--------|--------|--------|--------|--------|--------|--------|--------|


E|--------|--------|--------|--------|--------|--------|--------|--------|--------|
B|--------|--------|--------|--------|--------|--------|--------|--------|--------|
G|--------|--------|--------|--------|--------|--------|--------|--------|--------|
D|--------|--------|--------|--------|--------|--------|--------|--------|--------|
A|--------|--------|--------|--------|--------|--------|--------|--------|--------|
E|--------|--------|--------|--------|--------|--------|--------|--------|--------|


E|--------|--------|--------|--------|--------|--------|--------|--------|--------|
B|--------|--------|--------|--------|--------|--------|--------|--------|--------|
G|--------|--------|--------|--------|--------|--------|--------|--------|--------|
D|--------|--------|--------|--------|--------|--------|--------|--------|--------|
A|--------|--------|--------|--------|--------|--------|--------|--------|--------|
E|--------|--------|--------|--------|--------|--------|--------|--------|--------|


E|--------|--------|--------|--------|--------|--------|--------|--------|--------|
B|--------|--------|--------|--------|--------|--------|--------|--------|--------|
G|--------|--------|--------|--------|--------|--------|--------|--------|--------|
D|--------|--------|--------|--------|--------|--------|--------|--------|--------|
A|--------|--------|--------|--------|--------|--------|--------|--------|--------|
E|--------|--------|--------|--------|--------|--------|--------|--------|--------|


E|--------|--------|--------|--------|--------|--------|--------|--------|--------|
B|--------|--------|--------|--------|--------|--------|--------|--------|--------|
G|--------|--------|--------|--------|--------|--------|--------|--------|--------|
D|--------|--------|--------|--------|--------|--------|--------|--------|--------|
A|--------|--------|--------|--------|--------|--------|--------|--------|--------|
E|--------|--------|--------|--------|--------|--------|--------|--------|--------|


E|--------|--------|--------|--------|--------|--------|--------|--------|--------|
B|--------|--------|--------|--------|--------|--------|--------|--------|--------|
G|--------|--------|--------|--------|--------|--------|--------|--------|--------|
D|--------|--------|--------|--------|--------|--------|--------|--------|--------|
A|--------|--------|--------|--------|--------|--------|--------|--------|--------|
E|--------|--------|--------|--------|--------|--------|--------|--------|--------|


E|--------|--------|--------|--------|--------|--------|--------|--------|--------|
B|--------|--------|--------|--------|--------|--------|--------|--------|--------|
G|--------|--------|--------|--------|--------|--------|--------|--------|--------|
D|--------|--------|--------|--------|--------|--------|--------|--------|--------|
A|--------|--------|--------|--------|--------|--------|--------|--------|--------|
E|--------|--------|--------|--------|--------|--------|--------|--------|--------|


E|--------|--------|--------|--------|--------|--------|--------|--------|--------|
B|--------|--------|--------|--------|--------|--------|--------|--------|--------|
G|--------|--------|--------|--------|--------|--------|--------|--------|--------|
D|--------|--------|--------|--------|--------|--------|--------|--------|--------|
A|--------|--------|--------|--------|--------|--------|--------|--------|--------|
E|--------|--------|--------|--------|--------|--------|--------|--------|--------|


E|--------|--------|--------|--------|--------|--------|--------|--------|--------|
B|--------|--------|--------|--------|--------|--------|--------|--------|--------|
G|--------|--------|--------|--------|--------|--------|--------|--------|--------|
D|--------|--------|--------|--------|--------|--------|--------|--------|--------|
A|--------|--------|--------|--------|--------|--------|--------|--------|--------|
E|--------|--------|--------|--------|--------|--------|--------|--------|--------|


E|--------|--------|--------|--------|--------|--------|--------|--------|--------|
B|--------|--------|--------|--------|--------|--------|--------|--------|--------|
G|--------|--------|--------|--------|--------|--------|--------|--------|--------|
D|--------|--------|--------|--------|--------|--------|--------|--------|--------|
A|--------|--------|--------|--------|--------|--------|--------|--------|--------|
E|--------|--------|--------|--------|--------|--------|--------|--------|--------|


E|-------------|------5---7-------9---9----|-------9-----|-----7---7---5---5-----|
B|-------------|---------------------------|-------------|-----------------------|
G|-------------|---------------------------|-------------|-----------------------|
D|-------------|---------------------------|-------------|-----------------------|
A|-------------|---------------------------|-------------|-----------------------|
E|-------------|---------------------------|-------------|-----------------------|


E|-------------|----------7---12--7---7---7---|-5----4---5---7---------------|--------------------|
B|-------------|------------------------------|------------------5---5---5---|-5-----5------------|
G|-------------|------------------------------|------------------------------|-----------6--------|
D|-------------|------------------------------|------------------------------|--------------------|
A|-------------|------------------------------|------------------------------|--------------------|
E|-------------|------------------------------|------------------------------|--------------------|


E|-------------|-----------14----------|-------------------------|-----------------|
B|-------------|------------------17---|-14-15-14-12--14---14----|------------12---|
G|-------------|-----------------------|-------------------------|-----------------|
D|-------------|-----------------------|-------------------------|-----------------|
A|-------------|-----------------------|-------------------------|-----------------|
E|-------------|-----------------------|-------------------------|-----------------|


E|------12-------------|---------------------|--------------------|-11--14--14--14--------|
B|-14--------16---16---|------4----4----4----|----------------12--|-----------------16----|
G|---------------------|---------------------|--------------------|-----------------------|
D|---------------------|---------------------|--------------------|-----------------------|
A|---------------------|---------------------|--------------------|-----------------------|
E|---------------------|---------------------|--------------------|-----------------------|


E|-----------------|--------|--------|--------|--------|--------|--------|--------|
B|-----------------|--------|--------|--------|--------|--------|--------|--------|
G|-----------------|--------|--------|--------|--------|--------|--------|--------|
D|-----------------|--------|--------|--------|--------|--------|--------|--------|
A|-----------------|--------|--------|--------|--------|--------|--------|--------|
E|-----------------|--------|--------|--------|--------|--------|--------|--------|


E|--------|--------|--------|--------|--------|--------|--------|--------|--------|
B|--------|--------|--------|--------|--------|--------|--------|--------|--------|
G|--------|--------|--------|--------|--------|--------|--------|--------|--------|
D|--------|--------|--------|--------|--------|--------|--------|--------|--------|
A|--------|--------|--------|--------|--------|--------|--------|--------|--------|
E|--------|--------|--------|--------|--------|--------|--------|--------|--------|


E|--------|--------|--------|--------|--------|--------|--------|--------|--------|
B|--------|--------|--------|--------|--------|--------|--------|--------|--------|
G|--------|--------|--------|--------|--------|--------|--------|--------|--------|
D|--------|--------|--------|--------|--------|--------|--------|--------|--------|
A|--------|--------|--------|--------|--------|--------|--------|--------|--------|
E|--------|--------|--------|--------|--------|--------|--------|--------|--------|


E|--------|--------|--------|--------|--------|--------|--------|--------|--------|
B|--------|--------|--------|--------|--------|--------|--------|--------|--------|
G|--------|--------|--------|--------|--------|--------|--------|--------|--------|
D|--------|--------|--------|--------|--------|--------|--------|--------|--------|
A|--------|--------|--------|--------|--------|--------|--------|--------|--------|
E|--------|--------|--------|--------|--------|--------|--------|--------|--------|


E|--------|--------|--------|--------|--------|--------|--------|--------|--------|
B|--------|--------|--------|--------|--------|--------|--------|--------|--------|
G|--------|--------|--------|--------|--------|--------|--------|--------|--------|
D|--------|--------|--------|--------|--------|--------|--------|--------|--------|
A|--------|--------|--------|--------|--------|--------|--------|--------|--------|
E|--------|--------|--------|--------|--------|--------|--------|--------|--------|


E|--------|--------|--------|--------|--------|------------5----|-3----2---------5----|
B|--------|--------|--------|--------|--------|-----------------|-----------3---------|
G|--------|--------|--------|--------|--------|-----------------|---------------------|
D|--------|--------|--------|--------|--------|-----------------|---------------------|
A|--------|--------|--------|--------|--------|-----------------|---------------------|
E|--------|--------|--------|--------|--------|-----------------|---------------------|


E|-3----2---------5----|-3----2---------5----|-3----2----------|
B|-----------3---------|-----------3---------|-----------------|
G|---------------------|---------------------|-----------------|
D|---------------------|---------------------|-----------------|
A|---------------------|---------------------|-----------------|
E|---------------------|---------------------|-----------------|





Track 6: Untitled

G|--------|--------|--------|--------|--------|--------|--------|--------|--------|
D|--------|--------|--------|--------|--------|--------|--------|--------|--------|
A|--------|--------|--------|--------|--------|--------|--------|--------|--------|
E|--------|--------|--------|--------|--------|--------|--------|--------|--------|


G|--------|--------|--------|--------|--------|--------|--------|--------|--------|
D|--------|--------|--------|--------|--------|--------|--------|--------|--------|
A|--------|--------|--------|--------|--------|--------|--------|--------|--------|
E|--------|--------|--------|--------|--------|--------|--------|--------|--------|


G|--------|--------|--------|--------|--------|--------|--------|--------|--------|
D|--------|--------|--------|--------|--------|--------|--------|--------|--------|
A|--------|--------|--------|--------|--------|--------|--------|--------|--------|
E|--------|--------|--------|--------|--------|--------|--------|--------|--------|


G|--------|--------|--------|--------|--------|--------|--------|--------|--------|
D|--------|--------|--------|--------|--------|--------|--------|--------|--------|
A|--------|--------|--------|--------|--------|--------|--------|--------|--------|
E|--------|--------|--------|--------|--------|--------|--------|--------|--------|


G|--------|--------|--------|--------|--------|--------|--------|--------|--------|
D|--------|--------|--------|--------|--------|--------|--------|--------|--------|
A|--------|--------|--------|--------|--------|--------|--------|--------|--------|
E|--------|--------|--------|--------|--------|--------|--------|--------|--------|


G|--------|--------|--------|--------|--------|--------|--------|--------|--------|
D|--------|--------|--------|--------|--------|--------|--------|--------|--------|
A|--------|--------|--------|--------|--------|--------|--------|--------|--------|
E|--------|--------|--------|--------|--------|--------|--------|--------|--------|


G|--------|--------|--------|--------|--------|--------|--------|--------|--------|
D|--------|--------|--------|--------|--------|--------|--------|--------|--------|
A|--------|--------|--------|--------|--------|--------|--------|--------|--------|
E|--------|--------|--------|--------|--------|--------|--------|--------|--------|


G|--------|--------|--------|--------|--------|--------|--------|--------|--------|
D|--------|--------|--------|--------|--------|--------|--------|--------|--------|
A|--------|--------|--------|--------|--------|--------|--------|--------|--------|
E|--------|--------|--------|--------|--------|--------|--------|--------|--------|


G|--------|--------|--------|--------|--------|--------|--------|--------|--------|
D|--------|--------|--------|--------|--------|--------|--------|--------|--------|
A|--------|--------|--------|--------|--------|--------|--------|--------|--------|
E|--------|--------|--------|--------|--------|--------|--------|--------|--------|


G|--------|--------|--------|--------|--------|--------|--------|--------|--------|
D|--------|--------|--------|--------|--------|--------|--------|--------|--------|
A|--------|--------|--------|--------|--------|--------|--------|--------|--------|
E|--------|--------|--------|--------|--------|--------|--------|--------|--------|


G|--------|--------|--------|--------|--------|--------|--------|--------|--------|
D|--------|--------|--------|--------|--------|--------|--------|--------|--------|
A|--------|--------|--------|--------|--------|--------|--------|--------|--------|
E|--------|--------|--------|--------|--------|--------|--------|--------|--------|


G|--------|--------|--------|--------|--------|--------|--------|--------|--------|
D|--------|--------|--------|--------|--------|--------|--------|--------|--------|
A|--------|--------|--------|--------|--------|--------|--------|--------|--------|
E|--------|--------|--------|--------|--------|--------|--------|--------|--------|


G|--------|--------|--------|--------|--------|--------|--------|--------|--------|
D|--------|--------|--------|--------|--------|--------|--------|--------|--------|
A|--------|--------|--------|--------|--------|--------|--------|--------|--------|
E|--------|--------|--------|--------|--------|--------|--------|--------|--------|


G|--------|--------|--------|--------|--------|--------|--------|--------|--------|
D|--------|--------|--------|--------|--------|--------|--------|--------|--------|
A|--------|--------|--------|--------|--------|--------|--------|--------|--------|
E|--------|--------|--------|--------|--------|--------|--------|--------|--------|


G|--------|--------|--------|--------|--------|--------|--------|--------|--------|
D|--------|--------|--------|--------|--------|--------|--------|--------|--------|
A|--------|--------|--------|--------|--------|--------|--------|--------|--------|
E|--------|--------|--------|--------|--------|--------|--------|--------|--------|


G|--------|--------|--------|--------|--------|--------|--------|--------|--------|
D|--------|--------|--------|--------|--------|--------|--------|--------|--------|
A|--------|--------|--------|--------|--------|--------|--------|--------|--------|
E|--------|--------|--------|--------|--------|--------|--------|--------|--------|


G|--------|--------|--------|--------|--------|--------|--------|--------|--------|
D|--------|--------|--------|--------|--------|--------|--------|--------|--------|
A|--------|--------|--------|--------|--------|--------|--------|--------|--------|
E|--------|--------|--------|--------|--------|--------|--------|--------|--------|


G|--------|--------|--------|--------|--------|--------|--------|--------|--------|
D|--------|--------|--------|--------|--------|--------|--------|--------|--------|
A|--------|--------|--------|--------|--------|--------|--------|--------|--------|
E|--------|--------|--------|--------|--------|--------|--------|--------|--------|


G|--------|--------|--------|--------|--------|--------|--------|--------|--------|
D|--------|--------|--------|--------|--------|--------|--------|--------|--------|
A|--------|--------|--------|--------|--------|--------|--------|--------|--------|
E|--------|--------|--------|--------|--------|--------|--------|--------|--------|


G|--------|--------|--------|--------|--------|--------|--------|
D|--------|--------|--------|--------|--------|--------|--------|
A|--------|--------|--------|--------|--------|--------|--------|
E|--------|--------|--------|--------|--------|--------|--------|