Menu:

 

Search:

 

stiff little fingers - barbed wire love:

 



Title: Barbed Wire Love
Artist: 
Album: Inflammable Material
Author: Jake Burns


Track 1: Rythm Guitar

E|--------|------------------|--------|------------------|--------|---------------------------------|
B|--------|------------------|--------|------------------|--------|---------------------------------|
G|-2------|------------------|-2------|------------------|-2------|---------------------------------|
D|-2------|-2-----2-----2----|-2------|-2-----2-----2----|-2------|---------------------------------|
A|-0------|-2-----2-----2----|-0------|-2-----2-----2----|-0------|-2---2---2---2---2---2---2---2---|
E|--------|-0-----0-----0----|--------|-0-----0-----0----|--------|-0---0---0---0---0---0---0---0---|


E|---------------------------------|---------------------------|---------------------------|
B|---------------------------------|---------------------------|---------------------------|
G|---------------------------------|-2--------2----------------|-7--------7----------------|
D|---------------------------------|-2----2---2----2---2---2---|-7----7---7----7---7---7---|
A|-2---2---2---2---2---2---2---2---|-0----0---0----0---0---0---|-5----5---5----5---5---5---|
E|-0---0---0---0---0---0---0---0---|---------------------------|---------------------------|


E|---------------------------|---------------------------|---------------------------|
B|---------------------------|---------------------------|---------------------------|
G|---------------------------|---------------------------|-2--------2----------------|
D|-9--------9----------------|-2--------2----------------|-2----2---2----2---2---2---|
A|-9----9---9----9---9---9---|-2----2---2----2---2---2---|-0----0---0----0---0---0---|
E|-7----7---7----7---7---7---|-0----0---0----0---0---0---|---------------------------|


E|---------------------------|---------------------------|---------------------------|
B|---------------------------|---------------------------|---------------------------|
G|-7--------7----------------|---------------------------|---------------------------|
D|-7----7---7----7---7---7---|-9--------9----------------|-2--------2----------------|
A|-5----5---5----5---5---5---|-9----9---9----9---9---9---|-2----2---2----2---2---2---|
E|---------------------------|-7----7---7----7---7---7---|-0----0---0----0---0---0---|


E|---------------------------|---------------------------|------------------------------|
B|---------------------------|---------------------------|------------------------------|
G|-2--------2----------------|-7--------7----------------|------------------------------|
D|-2----2---2----2---2---2---|-7----7---7----7---7---7---|-2----------------------------|
A|-0----0---0----0---0---0---|-5----5---5----5---5---5---|-2----2---2---2---2---2---2---|
E|---------------------------|---------------------------|-0----0---0---0---0---0---0---|


E|---------------------------|--------|------------------|--------|------------------|
B|---------------------------|--------|------------------|--------|------------------|
G|---------------------------|-2------|------------------|-2------|------------------|
D|-----------------2----2----|-2------|-2-----2-----2----|-2------|-2-----2-----2----|
A|-2---2---2---2---2----2----|-0------|-2-----2-----2----|-0------|-2-----2-----2----|
E|-0---0---0---0---0----0----|--------|-0-----0-----0----|--------|-0-----0-----0----|


E|---------------------------------|---------------------------------|---------------------------|
B|---------------------------------|---------------------------------|---------------------------|
G|---------------------------------|---------------------------------|---------------------------|
D|-2---2---2---2---2---2---2---2---|-2---2---2---2---2---2---2---2---|-2--------2----------------|
A|-0---0---0---0---0---0---0---0---|-0---0---0---0---0---0---0---0---|-2----2---2----2---2---2---|
E|---------------------------------|---------------------------------|-0----0---0----0---0---0---|


E|---------------------------|---------------------------|---------------------------|
B|---------------------------|---------------------------|---------------------------|
G|-7--------7----------------|---------------------------|---------------------------|
D|-7----7---7----7---7---7---|-7--------7----------------|-2--------2----------------|
A|-5----5---5----5---5---5---|-7----7---7----7---7---7---|-2----2---2----2---2---2---|
E|---------------------------|-5----5---5----5---5---5---|-0----0---0----0---0---0---|


E|---------------------------|---------------------------|---------------------------|
B|---------------------------|---------------------------|---------------------------|
G|---------------------------|-7--------7----------------|---------------------------|
D|-2--------2----------------|-7----7---7----7---7---7---|-7--------7----------------|
A|-2----2---2----2---2---2---|-5----5---5----5---5---5---|-7----7---7----7---7---7---|
E|-0----0---0----0---0---0---|---------------------------|-5----5---5----5---5---5---|


E|---------------------------|---------------------------|---------------------------|
B|---------------------------|---------------------------|---------------------------|
G|---------------------------|---------------------------|-9-----9-------9-------9---|
D|-9-----9-------9-------9---|-9-----9-------9-------9---|-9-----9-------9-------9---|
A|-9-----9-------9-------9---|-9-----9-------9-------9---|-7-----7-------7-------7---|
E|-7-----7-------7-------7---|-7-----7-------7-------7---|---------------------------|


E|---------------------------------|---------------------------|---------------------------|
B|---------------------------------|---------------------------|---------------------------|
G|-9---9---9---9---9---9---9---9---|-2--------2----------------|-7--------7----------------|
D|-9---9---9---9---9---9---9---9---|-2----2---2----2---2---2---|-7----7---7----7---7---7---|
A|-7---7---7---7---7---7---7---7---|-0----0---0----0---0---0---|-5----5---5----5---5---5---|
E|---------------------------------|---------------------------|---------------------------|


E|---------------------------|---------------------------|---------------------------|
B|---------------------------|---------------------------|---------------------------|
G|---------------------------|---------------------------|-2--------2----------------|
D|-9--------9----------------|-2--------2----------------|-2----2---2----2---2---2---|
A|-9----9---9----9---9---9---|-2----2---2----2---2---2---|-0----0---0----0---0---0---|
E|-7----7---7----7---7---7---|-0----0---0----0---0---0---|---------------------------|


E|---------------------------|---------------------------|---------------------------|
B|---------------------------|---------------------------|---------------------------|
G|-7--------7----------------|---------------------------|---------------------------|
D|-7----7---7----7---7---7---|-9--------9----------------|-2--------2----------------|
A|-5----5---5----5---5---5---|-9----9---9----9---9---9---|-2----2---2----2---2---2---|
E|---------------------------|-7----7---7----7---7---7---|-0----0---0----0---0---0---|


E|---------------------------|---------------------------|------------------------------|
B|---------------------------|---------------------------|------------------------------|
G|-2--------2----------------|-7--------7----------------|------------------------------|
D|-2----2---2----2---2---2---|-7----7---7----7---7---7---|-2----------------------------|
A|-0----0---0----0---0---0---|-5----5---5----5---5---5---|-2----2---2---2---2---2---2---|
E|---------------------------|---------------------------|-0----0---0---0---0---0---0---|


E|---------------------------|--------|------------------|--------|------------------|
B|---------------------------|--------|------------------|--------|------------------|
G|---------------------------|-2------|------------------|-2------|------------------|
D|-----------------2----2----|-2------|-2-----2-----2----|-2------|-2-----2-----2----|
A|-2---2---2---2---2----2----|-0------|-2-----2-----2----|-0------|-2-----2-----2----|
E|-0---0---0---0---0----0----|--------|-0-----0-----0----|--------|-0-----0-----0----|


E|---------------------------------|---------------------------------|---------------------------|
B|---------------------------------|---------------------------------|---------------------------|
G|---------------------------------|---------------------------------|---------------------------|
D|-2---2---2---2---2---2---2---2---|-2---2---2---2---2---2---2---2---|-2--------2----------------|
A|-0---0---0---0---0---0---0---0---|-0---0---0---0---0---0---0---0---|-2----2---2----2---2---2---|
E|---------------------------------|---------------------------------|-0----0---0----0---0---0---|


E|---------------------------|---------------------------|---------------------------|
B|---------------------------|---------------------------|---------------------------|
G|-7--------7----------------|---------------------------|---------------------------|
D|-7----7---7----7---7---7---|-7--------7----------------|-2--------2----------------|
A|-5----5---5----5---5---5---|-7----7---7----7---7---7---|-2----2---2----2---2---2---|
E|---------------------------|-5----5---5----5---5---5---|-0----0---0----0---0---0---|


E|---------------------------|---------------------------|---------------------------|
B|---------------------------|---------------------------|---------------------------|
G|---------------------------|-7--------7----------------|---------------------------|
D|-2--------2----------------|-7----7---7----7---7---7---|-7--------7----------------|
A|-2----2---2----2---2---2---|-5----5---5----5---5---5---|-7----7---7----7---7---7---|
E|-0----0---0----0---0---0---|---------------------------|-5----5---5----5---5---5---|


E|---------------------------|---------------------------|---------------------------|
B|---------------------------|---------------------------|---------------------------|
G|---------------------------|---------------------------|-9-----9-------9-------9---|
D|-9-----9-------9-------9---|-9-----9-------9-------9---|-9-----9-------9-------9---|
A|-9-----9-------9-------9---|-9-----9-------9-------9---|-7-----7-------7-------7---|
E|-7-----7-------7-------7---|-7-----7-------7-------7---|---------------------------|


E|---------------------------------|---------------------------|---------------------------|
B|---------------------------------|---------------------------|---------------------------|
G|-9---9---9---9---9---9---9---9---|-2--------2----------------|-7--------7----------------|
D|-9---9---9---9---9---9---9---9---|-2----2---2----2---2---2---|-7----7---7----7---7---7---|
A|-7---7---7---7---7---7---7---7---|-0----0---0----0---0---0---|-5----5---5----5---5---5---|
E|---------------------------------|---------------------------|---------------------------|


E|---------------------------|---------------------------|---------------------------|
B|---------------------------|---------------------------|---------------------------|
G|---------------------------|---------------------------|-2--------2----------------|
D|-9--------9----------------|-2--------2----------------|-2----2---2----2---2---2---|
A|-9----9---9----9---9---9---|-2----2---2----2---2---2---|-0----0---0----0---0---0---|
E|-7----7---7----7---7---7---|-0----0---0----0---0---0---|---------------------------|


E|---------------------------|---------------------------|---------------------------|
B|---------------------------|---------------------------|---------------------------|
G|-7--------7----------------|---------------------------|---------------------------|
D|-7----7---7----7---7---7---|-9--------9----------------|-2--------2----------------|
A|-5----5---5----5---5---5---|-9----9---9----9---9---9---|-2----2---2----2---2---2---|
E|---------------------------|-7----7---7----7---7---7---|-0----0---0----0---0---0---|


E|---------------------------|---------------------------|------------------------------|
B|---------------------------|---------------------------|------------------------------|
G|-2--------2----------------|-7--------7----------------|------------------------------|
D|-2----2---2----2---2---2---|-7----7---7----7---7---7---|-2----------------------------|
A|-0----0---0----0---0---0---|-5----5---5----5---5---5---|-2----2---2---2---2---2---2---|
E|---------------------------|---------------------------|-0----0---0---0---0---0---0---|


E|---------------------------|--------|------------------|--------|------------------|
B|---------------------------|--------|------------------|--------|------------------|
G|---------------------------|-2------|------------------|-2------|------------------|
D|-----------------2----2----|-2------|-2-----2-----2----|-2------|-2-----2-----2----|
A|-2---2---2---2---2----2----|-0------|-2-----2-----2----|-0------|-2-----2-----2----|
E|-0---0---0---0---0----0----|--------|-0-----0-----0----|--------|-0-----0-----0----|


E|---------------------------------|---------------------------------|--------|--------|
B|---------------------------------|---------------------------------|--------|--------|
G|---------------------------------|---------------------------------|-9------|-9------|
D|-2---2---2---2---2---2---2---2---|-2---2---2---2---2---2---2---2---|-9------|-9------|
A|-0---0---0---0---0---0---0---0---|-0---0---0---0---0---0---0---0---|-7------|-7------|
E|---------------------------------|---------------------------------|--------|--------|


E|--------|--------|--------|-------------|---------------------|--------|-------------|
B|--------|--------|--------|-------------|---------------------|--------|-------------|
G|-7------|-7------|--------|-------------|---------------------|--------|-------------|
D|-7------|-7------|-2------|-------2-----|---------------------|--------|-------------|
A|-5------|-5------|-2------|-------2-----|------7----9----7----|-0------|-------0-----|
E|--------|--------|-0------|-------0-----|---------------------|--------|-------------|


E|--------|--------|-------------|---------------------|--------|-------------|--------|
B|--------|--------|-------------|---------------------|--------|-------------|--------|
G|--------|--------|-------------|---------------------|--------|-------------|--------|
D|--------|--------|-------------|---------------------|--------|-------------|--------|
A|--------|--------|-------------|------7----9----7----|-0------|-------0-----|--------|
E|--------|--------|-------------|---------------------|--------|-------------|--------|


E|--------|-------------|---------------------|--------|-------------|--------|--------|
B|--------|-------------|---------------------|--------|-------------|--------|--------|
G|--------|-------------|---------------------|--------|-------------|--------|--------|
D|--------|-------------|---------------------|--------|-------------|--------|--------|
A|--------|-------------|------7----9----7----|-0------|-------0-----|--------|--------|
E|--------|-------------|---------------------|--------|-------------|--------|--------|


E|-------------|---------------------|--------|-------------|--------|--------|-------------|
B|-------------|---------------------|--------|-------------|--------|--------|-------------|
G|-------------|---------------------|--------|-------------|--------|--------|-------------|
D|-------------|---------------------|--------|-------------|--------|--------|-------------|
A|-------------|------7----9----7----|-0------|-------0-----|--------|--------|-------------|
E|-------------|---------------------|--------|-------------|--------|--------|-------------|


E|---------------------|--------|-------------|--------|--------|-------------|---------------------|
B|---------------------|--------|-------------|--------|--------|-------------|---------------------|
G|---------------------|--------|-------------|--------|--------|-------------|---------------------|
D|---------------------|--------|-------------|--------|--------|-------------|---------------------|
A|------7----9----7----|-0------|-------0-----|--------|--------|-------------|------7----9----7----|
E|---------------------|--------|-------------|--------|--------|-------------|---------------------|


E|---------------------|---------------------|---------------------|--------|-------------|
B|-2-----2---2----2----|---------------------|---------------------|--------|-------------|
G|-2-----2---2----2----|-4----6----7-----7---|-7----7----9----11---|-1------|-------1-----|
D|-2-----2---2----2----|-4----6----7-----7---|-7----7----9----11---|-2------|-------2-----|
A|-0-----0---0----0----|-2----4----5-----5---|-5----5----7----9----|-2------|-------2-----|
E|---------------------|---------------------|---------------------|-0------|-------0-----|


E|-------------|---------------------------------|---------------------------|---------------------------------|
B|-------------|---------------------------------|---------------------------|---------------------------------|
G|-------------|-7-------7-------7-----------7---|-----7-------7---7----7----|---------------------------------|
D|-------------|-7-------7-------7-----------7---|-----7-------7---7----7----|-2-------2-------2-----------2---|
A|-------------|-5---5---5---5---5---5---5---5---|-5---5---5---5---5----5----|-2-------2-------2-----------2---|
E|-------------|---------------------------------|---------------------------|-0---0---0---0---0---0---0---0---|


E|-----------------------|------------------------------|---------------------------|
B|-----------------------|------------------------------|---------------------------|
G|-----------------------|-7-------7-------7--------7---|-----7-------7---7----7----|
D|-----2-------2---2-----|-7-------7-------7--------7---|-----7-------7---7----7----|
A|-----2-------2---2-----|-5-------5-------5--------5---|-----5-------5---5----5----|
E|-0---0---0---0---0-----|------------------------------|---------------------------|


E|------------------------------|---------------------------|------------------------------|
B|------------------------------|---------------------------|------------------------------|
G|------------------------------|---------------------------|-7-------7-------7--------7---|
D|-2-------2-------2--------2---|-----2-------2---2----2----|-7-------7-------7--------7---|
A|-2-------2-------2--------2---|-----2-------2---2----2----|-5-------5-------5--------5---|
E|-0-------0-------0--------0---|-----0-------0---0----0----|------------------------------|


E|---------------------------|------------------------------|---------------------------|
B|---------------------------|------------------------------|---------------------------|
G|-----7-------7---7----7----|------------------------------|---------------------------|
D|-----7-------7---7----7----|-2-------2-------2--------2---|-----2-------2---2----2----|
A|-----5-------5---5----5----|-2-------2-------2--------2---|-----2-------2---2----2----|
E|---------------------------|-0-------0-------0--------0---|-----0-------0---0----0----|


E|--------|------------------|--------|------------------|---------------------------------|
B|--------|------------------|--------|------------------|---------------------------------|
G|-2------|------------------|-2------|------------------|---------------------------------|
D|-2------|-2-----2-----2----|-2------|-2-----2-----2----|-2---2---2---2---2---2---2---2---|
A|-0------|-2-----2-----2----|-0------|-2-----2-----2----|-0---0---0---0---0---0---0---0---|
E|--------|-0-----0-----0----|--------|-0-----0-----0----|---------------------------------|


E|---------------------------------|---------------------------|---------------------------|
B|---------------------------------|---------------------------|---------------------------|
G|---------------------------------|---------------------------|-7--------7----------------|
D|-2---2---2---2---2---2---2---2---|-2--------2----------------|-7----7---7----7---7---7---|
A|-0---0---0---0---0---0---0---0---|-2----2---2----2---2---2---|-5----5---5----5---5---5---|
E|---------------------------------|-0----0---0----0---0---0---|---------------------------|


E|---------------------------|---------------------------|---------------------------|
B|---------------------------|---------------------------|---------------------------|
G|---------------------------|---------------------------|---------------------------|
D|-7--------7----------------|-2--------2----------------|-2--------2----------------|
A|-7----7---7----7---7---7---|-2----2---2----2---2---2---|-2----2---2----2---2---2---|
E|-5----5---5----5---5---5---|-0----0---0----0---0---0---|-0----0---0----0---0---0---|


E|---------------------------|---------------------------|---------------------------|
B|---------------------------|---------------------------|---------------------------|
G|-7--------7----------------|---------------------------|---------------------------|
D|-7----7---7----7---7---7---|-7--------7----------------|-9-----9-------9-------9---|
A|-5----5---5----5---5---5---|-7----7---7----7---7---7---|-9-----9-------9-------9---|
E|---------------------------|-5----5---5----5---5---5---|-7-----7-------7-------7---|


E|---------------------------|---------------------------|---------------------------------|
B|---------------------------|---------------------------|---------------------------------|
G|---------------------------|-9-----9-------9-------9---|-9---9---9---9---9---9---9---9---|
D|-9-----9-------9-------9---|-9-----9-------9-------9---|-9---9---9---9---9---9---9---9---|
A|-9-----9-------9-------9---|-7-----7-------7-------7---|-7---7---7---7---7---7---7---7---|
E|-7-----7-------7-------7---|---------------------------|---------------------------------|


E|---------------------------|---------------------------|---------------------------|
B|---------------------------|---------------------------|---------------------------|
G|-2--------2----------------|-7--------7----------------|---------------------------|
D|-2----2---2----2---2---2---|-7----7---7----7---7---7---|-9--------9----------------|
A|-0----0---0----0---0---0---|-5----5---5----5---5---5---|-9----9---9----9---9---9---|
E|---------------------------|---------------------------|-7----7---7----7---7---7---|


E|---------------------------|---------------------------|---------------------------|
B|---------------------------|---------------------------|---------------------------|
G|---------------------------|-2--------2----------------|-7--------7----------------|
D|-2--------2----------------|-2----2---2----2---2---2---|-7----7---7----7---7---7---|
A|-2----2---2----2---2---2---|-0----0---0----0---0---0---|-5----5---5----5---5---5---|
E|-0----0---0----0---0---0---|---------------------------|---------------------------|


E|---------------------------|---------------------------|---------------------------|
B|---------------------------|---------------------------|---------------------------|
G|---------------------------|---------------------------|-2--------2----------------|
D|-9--------9----------------|-2--------2----------------|-2----2---2----2---2---2---|
A|-9----9---9----9---9---9---|-2----2---2----2---2---2---|-0----0---0----0---0---0---|
E|-7----7---7----7---7---7---|-0----0---0----0---0---0---|---------------------------|


E|---------------------------|------------------------------|---------------------------|
B|---------------------------|------------------------------|---------------------------|
G|-7--------7----------------|------------------------------|---------------------------|
D|-7----7---7----7---7---7---|-2----------------------------|-----------------2----2----|
A|-5----5---5----5---5---5---|-2----2---2---2---2---2---2---|-2---2---2---2---2----2----|
E|---------------------------|-0----0---0---0---0---0---0---|-0---0---0---0---0----0----|


E|--------|------------------|--------|------------------|--------|------------------|
B|--------|------------------|--------|------------------|--------|------------------|
G|-2------|------------------|-2------|------------------|-2------|------------------|
D|-2------|-2-----2-----2----|-2------|-2-----2-----2----|-2------|-2-----2-----2----|
A|-0------|-2-----2-----2----|-0------|-2-----2-----2----|-0------|-2-----2-----2----|
E|--------|-0-----0-----0----|--------|-0-----0-----0----|--------|-0-----0-----0----|


E|-0------|
B|-2------|
G|-2------|
D|-2------|
A|-0------|
E|--------|





Track 2: Lead Guitar

E|------------------------------|------------------|------------------------------|
B|-2----2---3---2---3---2-------|------------------|-2----2---3---2---3---2-------|
G|-2----2---2---2---2---2-------|-1-----1-----1----|-2----2---2---2---2---2-------|
D|-2----2---2---2---2---2-------|-2-----2-----2----|-2----2---2---2---2---2-------|
A|-0----0---0---0---0---0-------|-2-----2-----2----|-0----0---0---0---0---0-------|
E|------------------------------|-0-----0-----0----|------------------------------|


E|------------------|------------------------------|---------------------------------|
B|------------------|-2----2---3---2---3---2-------|---------------------------------|
G|-1-----1-----1----|-2----2---2---2---2---2-------|---------------------------------|
D|-2-----2-----2----|-2----2---2---2---2---2-------|-2---2---2---2---2---2---2---2---|
A|-2-----2-----2----|-0----0---0---0---0---0-------|-2---2---2---2---2---2---2---2---|
E|-0-----0-----0----|------------------------------|-0---0---0---0---0---0---0---0---|


E|---------------------------------|-0-----0----------------|-2-----2----------------|
B|---------------------------------|-2-----2----2-----------|-3-----3----3-----------|
G|---------------------------------|-2-----2------------2---|-2-----2------------2---|
D|-2---2---2---2---2---2---2---2---|-2-----2--------2-------|-0-----0--------0-------|
A|-2---2---2---2---2---2---2---2---|-0-----0----------------|------------------------|
E|-0---0---0---0---0---0---0---0---|------------------------|------------------------|


E|-7-----7----------------|-0-----0----------------|-0-----0----------------|-2-----2----------------|
B|-7-----7----------------|-0-----0----0-----------|-2-----2----2-----------|-3-----3----3-----------|
G|-8-----8----8-----------|-1-----1------------1---|-2-----2------------2---|-2-----2------------2---|
D|-9-----9------------9---|-2-----2--------2-------|-2-----2--------2-------|-0-----0--------0-------|
A|-9-----9--------9-------|-2-----2----------------|-0-----0----------------|------------------------|
E|-7-----7----------------|-0-----0----------------|------------------------|------------------------|


E|-7-----7----------------|-0-----0----------------|-0-----0----------------|-2-----2----------------|
B|-7-----7----------------|-0-----0----0-----------|-2-----2----2-----------|-3-----3----3-----------|
G|-8-----8----8-----------|-1-----1------------1---|-2-----2------------2---|-2-----2------------2---|
D|-9-----9------------9---|-2-----2--------2-------|-2-----2--------2-------|-0-----0--------0-------|
A|-9-----9--------9-------|-2-----2----------------|-0-----0----------------|------------------------|
E|-7-----7----------------|-0-----0----------------|------------------------|------------------------|


E|------------------------------|---------------------------|------------------------------|
B|------------------------------|---------------------------|-2----2---3---2---3---2-------|
G|-1----------------------------|-----------------1----1----|-2----2---2---2---2---2-------|
D|-2----------------------------|-----------------2----2----|-2----2---2---2---2---2-------|
A|-2----2---2---2---2---2---2---|-2---2---2---2---2----2----|-0----0---0---0---0---0-------|
E|-0----0---0---0---0---0---0---|-0---0---0---0---0----0----|------------------------------|


E|------------------|------------------------------|------------------|--------|--------------------|
B|------------------|-2----2---3---2---3---2-------|------------------|--------|--------------------|
G|-1-----1-----1----|-2----2---2---2---2---2-------|-1-----1-----1----|-2------|-2-----2---7---7----|
D|-2-----2-----2----|-2----2---2---2---2---2-------|-2-----2-----2----|-2------|-2-----2---7---7----|
A|-2-----2-----2----|-0----0---0---0---0---0-------|-2-----2-----2----|-0------|-0-----0---5---5----|
E|-0-----0-----0----|------------------------------|-0-----0-----0----|--------|--------------------|


E|---------------------------|-2----2---2----------------|---------------------------|
B|---------------------------|-3----3---3----3---3---3---|-2----2---2----------------|
G|-1----1---1----------------|-2----2---2----2---2---2---|-2----2---2----2---2---2---|
D|-2----2---2----2---2---2---|-0----0---0----0---0---0---|-2----2---2----2---2---2---|
A|-2----2---2----2---2---2---|---------------------------|-0----0---0----0---0---0---|
E|-0----0---0----0---0---0---|---------------------------|---------------------------|


E|---------------------------|---------------------------|-2----2---2----------------|
B|---------------------------|---------------------------|-3----3---3----3---3---3---|
G|-1----1---1----------------|-1----1---1----------------|-2----2---2----2---2---2---|
D|-2----2---2----2---2---2---|-2----2---2----2---2---2---|-0----0---0----0---0---0---|
A|-2----2---2----2---2---2---|-2----2---2----2---2---2---|---------------------------|
E|-0----0---0----0---0---0---|-0----0---0----0---0---0---|---------------------------|


E|---------------------------|---------------------------|---------------------------|
B|-2----2---2----------------|---------------------------|---------------------------|
G|-2----2---2----2---2---2---|-8-----8-------8-------8---|-8-----8-------8-------8---|
D|-2----2---2----2---2---2---|-9-----9-------9-------9---|-9-----9-------9-------9---|
A|-0----0---0----0---0---0---|-9-----9-------9-------9---|-9-----9-------9-------9---|
E|---------------------------|-7-----7-------7-------7---|-7-----7-------7-------7---|


E|---------------------------|---------------------------------|-0-----0----------------|
B|---------------------------|---------------------------------|-2-----2----2-----------|
G|-9-----9-------9-------9---|-9---9---9---9---9---9---9---9---|-2-----2------------2---|
D|-9-----9-------9-------9---|-9---9---9---9---9---9---9---9---|-2-----2--------2-------|
A|-7-----7-------7-------7---|-7---7---7---7---7---7---7---7---|-0-----0----------------|
E|---------------------------|---------------------------------|------------------------|


E|-2-----2----------------|-7-----7----------------|-0-----0----------------|-0-----0----------------|
B|-3-----3----3-----------|-7-----7----------------|-0-----0----0-----------|-2-----2----2-----------|
G|-2-----2------------2---|-8-----8----8-----------|-1-----1------------1---|-2-----2------------2---|
D|-0-----0--------0-------|-9-----9------------9---|-2-----2--------2-------|-2-----2--------2-------|
A|------------------------|-9-----9--------9-------|-2-----2----------------|-0-----0----------------|
E|------------------------|-7-----7----------------|-0-----0----------------|------------------------|


E|-2-----2----------------|-7-----7----------------|-0-----0----------------|-0-----0----------------|
B|-3-----3----3-----------|-7-----7----------------|-0-----0----0-----------|-2-----2----2-----------|
G|-2-----2------------2---|-8-----8----8-----------|-1-----1------------1---|-2-----2------------2---|
D|-0-----0--------0-------|-9-----9------------9---|-2-----2--------2-------|-2-----2--------2-------|
A|------------------------|-9-----9--------9-------|-2-----2----------------|-0-----0----------------|
E|------------------------|-7-----7----------------|-0-----0----------------|------------------------|


E|-2-----2----------------|------------------------------|---------------------------|
B|-3-----3----3-----------|------------------------------|---------------------------|
G|-2-----2------------2---|-1----------------------------|-----------------1----1----|
D|-0-----0--------0-------|-2----------------------------|-----------------2----2----|
A|------------------------|-2----2---2---2---2---2---2---|-2---2---2---2---2----2----|
E|------------------------|-0----0---0---0---0---0---0---|-0---0---0---0---0----0----|


E|------------------------------|------------------|------------------------------|
B|-2----2---3---2---3---2---2---|------------------|-2----2---3---2---3---2---2---|
G|-2----2---2---2---2---2---2---|-1-----1-----1----|-2----2---2---2---2---2---2---|
D|-2----2---2---2---2---2---2---|-2-----2-----2----|-2----2---2---2---2---2---2---|
A|-0----0---0---0---0---0---0---|-2-----2-----2----|-0----0---0---0---0---0---0---|
E|------------------------------|-0-----0-----0----|------------------------------|


E|------------------|--------|--------------------|---------------------------|-2----2---2----------------|
B|------------------|--------|--------------------|---------------------------|-3----3---3----3---3---3---|
G|-1-----1-----1----|-2------|-2-----2---7---7----|-1----1---1----------------|-2----2---2----2---2---2---|
D|-2-----2-----2----|-2------|-2-----2---7---7----|-2----2---2----2---2---2---|-0----0---0----0---0---0---|
A|-2-----2-----2----|-0------|-0-----0---5---5----|-2----2---2----2---2---2---|---------------------------|
E|-0-----0-----0----|--------|--------------------|-0----0---0----0---0---0---|---------------------------|


E|---------------------------|---------------------------|---------------------------|
B|-2----2---2----------------|---------------------------|---------------------------|
G|-2----2---2----2---2---2---|-1----1---1----------------|-1----1---1----------------|
D|-2----2---2----2---2---2---|-2----2---2----2---2---2---|-2----2---2----2---2---2---|
A|-0----0---0----0---0---0---|-2----2---2----2---2---2---|-2----2---2----2---2---2---|
E|---------------------------|-0----0---0----0---0---0---|-0----0---0----0---0---0---|


E|-2----2---2----------------|---------------------------|---------------------------|
B|-3----3---3----3---3---3---|-2----2---2----------------|---------------------------|
G|-2----2---2----2---2---2---|-2----2---2----2---2---2---|-8-----8-------8-------8---|
D|-0----0---0----0---0---0---|-2----2---2----2---2---2---|-9-----9-------9-------9---|
A|---------------------------|-0----0---0----0---0---0---|-9-----9-------9-------9---|
E|---------------------------|---------------------------|-7-----7-------7-------7---|


E|---------------------------|---------------------------|---------------------------------|
B|---------------------------|---------------------------|---------------------------------|
G|-8-----8-------8-------8---|-9-----9-------9-------9---|-9---9---9---9---9---9---9---9---|
D|-9-----9-------9-------9---|-9-----9-------9-------9---|-9---9---9---9---9---9---9---9---|
A|-9-----9-------9-------9---|-7-----7-------7-------7---|-7---7---7---7---7---7---7---7---|
E|-7-----7-------7-------7---|---------------------------|---------------------------------|


E|-0-----0----------------|-2-----2----------------|-7-----7----------------|-0-----0----------------|
B|-2-----2----2-----------|-3-----3----3-----------|-7-----7----------------|-0-----0----0-----------|
G|-2-----2------------2---|-2-----2------------2---|-8-----8----8-----------|-1-----1------------1---|
D|-2-----2--------2-------|-0-----0--------0-------|-9-----9------------9---|-2-----2--------2-------|
A|-0-----0----------------|------------------------|-9-----9--------9-------|-2-----2----------------|
E|------------------------|------------------------|-7-----7----------------|-0-----0----------------|


E|-0-----0----------------|-2-----2----------------|-7-----7----------------|-0-----0----------------|
B|-2-----2----2-----------|-3-----3----3-----------|-7-----7----------------|-0-----0----0-----------|
G|-2-----2------------2---|-2-----2------------2---|-8-----8----8-----------|-1-----1------------1---|
D|-2-----2--------2-------|-0-----0--------0-------|-9-----9------------9---|-2-----2--------2-------|
A|-0-----0----------------|------------------------|-9-----9--------9-------|-2-----2----------------|
E|------------------------|------------------------|-7-----7----------------|-0-----0----------------|


E|-0-----0----------------|-2-----2----------------|------------------------------|
B|-2-----2----2-----------|-3-----3----3-----------|------------------------------|
G|-2-----2------------2---|-2-----2------------2---|-1----------------------------|
D|-2-----2--------2-------|-0-----0--------0-------|-2----------------------------|
A|-0-----0----------------|------------------------|-2----2---2---2---2---2---2---|
E|------------------------|------------------------|-0----0---0---0---0---0---0---|


E|---------------------------|------------------------------|------------------|------------------------------|
B|---------------------------|-2----2---3---2---3---2---2---|------------------|-2----2---3---2---3---2---2---|
G|-----------------1----1----|-2----2---2---2---2---2---2---|-1-----1-----1----|-2----2---2---2---2---2---2---|
D|-----------------2----2----|-2----2---2---2---2---2---2---|-2-----2-----2----|-2----2---2---2---2---2---2---|
A|-2---2---2---2---2----2----|-0----0---0---0---0---0---0---|-2-----2-----2----|-0----0---0---0---0---0---0---|
E|-0---0---0---0---0----0----|------------------------------|-0-----0-----0----|------------------------------|


E|------------------|--------|--------------------|--------|--------|--------|--------|
B|------------------|--------|--------------------|--------|--------|--------|--------|
G|-1-----1-----1----|-2------|-2-----2---7---7----|-9------|-9------|-7------|-7------|
D|-2-----2-----2----|-2------|-2-----2---7---7----|-9------|-9------|-7------|-7------|
A|-2-----2-----2----|-0------|-0-----0---5---5----|-7------|-7------|-5------|-5------|
E|-0-----0-----0----|--------|--------------------|--------|--------|--------|--------|


E|--------|-------------|---------------------|-------------------0----|------------------------|
B|--------|-------------|---------------------|--------------2---------|-2----------------------|
G|-1------|-------1-----|---------------------|----------2-------------|------2-----------------|
D|-2------|-------2-----|---------------------|------2-----------------|--------------------4---|
A|-2------|-------2-----|---------------------|-0----------------------|----------------4-------|
E|-0------|-------0-----|------0----2----4----|------------------------|-----------2------------|


E|------2--------------|--------------2----2----|------------------------|---------------------|
B|-----------2---------|----------3-------------|-3----------------------|---------------------|
G|-3--------------3----|------2-----------------|------2-----------------|-1-------------------|
D|---------------------|-0----------------------|--------------------2---|---------------------|
A|---------------------|------------------------|----------------2-------|---------------------|
E|---------------------|------------------------|-----------0------------|------0----2----4----|


E|-------------------0----|------------------------|------2--------------|--------------2----2----|
B|--------------2---------|-2----------------------|-----------2---------|----------3-------------|
G|----------2-------------|------2-----------------|-3--------------3----|------2-----------------|
D|------2-----------------|--------------------4---|---------------------|-0----------------------|
A|-0----------------------|----------------4-------|---------------------|------------------------|
E|------------------------|-----------2------------|---------------------|------------------------|


E|------------------------|---------------------|-------------------0----|------------------------|
B|-3----------------------|---------------------|--------------2---------|-2----------------------|
G|------2-----------------|-1-------------------|----------2-------------|------2-----------------|
D|--------------------2---|---------------------|------2-----------------|--------------------4---|
A|----------------2-------|---------------------|-0----------------------|----------------4-------|
E|-----------0------------|------0----2----4----|------------------------|-----------2------------|


E|------2--------------|--------------2----2----|------------------------|---------------------|
B|-----------2---------|----------3-------------|-3----------------------|---------------------|
G|-3--------------3----|------2-----------------|------2-----------------|-1-------------------|
D|---------------------|-0----------------------|--------------------2---|---------------------|
A|---------------------|------------------------|----------------2-------|---------------------|
E|---------------------|------------------------|-----------0------------|------0----2----4----|


E|-------------------0----|------------------------|------2--------------|--------------2----2----|
B|--------------2---------|-2----------------------|-----------2---------|----------3-------------|
G|----------2-------------|------2-----------------|-3--------------3----|------2-----------------|
D|------2-----------------|--------------------4---|---------------------|-0----------------------|
A|-0----------------------|----------------4-------|---------------------|------------------------|
E|------------------------|-----------2------------|---------------------|------------------------|


E|------------------------|---------------------|-------------------0----|------------------------|
B|-3----------------------|---------------------|--------------2---------|-2----------------------|
G|------2-----------------|-1-------------------|----------2-------------|------2-----------------|
D|--------------------2---|---------------------|------2-----------------|--------------------4---|
A|----------------2-------|---------------------|-0----------------------|----------------4-------|
E|-----------0------------|------0----2----4----|------------------------|-----------2------------|


E|------2--------------|--------------2----2----|------------------------|---------------------|
B|-----------2---------|----------3-------------|-3----------------------|---------------------|
G|-3--------------3----|------2-----------------|------2-----------------|-1-------------------|
D|---------------------|-0----------------------|--------------------2---|---------------------|
A|---------------------|------------------------|----------------2-------|---------------------|
E|---------------------|------------------------|-----------0------------|------0----2----4----|


E|---------------------|---------------------|---------------------|--------|-------------|
B|-2-----2---2----2----|---------------------|---------------------|--------|-------------|
G|-2-----2---2----2----|-4----6----7-----7---|-7----7----6----4----|-1------|-------1-----|
D|-2-----2---2----2----|-4----6----7-----7---|-7----7----6----4----|-2------|-------2-----|
A|-0-----0---0----0----|-2----4----5-----5---|-5----5----4----2----|-2------|-------2-----|
E|---------------------|---------------------|---------------------|-0------|-------0-----|


E|-------------|--------|--------|--------|--------|------------------------------|
B|-------------|--------|--------|--------|--------|------------------------------|
G|-------------|--------|--------|--------|--------|-7-------7-------7--------7---|
D|-------------|--------|--------|--------|--------|-7-------7-------7--------7---|
A|-------------|--------|--------|--------|--------|-5-------5-------5--------5---|
E|-------------|--------|--------|--------|--------|------------------------------|


E|---------------------------|------------------------------|---------------------------|
B|---------------------------|------------------------------|---------------------------|
G|-----7-------7---7----7----|------------------------------|---------------------------|
D|-----7-------7---7----7----|-2-------2-------2--------2---|-----2-------2---2----2----|
A|-----5-------5---5----5----|-2-------2-------2--------2---|-----2-------2---2----2----|
E|---------------------------|-0-------0-------0--------0---|-----0-------0---0----0----|


E|------------------------------|---------------------------|------------------------------|
B|------------------------------|---------------------------|------------------------------|
G|-7-------7-------7--------7---|-----7-------7---7----7----|------------------------------|
D|-7-------7-------7--------7---|-----7-------7---7----7----|-2-------2-------2--------2---|
A|-5-------5-------5--------5---|-----5-------5---5----5----|-2-------2-------2--------2---|
E|------------------------------|---------------------------|-0-------0-------0--------0---|


E|---------------------------|------------------------------|------------------|------------------------------|
B|---------------------------|-2----2---3---2---3---2---2---|------------------|-2----2---3---2---3---2---2---|
G|---------------------------|-2----2---2---2---2---2---2---|-1-----1-----1----|-2----2---2---2---2---2---2---|
D|-----2-------2---2----2----|-2----2---2---2---2---2---2---|-2-----2-----2----|-2----2---2---2---2---2---2---|
A|-----2-------2---2----2----|-0----0---0---0---0---0---0---|-2-----2-----2----|-0----0---0---0---0---0---0---|
E|-----0-------0---0----0----|------------------------------|-0-----0-----0----|------------------------------|


E|------------------|--------|--------------------|---------------------------|-2----2---2----------------|
B|------------------|--------|--------------------|---------------------------|-3----3---3----3---3---3---|
G|-1-----1-----1----|-2------|-2-----2---7---7----|-1----1---1----------------|-2----2---2----2---2---2---|
D|-2-----2-----2----|-2------|-2-----2---7---7----|-2----2---2----2---2---2---|-0----0---0----0---0---0---|
A|-2-----2-----2----|-0------|-0-----0---5---5----|-2----2---2----2---2---2---|---------------------------|
E|-0-----0-----0----|--------|--------------------|-0----0---0----0---0---0---|---------------------------|


E|---------------------------|---------------------------|---------------------------|
B|-2----2---2----------------|---------------------------|---------------------------|
G|-2----2---2----2---2---2---|-1----1---1----------------|-1----1---1----------------|
D|-2----2---2----2---2---2---|-2----2---2----2---2---2---|-2----2---2----2---2---2---|
A|-0----0---0----0---0---0---|-2----2---2----2---2---2---|-2----2---2----2---2---2---|
E|---------------------------|-0----0---0----0---0---0---|-0----0---0----0---0---0---|


E|-2----2---2----------------|---------------------------|---------------------------|
B|-3----3---3----3---3---3---|-2----2---2----------------|---------------------------|
G|-2----2---2----2---2---2---|-2----2---2----2---2---2---|-8-----8-------8-------8---|
D|-0----0---0----0---0---0---|-2----2---2----2---2---2---|-9-----9-------9-------9---|
A|---------------------------|-0----0---0----0---0---0---|-9-----9-------9-------9---|
E|---------------------------|---------------------------|-7-----7-------7-------7---|


E|---------------------------|---------------------------|---------------------------------|
B|---------------------------|---------------------------|---------------------------------|
G|-8-----8-------8-------8---|-9-----9-------9-------9---|-9---9---9---9---9---9---9---9---|
D|-9-----9-------9-------9---|-9-----9-------9-------9---|-9---9---9---9---9---9---9---9---|
A|-9-----9-------9-------9---|-7-----7-------7-------7---|-7---7---7---7---7---7---7---7---|
E|-7-----7-------7-------7---|---------------------------|---------------------------------|


E|-0-----0----------------|-2-----2----------------|-7-----7----------------|-0-----0----------------|
B|-2-----2----2-----------|-3-----3----3-----------|-7-----7----------------|-0-----0----0-----------|
G|-2-----2------------2---|-2-----2------------2---|-8-----8----8-----------|-1-----1------------1---|
D|-2-----2--------2-------|-0-----0--------0-------|-9-----9------------9---|-2-----2--------2-------|
A|-0-----0----------------|------------------------|-9-----9--------9-------|-2-----2----------------|
E|------------------------|------------------------|-7-----7----------------|-0-----0----------------|


E|-0-----0----------------|-2-----2----------------|-7-----7----------------|-0-----0----------------|
B|-2-----2----2-----------|-3-----3----3-----------|-7-----7----------------|-0-----0----0-----------|
G|-2-----2------------2---|-2-----2------------2---|-8-----8----8-----------|-1-----1------------1---|
D|-2-----2--------2-------|-0-----0--------0-------|-9-----9------------9---|-2-----2--------2-------|
A|-0-----0----------------|------------------------|-9-----9--------9-------|-2-----2----------------|
E|------------------------|------------------------|-7-----7----------------|-0-----0----------------|


E|-0-----0----------------|-2-----2----------------|------------------------------|
B|-2-----2----2-----------|-3-----3----3-----------|------------------------------|
G|-2-----2------------2---|-2-----2------------2---|-1----------------------------|
D|-2-----2--------2-------|-0-----0--------0-------|-2----------------------------|
A|-0-----0----------------|------------------------|-2----2---2---2---2---2---2---|
E|------------------------|------------------------|-0----0---0---0---0---0---0---|


E|---------------------------|------------------------------|------------------|------------------------------|
B|---------------------------|-2----2---3---2---3---2---2---|------------------|-2----2---3---2---3---2---2---|
G|-----------------1----1----|-2----2---2---2---2---2---2---|-1-----1-----1----|-2----2---2---2---2---2---2---|
D|-----------------2----2----|-2----2---2---2---2---2---2---|-2-----2-----2----|-2----2---2---2---2---2---2---|
A|-2---2---2---2---2----2----|-0----0---0---0---0---0---0---|-2-----2-----2----|-0----0---0---0---0---0---0---|
E|-0---0---0---0---0----0----|------------------------------|-0-----0-----0----|------------------------------|


E|------------------|------------------------------|------------------|-0------|
B|------------------|-2----2---3---2---3---2---2---|------------------|-2------|
G|-1-----1-----1----|-2----2---2---2---2---2---2---|-1-----1-----1----|-2------|
D|-2-----2-----2----|-2----2---2---2---2---2---2---|-2-----2-----2----|-2------|
A|-2-----2-----2----|-0----0---0---0---0---0---0---|-2-----2-----2----|-0------|
E|-0-----0-----0----|------------------------------|-0-----0-----0----|--------|