Menu:

 

Search:

 

steve vai - wipeout 2000:

 



Title: Wipeout 2000
Artist: 
Album: Archives Vol.3 - Mystery Tracks
Author: Robert Earl Berryhill, et al.


Track 1: intro clean 

E|------------------------|-------------------------------------------------|-------------------------------------------------|
B|------------------------|-------------------------------------------------|-------------------------------------------------|
G|------------------------|-------------------------------------------------|-------------------------------------------8--9--|
D|------------------8--9--|-10-10-10-8--------8--9--10-10-10-8--------8--9--|-10-10-10-8--------8--9--10-10-10-8-----10-------|
A|---------------10-------|-------------10-10-------------------10-10-------|-------------10-10-------------------10----------|
E|------------------------|-------------------------------------------------|-------------------------------------------------|


E|-------------------------------------------------|-----------------------------------------------|
B|-------------------------------------------------|-----------------------------------------------|
G|-10-10-10-8--------8--9--10-10-10-8--------------|-----------------------------------------10-11-|
D|-------------10-10-------------------10----8--9--|-10--10-8--------8--9--10-10-10-8-----12-------|
A|----------------------------------------10-------|-----------10-10-------------------10----------|
E|-------------------------------------------------|-----------------------------------------------|


E|-----------------------------------------------|--------------------------------------------------|
B|-----------------------------------------------|--------------------------------------------------|
G|-12--12-10----10-12-10-10-10-10-8--------------|--------------------------------------------------|
D|-----------12----------------------10----8--9--|-10-10-10-8--------8--9--9------------------------|
A|--------------------------------------10-------|-------------10-10----------10-10-10-10-10-10-1010|
E|-----------------------------------------------|--------------------------------------------------|


E|-8------------------|-8------------------|-8------------------|-8------------------|
B|-8------------------|-8------------------|-10-----------------|-8------------------|
G|-9------------------|-9------------------|-10-----------------|-9------------------|
D|-10-----------------|-10-----------------|-10-----------------|-10-----------------|
A|--------------------|--------------------|--------------------|--------------------|
E|--------------------|--------------------|--------------------|--------------------|


E|-10-------------8---------------|-8------------------|--------|--------|--------|
B|-12-------------10--------------|-8------------------|--------|--------|--------|
G|-12-------------10--------------|-9------------------|--------|--------|--------|
D|-12-------------10--------------|-10-----------------|--------|--------|--------|
A|--------------------------------|--------------------|--------|--------|--------|
E|--------------------------------|--------------------|--------|--------|--------|


E|--------|--------|--------|--------|--------|--------|--------|--------|--------|
B|--------|--------|--------|--------|--------|--------|--------|--------|--------|
G|--------|--------|--------|--------|--------|--------|--------|--------|--------|
D|--------|--------|--------|--------|--------|--------|--------|--------|--------|
A|--------|--------|--------|--------|--------|--------|--------|--------|--------|
E|--------|--------|--------|--------|--------|--------|--------|--------|--------|


E|--------|--------|--------|--------|--------|--------|--------|--------|--------|
B|--------|--------|--------|--------|--------|--------|--------|--------|--------|
G|--------|--------|--------|--------|--------|--------|--------|--------|--------|
D|--------|--------|--------|--------|--------|--------|--------|--------|--------|
A|--------|--------|--------|--------|--------|--------|--------|--------|--------|
E|--------|--------|--------|--------|--------|--------|--------|--------|--------|


E|--------|--------|--------|--------|--------|--------|--------|--------|--------|
B|--------|--------|--------|--------|--------|--------|--------|--------|--------|
G|--------|--------|--------|--------|--------|--------|--------|--------|--------|
D|--------|--------|--------|--------|--------|--------|--------|--------|--------|
A|--------|--------|--------|--------|--------|--------|--------|--------|--------|
E|--------|--------|--------|--------|--------|--------|--------|--------|--------|


E|--------|--------|--------|--------|--------|--------|--------|--------|--------|
B|--------|--------|--------|--------|--------|--------|--------|--------|--------|
G|--------|--------|--------|--------|--------|--------|--------|--------|--------|
D|--------|--------|--------|--------|--------|--------|--------|--------|--------|
A|--------|--------|--------|--------|--------|--------|--------|--------|--------|
E|--------|--------|--------|--------|--------|--------|--------|--------|--------|


E|--------|--------|--------|--------|--------|--------|--------|--------|--------|
B|--------|--------|--------|--------|--------|--------|--------|--------|--------|
G|--------|--------|--------|--------|--------|--------|--------|--------|--------|
D|--------|--------|--------|--------|--------|--------|--------|--------|--------|
A|--------|--------|--------|--------|--------|--------|--------|--------|--------|
E|--------|--------|--------|--------|--------|--------|--------|--------|--------|


E|--------|--------|--------|--------|--------|--------|--------|--------|--------|
B|--------|--------|--------|--------|--------|--------|--------|--------|--------|
G|--------|--------|--------|--------|--------|--------|--------|--------|--------|
D|--------|--------|--------|--------|--------|--------|--------|--------|--------|
A|--------|--------|--------|--------|--------|--------|--------|--------|--------|
E|--------|--------|--------|--------|--------|--------|--------|--------|--------|





Track 2: Lead

E|--------|--------|--------|--------|--------|--------|--------|--------|--------|
B|--------|--------|--------|--------|--------|--------|--------|--------|--------|
G|--------|--------|--------|--------|--------|--------|--------|--------|--------|
D|--------|--------|--------|--------|--------|--------|--------|--------|--------|
A|--------|--------|--------|--------|--------|--------|--------|--------|--------|
E|--------|--------|--------|--------|--------|--------|--------|--------|--------|


E|--------|--------|--------|-------------------------|-------------------------------------------------|
B|--------|--------|--------|-------------------------|-------------------------------------------------|
G|--------|--------|--------|-------------------------|-------------------------------------------------|
D|--------|--------|--------|-------------------8--9--|-10-10-10-8--------8--9--10-10-10-8--------8--9--|
A|--------|--------|--------|----------------10-------|-------------10-10-------------------10-10-------|
E|--------|--------|--------|------------10-----------|-------------------------------------------------|


E|-------------------------------------------------|-------------------------------------------------|
B|-------------------------------------------------|-------------------------------------------------|
G|-------------------------------------------8--9--|-10-10-10-8--------8--9--10-10-10-8--------------|
D|-10-10-10-8--------8--9--10-10-10-8-----10-------|-------------10-10-------------------10----8--9--|
A|-------------10-10-------------------10----------|----------------------------------------10-------|
E|-------------------------------------------------|-------------------------------------------------|


E|-------------------------------------------------|-------------------------------------------------|
B|-------------------------------------------------|-------------------------------------------------|
G|-------------------------------------------10-11-|-12-12-12-10-------12-10-10-10-10-8--------------|
D|-10-10-10-8--------8--9--10-10-10-8-----12-------|-------------12-12-------------------10----8--9--|
A|-------------10-10-------------------10----------|----------------------------------------10-------|
E|-------------------------------------------------|-------------------------------------------------|


E|----------------------------------------------|--------------------|--------------------|
B|----------------------------------------------|--------------------|--------------------|
G|----------------------------------------------|--------------------|--------------------|
D|-10-10-10-8--------8--8--9--------------------|-10-----------------|-10-----------------|
A|-------------10-10----------10-10--8-108-10---|-10-----------------|-10-----------------|
E|----------------------------------------------|-8------------------|-8------------------|


E|--------------------|--------------------|----------------------------------|--------------------|
B|--------------------|--------------------|----------------------------------|--------------------|
G|-10-----------------|--------------------|-12-12------------10--------------|--------------7-----|
D|-10-----------------|-10-----------------|-12-12------------10--------------|-10-----------7-----|
A|-8------------------|-10-----------------|-10-10------------8---------------|-10-----------------|
E|--------------------|-8------------------|----------------------------------|-8------------------|


E|--------------|----18---18-15----15-------------------------|-----11-------11-11---------------------11-------11--11------|
B|--------------|---------------18----18--16----18-16-8-------|-8-9----8-9-10------8-9-10--------8-9-10---8-9-10------------|
G|-7------7--7--|----------------------------17---------------|--------------------------8-9-1011---------------------------|
D|-7------7--7--|-----------------------------------------10--|-------------------------------------------------------------|
A|--------------|---------------------------------------------|-------------------------------------------------------------|
E|--------------|-0-------------------------------------------|----------------------------------------------------------0--|


E|--------------------------------------------------|-------------------13-------13-13-11-11---11-|
B|-15-15-13-----------------------------------------|-------------16-13----16-13------------------|
G|----------14-14-14-14-12--------------------------|-12---12-12----------------------------------|
D|-------------------------15-12-151513-------------|---------------------------------------------|
A|-------------------------------------1513---------|---------------------------------------------|
E|------------------------------------------15-8----|---------------------------------------------|


E|-17-15--1518-15-15-15-18-15-15-15---------------|-128-----128-----128-----128-----128-----128-128-----128-128-----|
B|----------------------------------11--11---11---|-----118-----118-----118-----118-----118---------118---------118-|
G|----------------------------------10--10---10---|-----------------------------------------------------------------|
D|------------------------------------------------|-----------------------------------------------------------------|
A|------------------------------------------------|-----------------------------------------------------------------|
E|------------------------------------------------|-----------------------------------------------------------------|


E|-128-----------------------------128-----128-128-----128-128-----|-138-----------------------------138-----138-138-----138-138-----|
B|-----118-118-----------------118-----118---------118---------118-|-----11101110----------------1110----1110--------1110--------1110|
G|-------------9---9-------9---------------------------------------|-------------108-108-----108-------------------------------------|
D|---------------10--108-----10------------------------------------|---------------------108-----------------------------------------|
A|-----------------------10----------------------------------------|-----------------------------------------------------------------|
E|-----------------------------------------------------------------|-----------------------------------------------------------------|


E|-128-------12----8------8-------128-------------------------|-151715----15--------------15---171513----13108---------------------|
B|-----118-11--138-8-8-11---118-------118-118-----------------|-------1818--1815------1518--18-------1513------11108-----108-6-----|
G|------------------------------10------------109-1010109-----|-----------------171617-------------------------------108-------8---|
D|--------------------------------------------------------10--|--------------------------------------------------------------------|
A|------------------------------------------------------------|--------------------------------------------------------------------|
E|------------------------------------------------------------|--------------------------------------------------------------------|


E|-15-13118-11131513118-1513118-11131513118-11131513118---------------------------------|
B|------------------------------------------------------1113118-------------------------|
G|--------------------------------------------------------------108-101710171017108-----|
D|----------------------------------------------------------------------------------10--|
A|--------------------------------------------------------------------------------------|
E|--------------------------------------------------------------------------------------|


E|--------|--------|--------|--------|--------|--------|-----------23-20-|----------------------------------------------------------|
B|--------|--------|--------|--------|--------|--------|-----------------|-23----23----22----20----18-18-30-30-30-30-30-30-30-30-30-|
G|--------|--------|--------|--------|--------|--------|-----------------|----------------------------------------------------------|
D|--------|--------|--------|--------|--------|--------|-----------------|----------------------------------------------------------|
A|--------|--------|--------|--------|--------|--------|-----------------|----------------------------------------------------------|
E|--------|--------|--------|--------|--------|--------|-----------------|----------------------------------------------------------|


E|--------|-1815----2020--------------------------------------------------|----------------------------------152017--------------|
B|--------|-----1816------------------------------------------------------|--------------------------------15--------------------|
G|--------|------------------108-5-------------8-5------------------------|------------------------------16----------------------|
D|--------|------------------------8-6---8-6-------9-8-6-3----------------|----------------------------17---------------19-20-21-|
A|--------|----------------------------8-----6-------------6-3-1-3-1-3----|--------------------------17--------------------------|
E|--------|------------------------------------------------------------1--|-3------------3--2--1---------------------------------|


E|-------------------------2018---------23----23-|-----------------------------------------------------------------|
B|---------218-208-18----------2320--------------|-2019181717212019201918171617181920191817172120192019181716171819|
G|-17--------------------------------------------|-----------------------------------------------------------------|
D|-----------------------------------------------|-----------------------------------------------------------------|
A|-----------------------------------------------|-----------------------------------------------------------------|
E|-----------------------------------------------|-----------------------------------------------------------------|


E|---------------------------------------------------------16171819|-2019181717212019201918171617181920191817172120192019181716171819|
B|-20191817181716151617191820212019201918171817161516171918--------|-----------------------------------------------------------------|
G|-----------------------------------------------------------------|-----------------------------------------------------------------|
D|-----------------------------------------------------------------|-----------------------------------------------------------------|
A|-----------------------------------------------------------------|-----------------------------------------------------------------|
E|-----------------------------------------------------------------|-----------------------------------------------------------------|


E|-2019181718171615161719182021201920191817181716151617191820212019|-1915--1715--1915--1715--1915--191713--1513--1713--1513--1713--17|
B|-----------------------------------------------------------------|-15--15----15----15----15----15------13----13----13----13----13--|
G|-----------------------------------------------------------------|-----------------------------------------------------------------|
D|-----------------------------------------------------------------|-----------------------------------------------------------------|
A|-----------------------------------------------------------------|-----------------------------------------------------------------|
E|-----------------------------------------------------------------|-----------------------------------------------------------------|


E|-1512--------8-3-3---------------------------------|--------|--------|--------|--------|
B|-----1311108-------6-5---8-5-----------------------|--------|--------|--------|--------|
G|-----------------------5-----5-3-3--3--3-----------|--------|--------|--------|--------|
D|---------------------------------------------------|--------|--------|--------|--------|
A|---------------------------------------------------|--------|--------|--------|--------|
E|---------------------------------------------------|--------|--------|--------|--------|


E|--------|--------|--------|--------|--------|--------|--------|--------|--------|
B|--------|--------|--------|--------|--------|--------|--------|--------|--------|
G|--------|--------|--------|--------|--------|--------|--------|--------|--------|
D|--------|--------|--------|--------|--------|--------|--------|--------|--------|
A|--------|--------|--------|--------|--------|--------|--------|--------|--------|
E|--------|--------|--------|--------|--------|--------|--------|--------|--------|


E|--------|--------|
B|--------|--------|
G|--------|--------|
D|--------|--------|
A|--------|--------|
E|--------|--------|





Track 3: lead 2

E|--------|--------|--------|--------|--------|--------|--------|--------|--------|
B|--------|--------|--------|--------|--------|--------|--------|--------|--------|
G|--------|--------|--------|--------|--------|--------|--------|--------|--------|
D|--------|--------|--------|--------|--------|--------|--------|--------|--------|
A|--------|--------|--------|--------|--------|--------|--------|--------|--------|
E|--------|--------|--------|--------|--------|--------|--------|--------|--------|


E|--------|--------|--------|--------|-------------------------------------------------|
B|--------|--------|--------|--------|-------------------------------------------------|
G|--------|--------|--------|--------|-------------------------------------------------|
D|--------|--------|--------|--------|-10-10-10-8--------8--9--10-10-10-8--------8--9--|
A|--------|--------|--------|--------|-------------10-10-------------------10-10-------|
E|--------|--------|--------|--------|-------------------------------------------------|


E|-------------------------------------------------|-------------------------------------------------|
B|-------------------------------------------------|-------------------------------------------------|
G|-------------------------------------------8--9--|-10-10-10-8--------8--9--10-10-10-8--------------|
D|-10-10-10-8--------8--9--10-10-10-8-----10-------|-------------10-10-------------------10----8--9--|
A|-------------10-10-------------------10----------|----------------------------------------10-------|
E|-------------------------------------------------|-------------------------------------------------|


E|-------------------------------------------------|-------------------------------------------------|
B|-------------------------------------------------|-------------------------------------------------|
G|-------------------------------------------10-11-|-12-12-12-10-------12-10-10-10-10-8--------------|
D|-10-10-10-8--------8--9--10-10-10-8-----12-------|-------------12-12-------------------10----8--9--|
A|-------------10-10-------------------10----------|----------------------------------------10-------|
E|-------------------------------------------------|-------------------------------------------------|


E|--------------------------------------------|--------------------|--------------------|
B|--------------------------------------------|--------------------|--------------------|
G|--------------------------------------------|--------------------|--------------------|
D|-10-10-10-8--------8---9--------------------|-10-----------------|-10-----------------|
A|-------------10-10--------10-10--8-108-10---|-10-----------------|-10-----------------|
E|--------------------------------------------|-8------------------|-8------------------|


E|--------------------|--------------------|----------------------------------|--------------------|
B|--------------------|--------------------|----------------------------------|--------------------|
G|-10-----------------|--------------------|-12-12------------10--------------|--------------------|
D|-10-----------------|-10-----------------|-12-12------------10--------------|-10-----------------|
A|-8------------------|-10-----------------|-10-10------------8---------------|-10-----------------|
E|--------------------|-8------------------|----------------------------------|-8------------------|


E|--------|--------|--------|--------|--------|--------|--------|--------|--------|
B|--------|--------|--------|--------|--------|--------|--------|--------|--------|
G|--------|--------|--------|--------|--------|--------|--------|--------|--------|
D|--------|--------|--------|--------|--------|--------|--------|--------|--------|
A|--------|--------|--------|--------|--------|--------|--------|--------|--------|
E|--------|--------|--------|--------|--------|--------|--------|--------|--------|


E|--------|--------|--------|---------------------------------------------|-------------------------------------------------|
B|--------|--------|--------|---------------------------------------------|-------------------------------------------------|
G|--------|--------|--------|---------------------------------------------|-------------------------------------------8--9--|
D|--------|--------|--------|-10---8--------8--9--10-10-10-8--------8--9--|-10-10-10-8--------8--9--10-10-10-8-----10-------|
A|--------|--------|--------|---------10-10-------------------10-10-------|-------------10-10-------------------10----------|
E|--------|--------|--------|---------------------------------------------|-------------------------------------------------|


E|-------------------------------------------------|-------------------------------------------------|
B|-------------------------------------------------|-------------------------------------------------|
G|-10-10-10-8--------8--9--10-10-10-8--------------|-------------------------------------------10-11-|
D|-------------10-10-------------------10----8--9--|-10-10-10-8--------8--9--10-10-10-8-----12-------|
A|----------------------------------------10-------|-------------10-10-------------------10----------|
E|-------------------------------------------------|-------------------------------------------------|


E|-------------------------------------------------|------------------------------------------------|
B|-------------------------------------------------|------------------------------------------------|
G|-12-12-12-10-------12-10-10-10-10-8--------------|------------------------------------------------|
D|-------------12-12-------------------10----8--9--|-10-10-10-8--------8--8--9----------------------|
A|----------------------------------------10-------|-------------10-10----------10-10--8-108-10--10-|
E|-------------------------------------------------|------------------------------------------------|


E|--------|--------|--------|--------|--------|--------|--------|--------|--------|
B|--------|--------|--------|--------|--------|--------|--------|--------|--------|
G|--------|--------|--------|--------|--------|--------|--------|--------|--------|
D|--------|--------|--------|--------|--------|--------|--------|--------|--------|
A|--------|--------|--------|--------|--------|--------|--------|--------|--------|
E|--------|--------|--------|--------|--------|--------|--------|--------|--------|


E|--------|--------|--------------------|-------------------------------------------------|
B|--------|--------|--------------------|-------------------------------------------------|
G|--------|--------|--------------------|-------------------------------------------------|
D|--------|--------|--------------8--9--|-10-10-10-8--------8--9--10-10-10-8--------8--9--|
A|--------|--------|-----------10-------|-------------10-10-------------------10-10-------|
E|--------|--------|--------------------|-------------------------------------------------|


E|-------------------------------------------------|-------------------------------------------------|
B|-------------------------------------------------|-------------------------------------------------|
G|-------------------------------------------8--9--|-10-10-10-8--------8--9--10-10-10-8--------------|
D|-10-10-10-8--------8--9--10-10-10-8-----10-------|-------------10-10-------------------10----8--9--|
A|-------------10-10-------------------10----------|----------------------------------------10-------|
E|-------------------------------------------------|-------------------------------------------------|


E|-------------------------------------------------|-------------------------------------------------|
B|-------------------------------------------------|-------------------------------------------------|
G|-------------------------------------------10-11-|-12-12-12-10-------12-10-10-10-10-8--------------|
D|-10-10-10-8--------8--9--10-10-10-8-----12-------|-------------12-12-------------------10----8--9--|
A|-------------10-10-------------------10----------|----------------------------------------10-------|
E|-------------------------------------------------|-------------------------------------------------|


E|---------------------------------------|--------|--------|--------|--------|-------------|
B|---------------------------------------|--------|--------|--------|--------|-------------|
G|---------------------------------------|--------|--------|--------|--------|-------------|
D|-10-10-10-8------8---9-----------------|--------|--------|--------|--------|-------------|
A|-------------10---------10-10--10---10-|--------|--------|--------|--------|-------------|
E|---------------------------------------|--------|--------|--------|--------|-------------|


E|---------------8--------------------|----8--------8-----------------------------------|
B|-11---11-8--11----11--11--11--8-----|-8--------8-----8--10-10---8---------------------|
G|---------------------------------10-|-------10---------------------10-8-----------9---|
D|------------------------------------|------------------------------------10-10-10-----|
A|------------------------------------|-------------------------------------------------|
E|------------------------------------|-------------------------------------------------|


E|-------------------------------|----------------------|
B|-------------------------------|------------19-19-----|
G|-9-----------------------------|----------------------|
D|------10-8---------------------|----------------------|
A|------------10-8--10---10--10--|-10-------------------|
E|-------------------------------|----------------------|





Track 4: Untitled

G|-------------------------------------------------|-----------------------------------------------|
D|-------------------------------------------------|-----------------------------------------------|
A|-------------------------------------------1--2--|-3--3--3--1--------1--2--3---3--1--------1--2--|
E|-1--3--3--3--1--3--3--3--1--3--3--3--3--3--------|-------------3--3------------------3--3--------|


G|---------------------------------------------|---------------------------------------------|
D|---------------------------------------------|-3---3--1--------1--2--3---3--1--------------|
A|-3---3--1--------1--2--3---3--1--------1--2--|-----------3--3------------------3-----1--2--|
E|-----------3--3------------------3--3--------|------------------------------------3--------|


G|---------------------------------------------|-----------------------------------------------|
D|---------------------------------------3--4--|-5---5--3--------5--3--3--3--3--1--------------|
A|-3---3--1--------1--2--3---3--1-----5--------|-----------5--5--------------------3-----1--2--|
E|-----------3--3------------------3-----------|--------------------------------------3--------|


G|------------------------------------------------|--------------------|--------------------|
D|------------------------------------------------|--------------------|--------------------|
A|-3---3--1--------1--1--2------------------------|-3------------------|-3------------------|
E|-----------3--3-----------3--3--3--3--3--3--3-3-|--------------------|--------------------|


G|--------------------|--------------------|--------------------------------|-----------------------------------------|
D|-3------------------|--------------------|-5--------------3---------------|-----------------------------------------|
A|--------------------|-3------------------|--------------------------------|-3---------------------------------1--2--|
E|--------------------|--------------------|--------------------------------|--------------3--3--3--3--3--3--3--------|


G|-------------------------------------------------|-------------------------------------------------|
D|-------------------------------------------------|-------------------------------------------------|
A|-3--3--3--3--3--3--3--3--3--3--3--3--3--3--3--3--|-3--3--3--3--3--3--3--3--3--3--3--3--3--3--3--3--|
E|-------------------------------------------------|-------------------------------------------------|


G|-------------------------------------------------|-------------------------------------------------|
D|-3--3--3--3--3--3--3--3--3--3--3--3--3--3--3--3--|-------------------------------------------------|
A|-------------------------------------------------|-3--3--3--3--3--3--3--3--3--3--3--3--3--3--3--3--|
E|-------------------------------------------------|-------------------------------------------------|


G|-------------------------------------------------|--------------------------------------------------|
D|-5--5--5--5--5--5--5--3--3--3--3--3--3--3--3--3--|--------------------------------------------------|
A|-------------------------------------------------|-3--3--3--3--3--3--3------------------------------|
E|-------------------------------------------------|----------------------3--3--3--3--3--3--3--3--3-3-|


G|--------------------|--------------------|--------------------|--------------------|
D|--------------------|--------------------|-3------------------|--------------------|
A|-3------------------|-3------------------|--------------------|-3------------------|
E|--------------------|--------------------|--------------------|--------------------|


G|----------------------------------|------------------------------------------|-------------------------------------------------|
D|-5--5-------------3---------------|------------------------------------------|-------------------------------------------------|
A|----------------------------------|-3----------------------------------------|-1--3--3--3--1--3--3--3--3--3--3--3--3--3--3--3--|
E|----------------------------------|--------------3--3--3--3--3--3--3--3--3-3-|-------------------------------------------------|


G|-------------------------------------------------|-------------------------------------------------|
D|-------------------------------------------------|-3--3--3--3--3--3--3--1--3--3--3--3--3--3--3-----|
A|-1--3--3--3--3--3--3--1--3--3--3--3--3--3--3--1--|----------------------------------------------1--|
E|-------------------------------------------------|-------------------------------------------------|


G|-------------------------------------------------|-------------------------------------------------|
D|-------------------------------------------------|-5--5--5--5--5--5-----3--3--3--3--3--3--3--3-----|
A|-3--3--3--3--3--3--3--1--3--3--3--3--3--3--3--1--|-------------------3--------------------------1--|
E|-------------------------------------------------|-------------------------------------------------|


G|-------------------------------------------------|--------------------|------------------------|
D|-------------------------------------------------|--------------------|------------------------|
A|-3--3--3--3--3--3--3-----------------------------|-3------------------|-3------------------3---|
E|----------------------3--3--3--3--3--3--3--3--3--|--------------------|------------------------|


G|--------------------|--------------------|--------------------------------|-----------------------------------------|
D|-3------------------|--------------------|-5--------------3---------------|-----------------------------------------|
A|--------------------|-3------------------|--------------------------------|-3---3-----------------------------------|
E|--------------------|--------------------|--------------------------------|--------------3--3--3--3--3--3--3--3--3--|


G|-------------------------------------------------|-------------------------------------------------|
D|-------------------------------------------------|----------------------------------------0--1--2--|
A|-3--------------0--1--2--3--------------0--1--2--|-3--------------0--1--2--3-----------------------|
E|----1--2--3--4--------------1--2--3--4-----------|----1--2--3--4--------------1--2--3--4-----------|


G|-------------------------------------------------|-------------------------------------------------|
D|-3--------------0--1--2--3-----------------------|----------------------------------------2--3--4--|
A|----1--2--3--4--------------1--2--3--4--0--1--2--|-3--------------0--1--2--3-----------------------|
E|-------------------------------------------------|----1--2--3--4--------------1--2--3--4-----------|


G|-------------------------------------------------|-------------------------------------------------|
D|-5--------------2--3--3--------------0--1--0-----|-------------------------------------------------|
A|----3--4--5--6-----------1--2--3--4-----------4--|-3--------------0--1-----------------------------|
E|-------------------------------------------------|----1--2--3--4--------3--3--3--3--3--3--3--3--3--|


G|--------------------|-----------------------------------|--------------------|---------------------------------|
D|--------------------|-----------------------------------|-3------------------|---------------------------------|
A|-3------------------|-3-----3-----3-----3-----------3---|--------------------|-3--3-------------------3--3--3--|
E|--------------------|-----------------------------------|--------------------|---------------------------------|


G|-----------------------------------|-----------------------------------------|---------------------------------|
D|-5-------5--4--3-------------------|-----------------------------------------|-------------3---------------3---|
A|--------------------------3--3--3--|-3---------------------------------------|-3-------3-------3-------3-------|
E|-----------------------------------|--------------3--3--3--3--3--3--3--3--3--|---------------------------------|


G|---------------------------------|---------------------------------|---------------------------------|
D|---------------------------------|---------------------------------|---------------------------------|
A|-3-------------------1-----------|---------------------------------|-----1---------------------------|
E|-----4---3---2---1-------4---3---|-1---3---4---1---4-------4---1---|-4-------4---3---4---1---1-------|


G|---------------------------------|--------------------------------------|-------------------------------------------------|
D|-5-----------5---3-----------3---|--------------------------------------|-------------------------------------------------|
A|---------------------------------|-3------------------------------------|-3--------------0--1--2--3--------------0--1--2--|
E|---------------------------------|-----------------3--3--3--3--3--3--3--|----1--2--3--4--------------1--2--3--4-----------|


G|-------------------------------------------------|-------------------------------------------------|
D|----------------------------------------0--1--2--|-3--------------0--1--2--3-----------------------|
A|-3--------------0--1--2--3-----------------------|----1--2--3--4--------------1--2--3--4--0--1--2--|
E|----1--2--3--4--------------1--2--3--4-----------|-------------------------------------------------|


G|-------------------------------------------------|-------------------------------------------------|
D|----------------------------------------2--3--4--|-5--------------2--3--3--------------0--1--0-----|
A|-3--------------0--1--2--3-----------------------|----3--4--5--6-----------1--2--3--4-----------4--|
E|----1--2--3--4--------------1--2--3--4-----------|-------------------------------------------------|


G|-------------------------------------------------|-------------------------------------------------|
D|-------------------------------------------------|-10-------------7--8--9--10-------------7--8--9--|
A|-3--------------0--1-----------------------------|----8--9--10-11-------------8--9--10-11----------|
E|----1--2--3--4--------3--3--3--3--3--3--3--3--3--|-------------------------------------------------|


G|----------------------------------------7--8--9--|-10-------------7--8--9--10----------------------|
D|-10-------------7--8--9--10----------------------|----8--9--10-11-------------8--9--10-11-7--8--9--|
A|----8--9--10-11-------------8--9--10-11----------|-------------------------------------------------|
E|-------------------------------------------------|-------------------------------------------------|


G|----------------------------------------9--10-11-|-12-----------10-----------|--------|
D|-10-------------7--8--9--10----------------------|---------------------------|-10-----|
A|----8--9--10-11-------------8--9--10-11----------|---------------------------|--------|
E|-------------------------------------------------|---------------------------|--------|


G|--------|--------|--------|
D|-10-----|--------|--------|
A|--------|--------|--------|
E|--------|--------|--------|