Menu:

 

Search:

 

steve vai - whispering a prayer ireland:

 



Title: Whispering a Prayer (Ireland)
Artist: 
Album: Alive In An Ultra World
Author: Steve Vai


Track 1: Lead

E|-------------|-----------------------------|------------------------|---------------------------|
B|-------------|-----------------------------|------------------------|---------------------------|
G|-------------|-------------4-----4---4-----|------------------4-----|-6--8--4---4-----4---4-----|
D|-------------|----2--4--2------------------|---------2--4--2--------|---------------------------|
A|-------------|-----------------------------|------------------------|---------------------------|
E|-------------|-----------------------------|------------------------|---------------------------|


E|---------------------------------------|------------------------------------|----------------------------------|
B|---------------------------------------|------------------------------------|----------------------------------|
G|-----11-9--8-------8--6------11-9--8---|----8--6---11---16--11--9---8---6---|-8---6---8--8--8--4---4-----4-----|
D|---------------------------------------|------------------------------------|----------------------------------|
A|---------------------------------------|------------------------------------|----------------------------------|
E|---------------------------------------|------------------------------------|----------------------------------|


E|-------------------------------|---------------------------------------|------21----21-16-19-14-|
B|------12---12--12--129---------|---------------------------------------|------------------------|
G|-----------------------119-11--|-9--8--6--8---4------------------------|------------------------|
D|-------------------------------|------------------6--9--4--4-----4-----|------------------------|
A|-------------------------------|---------------------------------------|------------------------|
E|-------------------------------|---------------------------------------|------------------------|


E|-16-------16-------16----------------------------|-------------------------------------------------|
B|----17-------17-------17----------16----16-------|-14----------------------------------------------|
G|-------16-------18-------18-16-18----18-------16-|-------------13----------------13----------------|
D|-------------------------------------------18----|----18-14-------16-13----14----------------------|
A|-------------------------------------------------|----------16----------16----16-------------14----|
E|-------------------------------------------------|----------------------------------16-16-12----16-|


E|----------------14-17----19----|-19----------|-----------------|----------------------------------|
B|-------------15-------19-------|-------------|-----------------|----------------------------------|
G|-------16-14-------------------|-------------|-------16---13---|-----------13-------------13------|
D|-16-14-------------------------|-------------|-----------------|-16-14-16-------16-14-16------14--|
A|-------------------------------|-------------|-----------------|----------------------------------|
E|-------------------------------|-------------|-----------------|----------------------------------|


E|---------------------|------------------------------------|----------------------|
B|---------------------|------------------------------------|----------------------|
G|-----------16---13---|-----------13-------------13--11-9--|-9-----9----9---9--9--|
D|---------------------|-16-14-16-------16-14-16------------|----------------------|
A|-14---14-------------|------------------------------------|----------------------|
E|---------------------|------------------------------------|----------------------|


E|--------------------------------|-----------------------------|--------------------------------|
B|--------------------------------|-----------------------------|--------------------------------|
G|-20---16-16----------------13---|-18--16--14--13--11----9--11-|-16--18-16--13-------------13---|
D|-----------------16-14-16-------|-----------------------------|-----------------16-14-16-------|
A|--------------------------------|-----------------------------|--------------------------------|
E|--------------------------------|-----------------------------|--------------------------------|


E|---------------------------|--------------------|------------------------------------|
B|---------------------------|--------------------|------------------------------------|
G|-----------13--11-9--9-----|-9-----16---13-13---|-----------13-------------13--------|
D|-16-14-16------------------|--------------------|-16-14-16-------16-14-16------14-9--|
A|---------------------------|--------------------|------------------------------------|
E|---------------------------|--------------------|------------------------------------|


E|--------------------------------|------------------------------------|--------------------|
B|--------------------------------|------------------------------------|--------------------|
G|----------------16--18-16--13---|-11-9--11--13-------------13--11-9--|-9-----9----9----9--|
D|-9----11-9----------------------|----------------16-14-16------------|--------------------|
A|--------------------------------|------------------------------------|--------------------|
E|--------------------------------|------------------------------------|--------------------|


E|--------------------------------|-------------------------------|--------------------------------|
B|--------------------------------|-------------------------------|--------------------------------|
G|-20---16-16----------------13---|-18--16--14--13-11-11----9--11-|-16--18-16--13-------------13---|
D|-----------------16-14-16-------|-------------------------------|-----------------16-14-16-------|
A|--------------------------------|-------------------------------|--------------------------------|
E|--------------------------------|-------------------------------|--------------------------------|


E|---------------------------|--------------------|----------------------------|-----------------------|
B|---------------------------|--------------------|----------------------------|-----------------------|
G|-----------13--11-9--9-----|-9-----11---18---16-|-16-------13-11-13----11----|------------------16---|
D|-16-14-16------------------|--------------------|-------------------------14-|-11----11-11-12--------|
A|---------------------------|--------------------|----------------------------|-----------------------|
E|---------------------------|--------------------|----------------------------|-----------------------|


E|-----------------|-----------19---16---|----------------------------16------|---------------19--21-19-1616---|
B|------------12---|-16---17-------------|-19-17-19-21-21---19-17-19------17--|--------------------------------|
G|-14----14--------|---------------------|------------------------------------|-16---181616--------------------|
D|-----------------|---------------------|------------------------------------|--------------------------------|
A|-----------------|---------------------|------------------------------------|--------------------------------|
E|-----------------|---------------------|------------------------------------|--------------------------------|


E|-----------16---14-12-14--16--------|-------------------------|--------------------------------------------|
B|-19-17-19---------------------19-17-|-17----16---14-16--14-12-|-16-14-12-12--12--12--14-16-17--19--17--16--|
G|------------------------------------|-------------------------|--------------------------------------------|
D|------------------------------------|-------------------------|--------------------------------------------|
A|------------------------------------|-------------------------|--------------------------------------------|
E|------------------------------------|-------------------------|--------------------------------------------|


E|---------------------------------21--------------|----------------------------------------------|
B|-1917161712--12------19-17-16------1917161416-12-|-12---14---------12--9------------------------|
G|-------------------------------------------------|---------13---13-------119-----------13119----|
D|-------------------------------------------------|---------------------------119----------------|
A|-------------------------------------------------|-------------------------------119------------|
E|-------------------------------------------------|----------------------------------------------|


E|---------------------------------------------------------------|-16---12------12--------1612-----------------|
B|---------------------------------------------------------------|--------161416--16----------16---141614--1614|
G|-16-13---13---1311-9----------116--4---------6-4--2------------|---------------------------------------------|
D|---------------------119-------------6-4------------4-2--------|---------------------------------------------|
A|------------11-----------119-------------6-4------------4-2----|---------------------------------------------|
E|---------------------------------------------------------------|---------------------------------------------|


E|-------------------------------------------------|---------------------------------------------|
B|-12---19-12----191219---1912-14----1912149-127-9-|-5-7-4-5-2-4-0-------------------------------|
G|-------------------------------------------------|----------------1----------------------------|
D|-------------------------------------------------|--------------------4-2----------------------|
A|-------------------------------------------------|------------------------4----6--4----4----4--|
E|-------------------------------------------------|---------------------------------------------|


E|----------------------------|------------------------------------------------------|
B|----------------------------|-12----9---12----9---9-127--7--12----9---9-127---7----|
G|----------------------------|-----11--------11------------------11-----------------|
D|----------------------------|---9---------9-------------------9--------------------|
A|-4-----4--4--9----9--9------|------------------------------------------------------|
E|----------------------------|------------------------------------------------------|


E|-----------------------16---------------16-----16------|-----19--------------------------------------------19--21--|
B|-17--16----17--16----17-----17--16----14-----14--------|---------17------------------------------------19----19----|
G|-------16--------16------13-------16------13-----1311--|-16----16------18-----------16-------16----18----18--------|
D|---14--------14---------------14-----------------------|-----------1616----16------------1814--------16------------|
A|-------------------------------------------------------|-----------------16----1814------------1416----------------|
E|-------------------------------------------------------|---------------------16--------16--------------------------|


E|-19----19-----------|--------------------------------------------------------------------|
B|--------------------|--------------------------------------------------------------------|
G|--------------------|-11119-9---------------11119-9----11119-9---------------------------|
D|--------------------|---------11119-9--------------------------11119-9-------------------|
A|--------------------|--------------------------------------------------11119-9-119-------|
E|------------16------|--------------------------------------------------------------------|


E|-------------------------------------------------------------------------------------------------|
B|-------------------------------------------------------------------------------------------------|
G|-131311111313111113131111131311111313111113131111141411111414111114141111141411111414111114141113|
D|-------------------------------------------------------------------------------------------------|
A|-------------------------------------------------------------------------------------------------|
E|-------------------------------------------------------------------------------------------------|


E|---------------------------------------------------------------------------------------------|
B|---------------------------------------------------------------------------------------------|
G|-16161313--------16161313--------1616131316161818161618181616181816161818161618181616181816--|
D|---------16161414--------16161414------------------------------------------------------------|
A|---------------------------------------------------------------------------------------------|
E|---------------------------------------------------------------------------------------------|


E|------19--------------------1617--16------1617-16------16----|-19--1921--------------------------------------------------------|
B|-19------19-19-19-19--191719--------191719-------191719--1917|------------2119-19-19-19--1921212119--1921212119--1921212119----|
G|-------------------------------------------------------------|-------------------------21----------21----------21--------------|
D|-------------------------------------------------------------|-----------------------------------------------------------------|
A|-------------------------------------------------------------|-----------------------------------------------------------------|
E|-------------------------------------------------------------|-----------------------------------------------------------------|


E|----------------------------------------------------------------------------------------------------------------------|
B|-129-------9-129-------9-129-------9-129-------9-129-------9-129-------9-129------------------------------------------|
G|-----119-11------119-11------119-11------119-11------119-11------119-11------119-------9-13119------------------------|
D|---------------------------------------------------------------------------------119-11--------119-----119------------|
A|---------------------------------------------------------------------------------------------------119-----119-119-9--|
E|----------------------------------------------------------------------------------------------------------------------|


E|-129-------9-129-------9-129-------9-129-------9-129-------9-149-149-------9-149-------9-149-------9-1214129---9-1214129---9-12|
B|-----129-12------129-12------129-12------129-12------129-12----------129-12------129-12------129-12----------12----------12----|
G|-------------------------------------------------------------------------------------------------------------------------------|
D|-------------------------------------------------------------------------------------------------------------------------------|
A|-------------------------------------------------------------------------------------------------------------------------------|
E|-------------------------------------------------------------------------------------------------------------------------------|


E|-1612------121612------121612------121612------12------12------12----------------------------16211612------16211612--------|
B|-----161216------161216------161216------161216--161216--161216--1612------141614------141617--------171617--------17161412|
G|---------------------------------------------------------------------161416------161416------------------------------------|
D|---------------------------------------------------------------------------------------------------------------------------|
A|---------------------------------------------------------------------------------------------------------------------------|
E|---------------------------------------------------------------------------------------------------------------------------|


E|-1916------161916------161916--------------------------------2117------172117------172117--------------------------161921|
B|-----171617------171617------1716----------------------161716----191719------191719------1917----------------------------|
G|---------------------------------1816--------------1618--------------------------------------1917--------------1719------|
D|-------------------------------------1816------1618----------------------------------------------1917------1719----------|
A|-----------------------------------------181618------------------------------------------------------191719--------------|
E|-------------------------------------------------------------------------------------------------------------------------|


E|-2319------192319------192319------1923192319----2319----2319----2419----2419----2419----2419----2419----2419----24-----|
B|-----211921------211921------211921----------2119----2119----2119----2219----2219----2219----2219----2219----2219-------|
G|--------------------------------------------------------------------------------------------------------------------1317|
D|------------------------------------------------------------------------------------------------------------------------|
A|------------------------------------------------------------------------------------------------------------------------|
E|------------------------------------------------------------------------------------------------------------------------|


E|-16-------12-------------9-119----------7--------------|--------------------------------------|
B|----16-------12----109-10------9-----7-----7-----------|--------------------------------------|
G|-------14-------11----------------8-----------6--5--4--|-4----6-------------------------------|
D|-------------------------------------------------------|---------6--4------6----4-------------|
A|-------------------------------------------------------|--------------------------7-4---9--9--|
E|-------------------------------------------------------|--------------------------------------|


E|-------------|-------------|-------------------------------|---------------------------|
B|-------------|-------------|------------------12-----------|-------12-9-----9----9-----|
G|-------------|-------------|---------9--11-9------------9--|-11-9--------11------------|
D|-------------|-------------|-------------------------------|---------------------------|
A|-2-----2-----|-------------|-------------------------------|---------------------------|
E|-------------|-------------|-------------------------------|---------------------------|


E|------------14---------------------------|-----------14-------------------------|
B|-9-------12-------12---------------------|---------12----12---------------------|
G|---------------11-------11---------------|-------------11----11-----------------|
D|---------------------9--------9----------|-----------------9-----9--------------|
A|---------------------------7-----9--9----|-9-------------------7---9----7-------|
E|-----------------------------------------|--------------------------------------|


E|-----------------|-----------------|--------------------------|---------------------------|
B|-----------------|-----------------|------16---12-------------|------14--12---------------|
G|-----------------|-----------------|----------------11-9--11--|-13-----------14--13--11---|
D|-----------------|-----------------|--------------------------|---------------------------|
A|-----------------|-----------------|--------------------------|---------------------------|
E|-----------------|-----------------|--------------------------|---------------------------|


E|------------------------------------|-----------------------------|-----------------------------------|
B|-----------12--1412-----------------|-----------------------------|-----------------------------------|
G|-----9--11-----------13---11-9--11--|-13---11-9--11--13---11--11--|-11----11-8---9-8-6--8-4-----11-8--|
D|------------------------------------|-----------------------------|-----------------------------------|
A|------------------------------------|-----------------------------|-----------------------------------|
E|------------------------------------|-----------------------------|-----------------------------------|


E|----------------|
B|----------------|
G|-8-----8--------|
D|----------------|
A|----------------|
E|----------------|





Track 2: Untitled

E|-5-----4-----|-5-----4-----|-5-----4-----|-5-----4-----|-5-----4-----|-5-----4-----|
B|-5-----5-----|-5-----5-----|-5-----5-----|-5-----5-----|-5-----5-----|-5-----5-----|
G|-4-----4-----|-4-----4-----|-4-----4-----|-4-----4-----|-4-----4-----|-4-----4-----|
D|-7-----6-----|-7-----6-----|-7-----6-----|-7-----6-----|-7-----6-----|-7-----6-----|
A|-7-----7-----|-7-----7-----|-7-----7-----|-7-----7-----|-7-----7-----|-7-----7-----|
E|-------------|-------------|-------------|-------------|-------------|-------------|


E|-5-----4-----|------5-----4----|------5-----4----|------4-----4----|-------4-----|
B|-5-----5-----|------5-----5----|------5-----5----|------5-----5----|-------5-----|
G|-4-----4-----|------4-----4----|------4-----4----|------4-----4----|-------4-----|
D|-7-----6-----|------7-----6----|------7-----6----|------6-----6----|-------6-----|
A|-7-----7-----|------7-----7----|------7-----7----|------7-----7----|-------7-----|
E|-------------|-----------------|-----------------|-----------------|-------------|


E|-------4-----|-------4----5----|-------4-----|-------7-----|-5----4----5----4----|
B|-------5-----|-------5----5----|-------------|-------9-----|-5----5----5----5----|
G|-------4-----|-------4----4----|-------------|-------------|-6----4----6----4----|
D|-------6-----|-------6----7----|-------6-----|-------6-----|-7----6----7----6----|
A|-------7-----|-------7----7----|-------7-----|-------7-----|-7----7----7----7----|
E|-------------|-----------------|-------------|-------0-----|-5----0----5----0----|


E|-7-----7-----|-5----4----5---------|-------------|-----------------|-----0-----------------|
B|-7-----9-----|-5----5----5----7----|-------------|-9---------------|-7---------------------|
G|-8-----9-----|-6----4----6----8----|-9-----9-----|-9-----9----9----|-6---------------------|
D|-9-----9-----|-7----6----7----9----|-9-----7-----|-11----11---9----|---------12--11--9-----|
A|-9-----7-----|-7----7----7----9----|-7-----7-----|-11----12---7----|-9---------------9-----|
E|-7-----0-----|-5----0----5----7----|-0-----0-----|-9-----9---------|-----------------7-----|


E|-----------------|-----------------|-------------|---------------------|-------------|
B|-5-----5----5----|-5---------------|-------------|---------------------|-------------|
G|-------6---------|-6----8----------|-------------|-6----4----6----4----|-8-----9-----|
D|-9-----7----9----|-7----9----6-----|-7-----6-----|-7----6----7----6----|-9-----9-----|
A|-7-----7----7----|-7----9----7-----|-7-----7-----|-7----7----7----7----|-9-----7-----|
E|-0-----5----0----|-5----7----0-----|-0-----0-----|-5----0----5----0----|-7-----0-----|


E|---------------------|-------------|-----------------|-----0-----------------|-----------------|
B|---------------------|-------------|-9-----10---9----|-7---------------------|-9-----5----9----|
G|-6----4----6----8----|-9-----9-----|-9-----9----9----|-6---------------------|-9-----6----9----|
D|-7----6----7----9----|-9-----7-----|-11----11---9----|---------12--11--9-----|-9-----7----9----|
A|-7----7----7----9----|-7-----7-----|-11----12---7----|-9---------------9-----|-7-----7----7----|
E|-5----0----5----7----|-0-----0-----|-9-----9---------|-----------------7-----|-0-----5----0----|


E|-----------------|-7-----------|-------------|-------------|-12----17---19---|-23---24---24----|
B|-5----7----5-----|-5-----10----|-7-----9-----|-9-----10----|-14----16---19---|-19---19---24----|
G|-6----8----4-----|-4-----11----|-8-----9-----|-9-----11----|-14----16---16---|-----------21----|
D|-7----9----6-----|-7-----11----|-9-----9-----|-11----12----|-14--------------|-21---21---------|
A|-7----9----7-----|-7-----9-----|-9-----7-----|-11----12----|-12--------------|-----------------|
E|-5----7----0-----|-0-----------|-7-----0-----|-9-----10----|-------19---19---|-19---19---------|


E|-17---19---17---19---|-19----19----|-17---19---17---19---|-------17----|-19----17----|
B|-17---21---17---21---|-19----21----|-17---21---17---19---|-17----17----|-17----17----|
G|-18---21---18---21---|-20----21----|-18---21---18---20---|-16----16----|-16----16----|
D|-19---21---19---21---|-21----21----|-19---21---19---21---|-18----19----|-18----19----|
A|---------------------|-------------|---------------------|-19----19----|-19----19----|
E|---------------------|-------------|---------------------|-------------|-------------|


E|-16----17----|-19----17----|-16----17----|-19----17----|-16---------19---|-19----17----|
B|-17----17----|-17----17----|-17----17----|-17----17----|-17----17--------|-17----17----|
G|-16----16----|-16----16----|-16----16----|-16----16----|-16----16--------|-16----16----|
D|-18----19----|-18----19----|-18----19----|-18----19----|-18----19--------|-18----19----|
A|-19----19----|-19----19----|-19----19----|-19----19----|-19----19--------|-19----19----|
E|-------------|-------------|-------------|-------------|-----------------|-------------|


E|-16--------17--16--14--|-12----17----|-16----17---17--16--|-19----17----|-16----------|
B|-17----17--------------|-------17----|-17----17-----------|-17----17----|-17----17----|
G|-16----16--------------|-16----16----|-16----16-----------|-16----16----|-16----16----|
D|-18----19--------------|-18----19----|-18----19-----------|-18----19----|-18----19----|
A|-19----19--------------|-19----19----|-19----19-----------|-19----19----|-19----19----|
E|-----------------------|-------------|--------------------|-------------|-------------|


E|-19----17----|-16----17----|-19----17----|-16----17----|-19----17----|-16----17----|
B|-17----17----|-17----17----|-17----17----|-17----17----|-17----17----|-17----17----|
G|-16----16----|-16----16----|-16----16----|-16----16----|-16----16----|-16----16----|
D|-18----19----|-18----19----|-18----19----|-18----19----|-18----19----|-18----19----|
A|-19----19----|-19----19----|-19----19----|-19----19----|-19----19----|-19----19----|
E|-------------|-------------|-------------|-------------|-------------|-------------|


E|-19----17----|-16----17----|-19----17----|-16----17----|-19----17----|-16----17----|
B|-17----17----|-17----17----|-17----17----|-17----17----|-17----17----|-17----17----|
G|-16----16----|-16----16----|-16----16----|-16----16----|-16----16----|-16----16----|
D|-18----19----|-18----19----|-18----19----|-18----19----|-18----19----|-18----19----|
A|-19----19----|-19----19----|-19----19----|-19----19----|-19----19----|-19----19----|
E|-------------|-------------|-------------|-------------|-------------|-------------|


E|-19----------|-------------|-----------------|-------------|-----------------|-----------------|
B|-17----17----|-17----17----|------17----17---|------17-----|------17----17---|------17----17---|
G|-------16----|-16----16----|------16----16---|------16-----|------16----16---|------16----16---|
D|-------19----|-18----19----|------18----19---|------18-----|------18----19---|------18----19---|
A|-19----19----|-19----19----|------19----19---|------19-----|------19----19---|------19----19---|
E|-------------|-------------|-----------------|-------------|-----------------|-----------------|


E|-----------------|------------17---|-----------------|----------0----------------|
B|------17----17---|------17----17---|------9----------|------7--------------------|
G|------16----16---|------16----16---|------9-----9----|-9----6--------------------|
D|------18----19---|------18----19---|------11----11---|-9------------12--11--9----|
A|------19----19---|------19----19---|------11----12---|-7----9---------------9----|
E|-----------------|-----------------|------9-----9----|----------------------7----|


E|-----------------|-----------------|-------------|-------------|
B|------5-----5----|-5----5----------|-------5-----|-5-----------|
G|------------6----|------6----8-----|-------------|-------------|
D|------9-----7----|-9----7----9-----|-6-----6-----|-6-----------|
A|------7-----7----|-7----7----9-----|-7-----7-----|-7-----------|
E|------0-----5----|-0----5----7-----|-0-----0-----|-0-----------|





Track 3: delay right

E|--------|--------|--------|--------|--------|--------|--------|--------|--------|
B|--------|--------|--------|--------|--------|--------|--------|--------|--------|
G|--------|--------|--------|--------|--------|--------|--------|--------|--------|
D|--------|--------|--------|--------|--------|--------|--------|--------|--------|
A|--------|--------|--------|--------|--------|--------|--------|--------|--------|
E|--------|--------|--------|--------|--------|--------|--------|--------|--------|


E|----------------21-16-|-19-14-16-------16-------16----------------------|-------------------------------------------------|
B|----------------------|----------17-------17-------17----------16----16-|-------14----------------------------------------|
G|----------------------|-------------16-------18-------18-16-18----18----|----16-------------13----------------13----------|
D|----------------------|-------------------------------------------------|-18-------18-14-------16-13----14----------------|
A|----------------------|-------------------------------------------------|----------------16----------16----16-------------|
E|----------------------|-------------------------------------------------|----------------------------------------16-16-12-|


E|----------------------14-17----19----|-19----------|--------|--------|--------|--------|
B|-------------------15-------19-------|-------------|--------|--------|--------|--------|
G|-------------16-14-------------------|-------------|--------|--------|--------|--------|
D|-------16-14-------------------------|-------------|--------|--------|--------|--------|
A|-14----------------------------------|-------------|--------|--------|--------|--------|
E|----16-------------------------------|-------------|--------|--------|--------|--------|


E|--------|--------|--------|--------|--------|--------|--------|--------|--------|
B|--------|--------|--------|--------|--------|--------|--------|--------|--------|
G|--------|--------|--------|--------|--------|--------|--------|--------|--------|
D|--------|--------|--------|--------|--------|--------|--------|--------|--------|
A|--------|--------|--------|--------|--------|--------|--------|--------|--------|
E|--------|--------|--------|--------|--------|--------|--------|--------|--------|


E|--------|--------|--------|--------|--------|--------|--------|--------|--------|
B|--------|--------|--------|--------|--------|--------|--------|--------|--------|
G|--------|--------|--------|--------|--------|--------|--------|--------|--------|
D|--------|--------|--------|--------|--------|--------|--------|--------|--------|
A|--------|--------|--------|--------|--------|--------|--------|--------|--------|
E|--------|--------|--------|--------|--------|--------|--------|--------|--------|


E|--------|--------|--------|--------|--------|--------|--------|--------|--------|
B|--------|--------|--------|--------|--------|--------|--------|--------|--------|
G|--------|--------|--------|--------|--------|--------|--------|--------|--------|
D|--------|--------|--------|--------|--------|--------|--------|--------|--------|
A|--------|--------|--------|--------|--------|--------|--------|--------|--------|
E|--------|--------|--------|--------|--------|--------|--------|--------|--------|


E|--------|--------|--------|--------|--------|--------|--------|--------|--------|
B|--------|--------|--------|--------|--------|--------|--------|--------|--------|
G|--------|--------|--------|--------|--------|--------|--------|--------|--------|
D|--------|--------|--------|--------|--------|--------|--------|--------|--------|
A|--------|--------|--------|--------|--------|--------|--------|--------|--------|
E|--------|--------|--------|--------|--------|--------|--------|--------|--------|


E|--------|--------|--------|--------|--------|--------|--------|--------|--------|
B|--------|--------|--------|--------|--------|--------|--------|--------|--------|
G|--------|--------|--------|--------|--------|--------|--------|--------|--------|
D|--------|--------|--------|--------|--------|--------|--------|--------|--------|
A|--------|--------|--------|--------|--------|--------|--------|--------|--------|
E|--------|--------|--------|--------|--------|--------|--------|--------|--------|


E|--------|--------|--------|--------|--------|--------|--------|--------|--------|
B|--------|--------|--------|--------|--------|--------|--------|--------|--------|
G|--------|--------|--------|--------|--------|--------|--------|--------|--------|
D|--------|--------|--------|--------|--------|--------|--------|--------|--------|
A|--------|--------|--------|--------|--------|--------|--------|--------|--------|
E|--------|--------|--------|--------|--------|--------|--------|--------|--------|


E|--------|--------|--------|--------|--------|--------|--------|
B|--------|--------|--------|--------|--------|--------|--------|
G|--------|--------|--------|--------|--------|--------|--------|
D|--------|--------|--------|--------|--------|--------|--------|
A|--------|--------|--------|--------|--------|--------|--------|
E|--------|--------|--------|--------|--------|--------|--------|





Track 4: delay left

E|--------|--------|--------|--------|--------|--------|--------|--------|--------|
B|--------|--------|--------|--------|--------|--------|--------|--------|--------|
G|--------|--------|--------|--------|--------|--------|--------|--------|--------|
D|--------|--------|--------|--------|--------|--------|--------|--------|--------|
A|--------|--------|--------|--------|--------|--------|--------|--------|--------|
E|--------|--------|--------|--------|--------|--------|--------|--------|--------|


E|-----------------21-|-16-19-14-16-------16-------16-------------------|-------------------------------------------------|
B|--------------------|-------------17-------17-------17----------16----|-16-------14-------------------------------------|
G|--------------------|----------------16-------18-------18-16-18----18-|-------16-------------13----------------13-------|
D|--------------------|-------------------------------------------------|----18-------18-14-------16-13----14-------------|
A|--------------------|-------------------------------------------------|-------------------16----------16----16----------|
E|--------------------|-------------------------------------------------|-------------------------------------------16-16-|


E|-------------------------14-17----19-19---|-19----------|--------|--------|--------|
B|----------------------15-------19---------|-------------|--------|--------|--------|
G|----------------16-14---------------------|-------------|--------|--------|--------|
D|----------16-14---------------------------|-------------|--------|--------|--------|
A|----14------------------------------------|-------------|--------|--------|--------|
E|-12----16---------------------------------|-------------|--------|--------|--------|


E|--------|--------|--------|--------|--------|--------|--------|--------|--------|
B|--------|--------|--------|--------|--------|--------|--------|--------|--------|
G|--------|--------|--------|--------|--------|--------|--------|--------|--------|
D|--------|--------|--------|--------|--------|--------|--------|--------|--------|
A|--------|--------|--------|--------|--------|--------|--------|--------|--------|
E|--------|--------|--------|--------|--------|--------|--------|--------|--------|


E|--------|--------|--------|--------|--------|--------|--------|--------|--------|
B|--------|--------|--------|--------|--------|--------|--------|--------|--------|
G|--------|--------|--------|--------|--------|--------|--------|--------|--------|
D|--------|--------|--------|--------|--------|--------|--------|--------|--------|
A|--------|--------|--------|--------|--------|--------|--------|--------|--------|
E|--------|--------|--------|--------|--------|--------|--------|--------|--------|


E|--------|--------|--------|--------|--------|--------|--------|--------|--------|
B|--------|--------|--------|--------|--------|--------|--------|--------|--------|
G|--------|--------|--------|--------|--------|--------|--------|--------|--------|
D|--------|--------|--------|--------|--------|--------|--------|--------|--------|
A|--------|--------|--------|--------|--------|--------|--------|--------|--------|
E|--------|--------|--------|--------|--------|--------|--------|--------|--------|


E|--------|--------|--------|--------|--------|--------|--------|--------|--------|
B|--------|--------|--------|--------|--------|--------|--------|--------|--------|
G|--------|--------|--------|--------|--------|--------|--------|--------|--------|
D|--------|--------|--------|--------|--------|--------|--------|--------|--------|
A|--------|--------|--------|--------|--------|--------|--------|--------|--------|
E|--------|--------|--------|--------|--------|--------|--------|--------|--------|


E|--------|--------|--------|--------|--------|--------|--------|--------|--------|
B|--------|--------|--------|--------|--------|--------|--------|--------|--------|
G|--------|--------|--------|--------|--------|--------|--------|--------|--------|
D|--------|--------|--------|--------|--------|--------|--------|--------|--------|
A|--------|--------|--------|--------|--------|--------|--------|--------|--------|
E|--------|--------|--------|--------|--------|--------|--------|--------|--------|


E|--------|--------|--------|--------|--------|--------|--------|--------|--------|
B|--------|--------|--------|--------|--------|--------|--------|--------|--------|
G|--------|--------|--------|--------|--------|--------|--------|--------|--------|
D|--------|--------|--------|--------|--------|--------|--------|--------|--------|
A|--------|--------|--------|--------|--------|--------|--------|--------|--------|
E|--------|--------|--------|--------|--------|--------|--------|--------|--------|


E|--------|--------|--------|--------|--------|--------|--------|--------|
B|--------|--------|--------|--------|--------|--------|--------|--------|
G|--------|--------|--------|--------|--------|--------|--------|--------|
D|--------|--------|--------|--------|--------|--------|--------|--------|
A|--------|--------|--------|--------|--------|--------|--------|--------|
E|--------|--------|--------|--------|--------|--------|--------|--------|





Track 5: Bass

G|--------|--------|--------|--------|--------|--------|--------|--------|--------|
D|--------|--------|--------|--------|--------|--------|--------|--------|--------|
A|--------|--------|--------|--------|--------|--------|--------|--------|--------|
E|--------|--------|--------|--------|--------|--------|--------|--------|--------|


G|--------|--------|--------|--------|--------|--------|--------|--------|--------|
D|--------|--------|--------|--------|--------|--------|--------|--------|--------|
A|--------|--------|--------|--------|--------|--------|--------|--------|--------|
E|--------|--------|--------|--------|--------|--------|--------|--------|--------|


G|--------|--------|--------|--------|-----------------|-------------|---------------------|
D|--------|--------|--------|--------|-7----9----------|-------------|-7---------7---------|
A|--------|--------|--------|--------|-----------7-----|-------7-----|------7---------7----|
E|--------|--------|--------|--------|-----------------|-------------|---------------------|


G|-------------|---------------------|--------|-----------------|-----------------------|
D|-------------|-----------7---------|--------|-----------------|-----------------------|
A|-------7-----|------7--------------|-7------|------------7----|-9---7---5-------------|
E|-7-----------|-5--------------7----|--------|-9-----5---------|-------------9---7-----|


G|-----------------|-----------------|-------------|-------------|----------------------12-|
D|-----------------|-----------------|-------------|-------------|-------11-14-12----------|
A|-7----------7----|-----------------|-7-----9-----|-------7-----|-------------------------|
E|-------5---------|-5----7----0-----|-------------|-7-----------|-9-----------------------|


G|-14---18-14-----------------------|----------8---9----9-------|------9--------------|
D|------------14----------------9---|------11-------------------|-7---------7---------|
A|---------------12-14---14-9-----9-|-----------------------7---|----------------7----|
E|----------------------------------|-7-------------------------|---------------------|


G|-4-------4----------------9-------|------9-----------------|-------------|-------------|
D|------4------4--------------------|-7---------7----9-------|-------------|-------------|
A|---------------2--------------7---|------------------------|-------7-----|-------------|
E|-------------------2-0------------|--------------------7---|-0-----------|-0-----12----|


G|-----------------|-------------|-------------|---------------------------------|
D|-----------------|-------------|-------------|----------------7-9-7------------|
A|-----------------|-------------|-------------|------0----7-----------9-7-------|
E|-0-----0---12----|-0-----12----|-0-----12----|-0-------------------------7--5--|


G|-----------------|-----------------|-----------------|-----------------|-----------------|
D|-----------------|-----------------|-----------------|-----------------|-----------------|
A|-----------------|-----------------|-----------------|-----------------|-----------------|
E|-0-----0---12----|-0-----0---12----|-0-----0---12----|-0-----0---12----|-0-----0---12----|


G|-----------------|----------------------------------|----------------------------------|
D|-----------------|----------------------------------|----------------------------------|
A|-----------------|------------------7----------7----|-------------------------------2--|
E|-0-----0---12----|-0----0--12--0--7---0----7-7------|-0----12---0--0----0--2--4--5-----|


G|----------------------------------|--------------------------|-----------------------------------|
D|----------------------------------|--------------------------|-----------------------------------|
A|-------------------4--2-2---------|--------------------------|----------------7-9-7--------------|
E|-0----12---0----0---------4-4-2-2-|-0----12---0--0-----7--7--|-0----0--5--7-9----------5-7---7---|


G|-----------------|-----------------|-----------------------------------------------|
D|-----------------|-----------------|------------------------------2-4-2------------|
A|-----------------|-----------------|-------------7-7-11-11------4-------4-2--------|
E|-0-----0---12----|-0-----0---12----|-0----0--7-9-----------12---------------4-2-2--|


G|--------------------6-9--9----9-------|--------------9---7-6----------------|-------------------------------------|
D|--------------6-7-9-------------------|----------------------9--7-----------|---------------7---------------------|
A|----------7-9---------------------7---|------7----7---------------9-7-------|---------7--9-----9--7---------------|
E|-0----7-9-----------------------------|-0-----------------------------9-5-7-|-0----7------------------0---12--0---|


G|---------------16--1412-------0-------|--------------------------------------|--------|
D|-----------------------14-11----2-----|--------------------------------------|--------|
A|----------------------------14----2---|-------------7-7-11-11------7---------|--------|
E|-0----7----0------------------------2-|-0----0--7-9-----------12-----7---4---|-0------|


G|-------------|-------------|-------------|-------------|--------|--------|--------|
D|-------------|-------------|-------------|-------------|--------|--------|--------|
A|-------------|-------------|-------------|-------------|--------|--------|--------|
E|-0-----0-----|-------------|-------------|-------------|--------|--------|--------|


G|--------|--------|--------|--------|--------|--------|
D|--------|--------|--------|--------|--------|--------|
A|--------|--------|--------|--------|--------|--------|
E|--------|--------|--------|--------|--------|--------|





Track 6: Feedback

E|--------|--------|--------|--------|--------|--------|--------|--------|--------|
B|--------|--------|--------|--------|--------|--------|--------|--------|--------|
G|--------|--------|--------|--------|--------|--------|--------|--------|--------|
D|--------|--------|--------|--------|--------|--------|--------|--------|--------|
A|--------|--------|--------|--------|--------|--------|--------|--------|--------|
E|--------|--------|--------|--------|--------|--------|--------|--------|--------|


E|--------|--------|--------|--------|--------|--------|--------|--------|--------|
B|--------|--------|--------|--------|--------|--------|--------|--------|--------|
G|--------|--------|--------|--------|--------|--------|--------|--------|--------|
D|--------|--------|--------|--------|--------|--------|--------|--------|--------|
A|--------|--------|--------|--------|--------|--------|--------|--------|--------|
E|--------|--------|--------|--------|--------|--------|--------|--------|--------|


E|--------|--------|--------|--------|--------|--------|--------|--------|--------|
B|--------|--------|--------|--------|--------|--------|--------|--------|--------|
G|--------|--------|--------|--------|--------|--------|--------|--------|--------|
D|--------|--------|--------|--------|--------|--------|--------|--------|--------|
A|--------|--------|--------|--------|--------|--------|--------|--------|--------|
E|--------|--------|--------|--------|--------|--------|--------|--------|--------|


E|--------|--------|--------|--------|--------|--------|--------|--------|--------|
B|--------|--------|--------|--------|--------|--------|--------|--------|--------|
G|--------|--------|--------|--------|--------|--------|--------|--------|--------|
D|--------|--------|--------|--------|--------|--------|--------|--------|--------|
A|--------|--------|--------|--------|--------|--------|--------|--------|--------|
E|--------|--------|--------|--------|--------|--------|--------|--------|--------|


E|--------|--------|--------|--------|--------|--------|--------|--------|--------|
B|--------|--------|--------|--------|--------|--------|--------|--------|--------|
G|--------|--------|--------|--------|--------|--------|--------|--------|--------|
D|--------|--------|--------|--------|--------|--------|--------|--------|--------|
A|--------|--------|--------|--------|--------|--------|--------|--------|--------|
E|--------|--------|--------|--------|--------|--------|--------|--------|--------|


E|--------|--------|--------|--------|--------|--------|--------|--------|--------|
B|--------|--------|--------|--------|--------|--------|--------|--------|--------|
G|--------|--------|--------|--------|--------|--------|--------|--------|--------|
D|--------|--------|--------|--------|--------|--------|--------|--------|--------|
A|--------|--------|--------|--------|--------|--------|--------|--------|--------|
E|--------|--------|--------|--------|--------|--------|--------|--------|--------|


E|--------|--------|--------|--------|--------|--------|--------|--------|--------|
B|--------|--------|--------|--------|--------|--------|--------|--------|--------|
G|--------|--------|--------|--------|--------|--------|--------|--------|--------|
D|--------|--------|--------|--------|--------|--------|--------|--------|--------|
A|--------|--------|--------|--------|--------|--------|--------|--------|--------|
E|--------|--------|--------|--------|--------|--------|--------|--------|--------|


E|--------|--------|--------|-------------|-------------|-----------------|--------------------|
B|--------|--------|--------|-------------|-------------|-----------------|--------------------|
G|--------|--------|--------|-------------|-------------|-----------9-----|-9------------------|
D|--------|--------|--------|-------------|-------------|-----------------|--------------------|
A|--------|--------|--------|-------------|-------------|-----------------|---------------9----|
E|--------|--------|--------|-------------|-------------|-----------------|--------------------|


E|---------------------------|-------------|-------------|-------------|---------------------------|
B|---------------------------|-------------|-------------|-------------|------14--12---------------|
G|---------------------------|-------------|-------------|-------------|--------------14--13-------|
D|---------------------------|-------------|-------------|-------------|---------------------------|
A|--------------9----7-------|-------------|-------------|-------------|---------------------------|
E|---------------------------|-------------|-------------|-------------|---------------------------|


E|--------------------------|-------------|--------|----------------|
B|------12--1412------------|-------------|--------|-4-----4--------|
G|----------------13--------|-------------|--------|----------------|
D|--------------------------|-------------|--------|----------------|
A|--------------------------|-------------|--------|----------------|
E|--------------------------|-------------|--------|----------------|