Menu:

 

Search:

 

steve vai - glorious:

 



Title: Glorious
Artist: 
Album: Real Illusions: Reflections
Author: Steve Vai


Track 1: Rythym Guitar

E|------------------------------|---------------------------|---------------------------|
B|------------------------------|---------------------------|---------------------------|
G|------------------------------|---------------------------|---------------------------|
D|-------------7----------------|-7----7----------------7---|-----------------10---10---|
A|---------5----------------5---|-------------------5-------|-------------8-------------|
E|-1---3------------1---3-------|-----------1---3-----------|-----1---6-----------------|


E|------------------------------|---------------------------|---------------------------|
B|------------------------------|---------------------------|---------------------------|
G|------------------------------|---------------------------|---------------------------|
D|-------------7----------------|-7----7----------------7---|-----------------5----5----|
A|---------5----------------5---|-------------------5-------|-------------3-------------|
E|-1---3------------1---3-------|-----------1---3-----------|-----0---1-----------------|


E|------------------------------|---------------------------|---------------------------|
B|------------------------------|---------------------------|---------------------------|
G|------------------------------|---------------------------|---------------------------|
D|-------------7----------------|-7----7----------------7---|-----------------10---10---|
A|---------5----------------5---|-------------------5-------|-------------8-------------|
E|-1---3------------1---3-------|-----------1---3-----------|-----1---6-----------------|


E|------------------------------|---------------------------|---------------------------|
B|------------------------------|---------------------------|---------------------------|
G|------------------------------|---------------------------|---------------------------|
D|-------------7----------------|-7----7----------------7---|-----------------5----5----|
A|---------5----------------5---|-------------------5-------|-------------3-------------|
E|-1---3------------1---3-------|-----------1---3-----------|-----0---1-----------------|


E|------------------------------|---------------------------|---------------------------|
B|------------------------------|---------------------------|---------------------------|
G|------------------------------|---------------------------|---------------------------|
D|-------------7----------------|-7----7----------------7---|-----------------10---10---|
A|---------5----------------5---|-------------------5-------|-------------8-------------|
E|-1---3------------1---3-------|-----------1---3-----------|-----1---6-----------------|


E|------------------------------|---------------------------|---------------------------|
B|------------------------------|---------------------------|---------------------------|
G|------------------------------|---------------------------|---------------------------|
D|-------------7----------------|-7----7----------------7---|-----------------5----5----|
A|---------5----------------5---|-------------------5-------|-------------3-------------|
E|-1---3------------1---3-------|-----------1---3-----------|-----0---1-----------------|


E|------------------------------|---------------------------|---------------------------|
B|------------------------------|---------------------------|---------------------------|
G|------------------------------|---------------------------|---------------------------|
D|-------------7----------------|-7----7----------------7---|-----------------10---10---|
A|---------5----------------5---|-------------------5-------|-------------8-------------|
E|-1---3------------1---3-------|-----------1---3-----------|-----1---6-----------------|


E|------------------------------|---------------------------|-----------------------|
B|------------------------------|---------------------------|-----------------------|
G|------------------------------|---------------------------|-----------------------|
D|-------------7----------------|-7----7----------------7---|-----------------5-----|
A|---------5----------------5---|-------------------5-------|-------------3---3-----|
E|-1---3------------1---3-------|-----------1---3-----------|-----0---1-------1-----|


E|-------------|-----------------------|---------------------------|------------------------------|
B|-------------|-----------------------|---------------------------|------------------------------|
G|-------------|-----------------------|---------------------------|------------------------------|
D|-5------5----|-------------------7---|-----------------7----7----|-------------7----------------|
A|-3------3----|---------------5-------|-------------5-------------|---------5----------------8---|
E|-1------1----|-------1---3-----------|-----1---3-----------------|-1---3------------1---6-------|


E|---------------------------|---------------------------|------------------------------|
B|---------------------------|---------------------------|------------------------------|
G|---------------------------|---------------------------|------------------------------|
D|-10---10---------------7---|-----------------7----7----|-------------7----------------|
A|-------------------5-------|-------------5-------------|---------5----------------3---|
E|-----------1---3-----------|-----1---3-----------------|-1---3------------0---1-------|


E|---------------------------|---------------------------|------------------------------|
B|---------------------------|---------------------------|------------------------------|
G|---------------------------|---------------------------|------------------------------|
D|-5----5----------------7---|-----------------7----7----|-------------7----------------|
A|-------------------5-------|-------------5-------------|---------5----------------8---|
E|-----------1---3-----------|-----1---3-----------------|-1---3------------1---6-------|


E|---------------------------|---------------------------|------------------------------|
B|---------------------------|---------------------------|------------------------------|
G|---------------------------|---------------------------|------------------------------|
D|-10---10---------------7---|-----------------7----7----|-------------7----------------|
A|-------------------5-------|-------------5-------------|---------5----------------3---|
E|-----------1---3-----------|-----1---3-----------------|-1---3------------0---1-------|


E|---------------------------|---------------------------|------------------------------|
B|---------------------------|---------------------------|------------------------------|
G|---------------------------|---------------------------|------------------------------|
D|-5----5----------------12--|-----------------12---12---|-------------12---------------|
A|-------------------10------|-------------10------------|---------10---------------13--|
E|-----------6---8-----------|-----6---8-----------------|-6---8------------6---11------|


E|---------------------------|---------------------------|------------------------------|
B|---------------------------|---------------------------|------------------------------|
G|---------------------------|---------------------------|------------------------------|
D|-15---15---------------12--|-----------------12---12---|-------------12---------------|
A|-------------------10------|-------------10------------|---------10---------------8---|
E|-----------6---8-----------|-----6---8-----------------|-6---8------------5---6-------|


E|---------------------------|---------------------------|------------------------------|
B|---------------------------|---------------------------|------------------------------|
G|---------------------------|---------------------------|------------------------------|
D|-10---10---------------7---|-----------------7----7----|-------------7----------------|
A|-------------------5-------|-------------5-------------|---------5----------------8---|
E|-----------1---3-----------|-----1---3-----------------|-1---3------------3---6-------|


E|---------------------------|---------------------------|------------------------------|
B|---------------------------|---------------------------|------------------------------|
G|---------------------------|---------------------------|------------------------------|
D|-10---10---------------7---|-----------------7----7----|-------------7----------------|
A|-------------------5-------|-------------5-------------|---------5----------------3---|
E|-----------1---3-----------|-----1---3-----------------|-1---3------------0---1-------|


E|---------------------------|------------------------------|---------------------------|
B|---------------------------|------------------------------|---------------------------|
G|---------------------------|------------------------------|---------------------------|
D|-5----5----------------15--|-----------------8------------|-----6----------------11---|
A|-------------------13------|-------------6----------------|-4----------------9--------|
E|-----------9---11----------|-----2---4------------0---2---|----------5---7------------|


E|------------------------------|---------------------------|------------------------------|
B|------------------------------|---------------------------|------------------------------|
G|------------------------------|---------------------------|------------------------------|
D|-------------9----------------|-14---------------12-------|---------15---------------16--|
A|---------7----------------12--|--------------10-----------|-----13---------------14------|
E|-3---5------------8---10------|------6---8------------9---|-11-----------10--12----------|


E|---------------------------|------------------------------|---------------------------|
B|---------------------------|------------------------------|---------------------------|
G|---------------------------|------------------------------|---------------------------|
D|-----------------16---16---|-------------16---------------|-19---19---------------16--|
A|-------------14------------|---------14---------------17--|-------------------14------|
E|-----10--12----------------|-10--12-----------10--15------|-----------10--12----------|


E|---------------------------|------------------------------|---------------------------|
B|---------------------------|------------------------------|---------------------------|
G|---------------------------|------------------------------|---------------------------|
D|-----------------16---16---|-------------16---------------|-14---14---------------16--|
A|-------------14------------|---------14---------------12--|-------------------14------|
E|-----10--12----------------|-10--12-----------11--10------|-----------10--12----------|


E|---------------------------|------------------------------|---------------------------|
B|---------------------------|------------------------------|---------------------------|
G|---------------------------|------------------------------|---------------------------|
D|-----------------16---16---|-------------16---------------|-19---19---------------16--|
A|-------------14------------|---------14---------------17--|-------------------14------|
E|-----10--12----------------|-10--12-----------10--15------|-----------10--12----------|


E|---------------------------|------------------------------|-------------|-------------|
B|---------------------------|------------------------------|-------------|-------------|
G|---------------------------|------------------------------|-------------|-------------|
D|-----------------16---16---|-------------16---------------|-14----14----|------14-----|
A|-------------14------------|---------14---------------12--|-12----12----|------12-----|
E|-----10--12----------------|-10--12-----------11--10------|-10----10----|------10-----|


E|------------------------------|---------------------------|---------------------------|
B|------------------------------|---------------------------|---------------------------|
G|------------------------------|---------------------------|---------------------------|
D|-------------7----------------|-7----7----------------7---|-----------------10---10---|
A|---------5----------------5---|-------------------5-------|-------------8-------------|
E|-1---3------------1---3-------|-----------1---3-----------|-----3---6-----------------|


E|------------------------------|---------------------------|---------------------------|
B|------------------------------|---------------------------|---------------------------|
G|------------------------------|---------------------------|---------------------------|
D|-------------7----------------|-7----7----------------7---|-----------------5----5----|
A|---------5----------------5---|-------------------5-------|-------------3-------------|
E|-1---3------------1---3-------|-----------1---3-----------|-----0---1-----------------|


E|------------------------------|---------------------------|---------------------------|
B|------------------------------|---------------------------|---------------------------|
G|------------------------------|---------------------------|---------------------------|
D|-------------7----------------|-7----7----------------7---|-----------------10---10---|
A|---------5----------------5---|-------------------5-------|-------------8-------------|
E|-1---3------------1---3-------|-----------1---3-----------|-----3---6-----------------|


E|------------------------------|---------------------------|---------------------------|
B|------------------------------|---------------------------|---------------------------|
G|------------------------------|---------------------------|---------------------------|
D|-------------7----------------|-7----7----------------7---|-----------------5----5----|
A|---------5----------------5---|-------------------5-------|-------------3-------------|
E|-1---3------------1---3-------|-----------1---3-----------|-----0---1-----------------|


E|------------------------------|---------------------------|---------------------------|
B|------------------------------|---------------------------|---------------------------|
G|------------------------------|---------------------------|---------------------------|
D|-------------12---------------|-12---12---------------12--|-----------------15---15---|
A|---------10---------------10--|-------------------10------|-------------13------------|
E|-6---8------------6---8-------|-----------6---8-----------|-----6---11----------------|


E|------------------------------|---------------------------|---------------------------|
B|------------------------------|---------------------------|---------------------------|
G|------------------------------|---------------------------|---------------------------|
D|-------------12---------------|-12---12---------------12--|-----------------10---10---|
A|---------10---------------10--|-------------------10------|-------------8-------------|
E|-6---8------------6---8-------|-----------6---8-----------|-----5---6-----------------|


E|------------------------------|---------------------------|---------------------------|
B|------------------------------|---------------------------|---------------------------|
G|------------------------------|---------------------------|---------------------------|
D|-------------7----------------|-7----7----------------7---|-----------------10---10---|
A|---------5----------------5---|-------------------5-------|-------------8-------------|
E|-1---3------------1---3-------|-----------1---3-----------|-----3---6-----------------|


E|------------------------------|---------------------------|---------------------------|
B|------------------------------|---------------------------|---------------------------|
G|------------------------------|---------------------------|---------------------------|
D|-------------7----------------|-7----7----------------7---|-----------------5----5----|
A|---------5----------------5---|-------------------5-------|-------------3-------------|
E|-1---3------------1---3-------|-----------1---3-----------|-----0---1-----------------|


E|------------------------------|---------------------------|------------------------------|
B|------------------------------|---------------------------|------------------------------|
G|------------------------------|---------------------------|------------------------------|
D|-------------15---------------|-8----------------6--------|---------11---------------9---|
A|---------13---------------6---|--------------4------------|-----9----------------7-------|
E|-9---11-----------2---4-------|------0---2------------5---|-7------------3---5-----------|


E|------------------------------|---------------------------|------------------------------|
B|------------------------------|---------------------------|------------------------------|
G|------------------------------|---------------------------|------------------------------|
D|-----------------14-----------|-----12---------------15---|-------------11---------------|
A|-------------12---------------|-10---------------13-------|---------9----------------9---|
E|-----8---10-----------6---8---|----------9---11-----------|-5---7------------5---7-------|


E|---------------------------|---------------------------|------------------------------|
B|---------------------------|---------------------------|------------------------------|
G|---------------------------|---------------------------|------------------------------|
D|-11---11---------------11--|-----------------14---14---|-------------11---------------|
A|-------------------9-------|-------------12------------|---------9----------------9---|
E|-----------5---7-----------|-----5---10----------------|-5---7------------5---7-------|


E|---------------------------|---------------------------|------------------------------|
B|---------------------------|---------------------------|------------------------------|
G|---------------------------|---------------------------|------------------------------|
D|-11---11---------------11--|-----------------9----9----|-------------11---------------|
A|-------------------9-------|-------------7-------------|---------9----------------9---|
E|-----------5---7-----------|-----4---5-----------------|-5---7------------5---7-------|


E|---------------------------|---------------------------|------------------------------|
B|---------------------------|---------------------------|------------------------------|
G|---------------------------|---------------------------|------------------------------|
D|-11---11---------------11--|-----------------14---14---|-------------11---------------|
A|-------------------9-------|-------------12------------|---------9----------------9---|
E|-----------5---7-----------|-----5---10----------------|-5---7------------5---7-------|


E|---------------------------|-----------------------|-------------|---------------------------|
B|---------------------------|-----------------------|-------------|---------------------------|
G|---------------------------|-----------------------|-------------|---------------------------|
D|-11---11---------------11--|-----------------9-----|-9------9----|---------------------------|
A|-------------------9-------|-------------7---7-----|-7------7----|-------3--5--5--5---5--3---|
E|-----------5---7-----------|-----4---5-------5-----|-5------5----|-------3--5--5--5---5--3---|


E|---------------------------------------|-----------------------------------------|
B|---------------------------------------|-----------------------------------------|
G|---------------------------------------|-----------------------------------------|
D|-------------------------------3-------|-----------------------------------------|
A|-5-------3--5--5--5---5--3--5--3-------|-3--5--5--5---5--3---5-------3--5--5--5--|
E|-5-------3--5--5--5---5--3--5----------|-3--5--5--5---5--3---5-------3--5--5--5--|


E|-----------------------------------------|---------------------------------------|
B|-----------------------------------------|---------------------------------------|
G|-----------------------------------------|---------------------------------------|
D|----------2--3---2-----------------------|-------------------------------3-------|
A|----3--5-----3---3---3--5--5--5---5--3---|-5-------3--5--5--5---5--3--5--3-------|
E|----3--5-------------3--5--5--5---5--3---|-5-------3--5--5--5---5--3--5----------|


E|-----------------------------------------|-----------------------------------------|
B|-----------------------------------------|-----------------------------------------|
G|-----------------------------------------|-----------------------------------------|
D|-----------------------------------------|----------2--3---2---3--5--5--5---5--3---|
A|-3--5--5--5---5--3---5-------3--5--5--5--|----3--5-----3---3---3--5--5--5---5--3---|
E|-3--5--5--5---5--3---5-------3--5--5--5--|----3--5---------------------------------|


E|---------------------------------------|-----------------------------------------|
B|---------------------------------------|-----------------------------------------|
G|-------------------------------3-------|-----------------------------------------|
D|-5-------3--5--5--5---5--3--5--3-------|-3--5--5--5---5--3---5-------3--5--5--5--|
A|-5-------3--5--5--5---5--3--5----------|-3--5--5--5---5--3---5-------3--5--5--5--|
E|---------------------------------------|-----------------------------------------|


E|-----------------------------------------|---------------------------------------|
B|-----------------------------------------|---------------------------------------|
G|-------------3---------------------------|---------------------------------------|
D|----3--5--3--3---3-----------------------|-------------------------------3-------|
A|----3--5--3------3---3--5--5--5---5--3---|-5-------3--5--5--5---5--3--5--3-------|
E|---------------------3--5--5--5---5--3---|-5-------3--5--5--5---5--3--5----------|


E|-----------------------------------------|---------------------------|--------|--------|
B|-----------------------------------------|---------------------------|--------|--------|
G|-----------------------------------------|---------------------------|--------|--------|
D|-----------------------------------------|----------2--3---2---------|--------|--------|
A|-3--5--5--5---5--3---5-------3--5--5--5--|----3--5-----3---3---------|--------|--------|
E|-3--5--5--5---5--3---5-------3--5--5--5--|----3--5-------------------|--------|--------|


E|--------|--------|-----------------------|---------------------------|---------------------------|
B|--------|--------|-----------------------|---------------------------|---------------------------|
G|--------|--------|-----------------------|---------------------------|---------------------------|
D|--------|--------|-------------------14--|-----------------14---14---|-------------14-------19---|
A|--------|--------|---------------12------|-------------12------------|---------12-----------17---|
E|--------|--------|-------8---10----------|-----8---10----------------|-8---10-----------8---15---|


E|---------------------------|---------------------------|---------------------------|
B|---------------------------|---------------------------|---------------------------|
G|---------------------------|---------------------------|---------------------------|
D|-19---19---------------14--|-----------------14---14---|-------------14-------12---|
A|-17---17-----------12------|-------------12------------|---------12-----------10---|
E|-15---15---8---10----------|-----8---10----------------|-8---10-----------10--8----|


E|---------------------------|---------------------------|---------------------------|
B|---------------------------|---------------------------|---------------------------|
G|---------------------------|---------------------------|---------------------------|
D|-12---12---------------14--|-----------------14---14---|-------------14-------19---|
A|-10---10-----------12------|-------------12------------|---------12-----------17---|
E|-8----8----8---10----------|-----8---10----------------|-8---10-----------8---15---|


E|---------------------------|---------------------------|---------------------------|
B|---------------------------|---------------------------|---------------------------|
G|---------------------------|---------------------------|---------------------------|
D|-19---19---------------14--|-----------------14---14---|-------------14-------14---|
A|-17---17-----------12------|-------------12------------|---------12-----------12---|
E|-15---15---8---10----------|-----8---10----------------|-8---10-----------10-------|


E|-------------|-------------|--------|--------|--------|--------|--------|--------|
B|-------------|-------------|--------|--------|--------|--------|--------|--------|
G|-------------|-------------|--------|--------|--------|--------|--------|--------|
D|-12----12----|------12-----|-12-----|--------|--------|--------|--------|--------|
A|-10----10----|------10-----|-10-----|--------|--------|--------|--------|--------|
E|-8-----8-----|------8------|-8------|--------|--------|--------|--------|--------|


E|--------|--------|--------|--------|--------|--------|--------|--------|------------------------------|
B|--------|--------|--------|--------|--------|--------|--------|--------|------------------------------|
G|--------|--------|--------|--------|--------|--------|--------|--------|------------------------------|
D|--------|--------|--------|--------|--------|--------|--------|--------|-------------7----------------|
A|--------|--------|--------|--------|--------|--------|--------|--------|---------5----------------5---|
E|--------|--------|--------|--------|--------|--------|--------|--------|-1---3------------1---3-------|


E|---------------------------|---------------------------|------------------------------|
B|---------------------------|---------------------------|------------------------------|
G|---------------------------|---------------------------|------------------------------|
D|-7----7----------------7---|-----------------10---10---|-------------7----------------|
A|-------------------5-------|-------------8-------------|---------5----------------5---|
E|-----------1---3-----------|-----1---6-----------------|-1---3------------1---3-------|


E|---------------------------|---------------------------|------------------------------|
B|---------------------------|---------------------------|------------------------------|
G|---------------------------|---------------------------|------------------------------|
D|-7----7----------------7---|-----------------5----5----|-------------7----------------|
A|-------------------5-------|-------------3-------------|---------5----------------5---|
E|-----------1---3-----------|-----0---1-----------------|-1---3------------1---3-------|


E|---------------------------|---------------------------|------------------------------|
B|---------------------------|---------------------------|------------------------------|
G|---------------------------|---------------------------|------------------------------|
D|-7----7----------------7---|-----------------10---10---|-------------7----------------|
A|-------------------5-------|-------------8-------------|---------5----------------5---|
E|-----------1---3-----------|-----1---6-----------------|-1---3------------1---3-------|


E|---------------------------|---------------------------|------------------------------|
B|---------------------------|---------------------------|------------------------------|
G|---------------------------|---------------------------|------------------------------|
D|-7----7----------------7---|-----------------5----5----|-------------7----------------|
A|-------------------5-------|-------------3-------------|---------5----------------5---|
E|-----------1---3-----------|-----0---1-----------------|-1---3------------1---3-------|


E|---------------------------|---------------------------|------------------------------|
B|---------------------------|---------------------------|------------------------------|
G|---------------------------|---------------------------|------------------------------|
D|-7----7----------------7---|-----------------10---10---|-------------7----------------|
A|-------------------5-------|-------------8-------------|---------5----------------5---|
E|-----------1---3-----------|-----1---6-----------------|-1---3------------1---3-------|


E|---------------------------|---------------------------|------------------------------|
B|---------------------------|---------------------------|------------------------------|
G|---------------------------|---------------------------|------------------------------|
D|-7----7----------------7---|-----------------5----5----|-------------7----------------|
A|-------------------5-------|-------------3-------------|---------5----------------5---|
E|-----------1---3-----------|-----0---1-----------------|-1---3------------1---3-------|


E|---------------------------|---------------------------|------------------------------|
B|---------------------------|---------------------------|------------------------------|
G|---------------------------|---------------------------|------------------------------|
D|-7----7----------------7---|-----------------10---10---|-------------7----------------|
A|-------------------5-------|-------------8-------------|---------5----------------5---|
E|-----------1---3-----------|-----1---6-----------------|-1---3------------1---3-------|


E|---------------------------|---------------------------|------------------------------|
B|---------------------------|---------------------------|------------------------------|
G|---------------------------|---------------------------|------------------------------|
D|-7----7----------------7---|-----------------5----5----|-------------15---------------|
A|-------------------5-------|-------------3-------------|---------13---------------6---|
E|-----------1---3-----------|-----0---1-----------------|-9---11-----------2---4-------|


E|---------------------------|------------------------------|------------------------------|
B|---------------------------|------------------------------|------------------------------|
G|---------------------------|------------------------------|------------------------------|
D|-8----------------6--------|---------11---------------9---|-----------------14-----------|
A|--------------4------------|-----9----------------7-------|-------------12---------------|
E|------0---2------------5---|-7------------3---5-----------|-----8---10-----------6---8---|


E|---------------------------|------------------------------|---------------------------|
B|---------------------------|------------------------------|---------------------------|
G|---------------------------|-12--14--14--14--12--12--14---|-14---12---12--14--14--14--|
D|-----12---------------15---|------------------------------|---------------------------|
A|-10---------------13-------|-10--12--12--12--10--10--12---|-12---10---10--12--12--12--|
E|----------9---11-----------|------------------------------|---------------------------|


E|------------------------|------------------------------|---------------------------|
B|------------------------|------------------------------|---------------------------|
G|-12--12--17---17---12---|-12--14--14--14--12--12--14---|-14---12---12--14--14--14--|
D|------------------------|------------------------------|---------------------------|
A|-10--10--15---15---10---|-10--12--12--12--10--10--12---|-12---10---10--12--12--12--|
E|------------------------|------------------------------|---------------------------|


E|------------------------|--------|--------|--------|--------|--------|--------|--------|
B|------------------------|--------|--------|--------|--------|--------|--------|--------|
G|-12--12--12---14---12---|-10-----|-10-----|-10-----|--------|--------|--------|--------|
D|------------------------|-10-----|-10-----|-10-----|-6------|-6------|-6------|--------|
A|-10--10--10---12---10---|-8------|-8------|-8------|-4------|-4------|-4------|--------|
E|------------------------|--------|--------|--------|-2------|-2------|-2------|--------|





Track 2: Synth Lead

E|--------|--------|--------|--------|--------|--------|--------|--------|--------|
B|--------|--------|--------|--------|--------|--------|--------|--------|--------|
G|--------|--------|--------|--------|--------|--------|--------|--------|--------|
D|--------|--------|--------|--------|--------|--------|--------|--------|--------|
A|--------|--------|--------|--------|--------|--------|--------|--------|--------|
E|--------|--------|--------|--------|--------|--------|--------|--------|--------|


E|--------|--------|--------|--------------------|-------------|-----------------|
B|--------|--------|--------|-15--13--15----15---|-------15----|-18---18---13----|
G|--------|--------|--------|--------------------|-------------|-----------------|
D|--------|--------|--------|--------------------|-------------|-----------------|
A|--------|--------|--------|--------------------|-------------|-----------------|
E|--------|--------|--------|--------------------|-------------|-----------------|


E|------------------------|--------------------|--------------------|--------------------|
B|-15-15-15-13-15----15---|-------17--13---13--|-----13--10---13----|-15--13--15----15---|
G|------------------------|--------------------|--------------------|--------------------|
D|------------------------|--------------------|--------------------|--------------------|
A|------------------------|--------------------|--------------------|--------------------|
E|------------------------|--------------------|--------------------|--------------------|


E|-------------|-----------17----|-17-17-17-15-17----17---|-------17--15---15--|-15---13---15----|
B|-------15----|-18---18---------|------------------------|--------------------|-----------------|
G|-------------|-----------------|------------------------|--------------------|-----------------|
D|-------------|-----------------|------------------------|--------------------|-----------------|
A|-------------|-----------------|------------------------|--------------------|-----------------|
E|-------------|-----------------|------------------------|--------------------|-----------------|


E|-15-----15---|--------|--------|--------|--------|--------|--------|--------|--------|
B|-------------|--------|--------|--------|--------|--------|--------|--------|--------|
G|-------------|--------|--------|--------|--------|--------|--------|--------|--------|
D|-------------|--------|--------|--------|--------|--------|--------|--------|--------|
A|-------------|--------|--------|--------|--------|--------|--------|--------|--------|
E|-------------|--------|--------|--------|--------|--------|--------|--------|--------|


E|--------|--------|--------|--------|--------|--------|--------|--------|--------|
B|--------|--------|--------|--------|--------|--------|--------|--------|--------|
G|--------|--------|--------|--------|--------|--------|--------|--------|--------|
D|--------|--------|--------|--------|--------|--------|--------|--------|--------|
A|--------|--------|--------|--------|--------|--------|--------|--------|--------|
E|--------|--------|--------|--------|--------|--------|--------|--------|--------|


E|--------|--------|--------|--------|--------|--------|--------|--------|--------|
B|--------|--------|--------|--------|--------|--------|--------|--------|--------|
G|--------|--------|--------|--------|--------|--------|--------|--------|--------|
D|--------|--------|--------|--------|--------|--------|--------|--------|--------|
A|--------|--------|--------|--------|--------|--------|--------|--------|--------|
E|--------|--------|--------|--------|--------|--------|--------|--------|--------|


E|--------|--------|--------|--------|--------|--------|--------|--------|--------|
B|--------|--------|--------|--------|--------|--------|--------|--------|--------|
G|--------|--------|--------|--------|--------|--------|--------|--------|--------|
D|--------|--------|--------|--------|--------|--------|--------|--------|--------|
A|--------|--------|--------|--------|--------|--------|--------|--------|--------|
E|--------|--------|--------|--------|--------|--------|--------|--------|--------|


E|--------|--------|--------|--------|--------|--------|--------|--------|--------|
B|--------|--------|--------|--------|--------|--------|--------|--------|--------|
G|--------|--------|--------|--------|--------|--------|--------|--------|--------|
D|--------|--------|--------|--------|--------|--------|--------|--------|--------|
A|--------|--------|--------|--------|--------|--------|--------|--------|--------|
E|--------|--------|--------|--------|--------|--------|--------|--------|--------|


E|--------|--------|--------|--------|--------|--------|--------|--------|--------|
B|--------|--------|--------|--------|--------|--------|--------|--------|--------|
G|--------|--------|--------|--------|--------|--------|--------|--------|--------|
D|--------|--------|--------|--------|--------|--------|--------|--------|--------|
A|--------|--------|--------|--------|--------|--------|--------|--------|--------|
E|--------|--------|--------|--------|--------|--------|--------|--------|--------|


E|--------|--------|--------|--------|--------|--------|--------|--------|--------|
B|--------|--------|--------|--------|--------|--------|--------|--------|--------|
G|--------|--------|--------|--------|--------|--------|--------|--------|--------|
D|--------|--------|--------|--------|--------|--------|--------|--------|--------|
A|--------|--------|--------|--------|--------|--------|--------|--------|--------|
E|--------|--------|--------|--------|--------|--------|--------|--------|--------|


E|--------|--------|--------|--------|--------|--------|--------|--------|--------|
B|--------|--------|--------|--------|--------|--------|--------|--------|--------|
G|--------|--------|--------|--------|--------|--------|--------|--------|--------|
D|--------|--------|--------|--------|--------|--------|--------|--------|--------|
A|--------|--------|--------|--------|--------|--------|--------|--------|--------|
E|--------|--------|--------|--------|--------|--------|--------|--------|--------|


E|--------|--------|--------|--------|--------|--------|--------|--------|--------|
B|--------|--------|--------|--------|--------|--------|--------|--------|--------|
G|--------|--------|--------|--------|--------|--------|--------|--------|--------|
D|--------|--------|--------|--------|--------|--------|--------|--------|--------|
A|--------|--------|--------|--------|--------|--------|--------|--------|--------|
E|--------|--------|--------|--------|--------|--------|--------|--------|--------|


E|--------|--------|--------|--------|--------|--------|--------|--------|--------|
B|--------|--------|--------|--------|--------|--------|--------|--------|--------|
G|--------|--------|--------|--------|--------|--------|--------|--------|--------|
D|--------|--------|--------|--------|--------|--------|--------|--------|--------|
A|--------|--------|--------|--------|--------|--------|--------|--------|--------|
E|--------|--------|--------|--------|--------|--------|--------|--------|--------|


E|--------|--------|--------|--------|--------|--------|--------|--------|-------------|
B|--------|--------|--------|--------|--------|--------|--------|--------|-------------|
G|--------|--------|--------|--------|--------|--------|--------|--------|-------------|
D|--------|--------|--------|--------|--------|--------|--------|--------|-------------|
A|--------|--------|--------|--------|--------|--------|--------|--------|-------1-----|
E|--------|--------|--------|--------|--------|--------|--------|--------|-------------|


E|----------------------------------------|-------------------------------------|-----------------------------------|
B|----------------------------------------|-------------------------------------|-----------------------------5-----|
G|--------------------1--3--5--5--6--6----|-4--3--------------------------------|-----------------4---6---8---------|
D|-----------1--3--5----------------------|-------6--4--3-----------------------|-----4---6---8---------------------|
A|-1---3--4-------------------------------|----------------6--4--2--2-----4--6--|-8---------------------------------|
E|----------------------------------------|-------------------------------------|-----------------------------------|


E|-----5---12--10-------------------------------|-----------------10-12--14--12----------14--12|
B|-----------------12--10-----------------------|-----------10-12----------------15------------|
G|-------------------------12--9----------------|----9---12--------------------------16--------|
D|---------------------------------12-9------12-|----------------------------------------------|
A|---------------------------------------12-----|----------------------------------------------|
E|----------------------------------------------|----------------------------------------------|


E|------------14--12----------14--12----------|-14--12----------14--12----------14-12-------|
B|----15--------------15--------------15------|---------15--------------15------------15-12-|
G|--------16--------------16--------------16--|-------------16--------------16--------------|
D|--------------------------------------------|---------------------------------------------|
A|--------------------------------------------|---------------------------------------------|
E|--------------------------------------------|---------------------------------------------|


E|-------------------------15--14----------15--14|------------15--14----------15--14----------|
B|-------------12--14--15----------17------------|----17--------------17--------------17------|
G|-11--12--14--------------------------19--------|--------19--------------19--------------19--|
D|-----------------------------------------------|--------------------------------------------|
A|-----------------------------------------------|--------------------------------------------|
E|-----------------------------------------------|--------------------------------------------|


E|-15--14----------15--14----------15-14-------|-------------14--15--17--19--17----------19--17|
B|---------17--------------17------------17----|-14--15--17----------------------19------------|
G|-------------19--------------19-----------19-|-------------------------------------21--------|
D|---------------------------------------------|-----------------------------------------------|
A|---------------------------------------------|-----------------------------------------------|
E|---------------------------------------------|-----------------------------------------------|


E|------------19--17----------19--17----------|-19--17----------19--17----------17----------|
B|----19--------------19--------------19------|---------19--------------19----------19------|
G|--------21--------------21--------------21--|-------------21--------------21----------21--|
D|--------------------------------------------|---------------------------------------------|
A|--------------------------------------------|---------------------------------------------|
E|--------------------------------------------|---------------------------------------------|


E|-19--17--14--21--19--17--22--21----------22--21|------------22--21----------22--21----------|
B|---------------------------------22------------|----22--------------22--------------22------|
G|-------------------------------------23--------|--------23--------------23--------------23--|
D|-----------------------------------------------|--------------------------------------------|
A|-----------------------------------------------|--------------------------------------------|
E|-----------------------------------------------|--------------------------------------------|


E|-22--21----------22--21----------21----------|-------------|-------------|-22-----|
B|---------22--------------22----------22------|-22----22----|------22-----|-22-----|
G|-------------23--------------23----------23--|-------------|-------------|--------|
D|---------------------------------------------|-------------|-------------|--------|
A|---------------------------------------------|-------------|-------------|--------|
E|---------------------------------------------|-------------|-------------|--------|


E|---------------------|---------------------|-----------------|----------------|-----------------|
B|-22----22--22---22---|-22----22--22---22---|-22----18--18----|-18-----18--20--|-22----18--18----|
G|---------------------|---------------------|-----------------|----------------|-----------------|
D|---------------------|---------------------|-----------------|----------------|-----------------|
A|---------------------|---------------------|-----------------|----------------|-----------------|
E|---------------------|---------------------|-----------------|----------------|-----------------|


E|---------------------14---|-12---------------16--12---16--|-16-14--12---------------------------------|
B|-----------14---12--------|-------------------------------|----------1412--10-12-12---10-12-10--------|
G|------11------------------|----------14--13---------------|------------------------------------12-11--|
D|--------------------------|-------------------------------|-------------------------------------------|
A|--------------------------|-------------------------------|-------------------------------------------|
E|--------------------------|-------------------------------|-------------------------------------------|


E|--------------------------|---------------------15---|-13---------------17--13---17--|
B|--------------------------|-----------15---13--------|-------------------------------|
G|-11-----------------------|------12------------------|----------15--14---------------|
D|------12------------------|--------------------------|-------------------------------|
A|-----------12-12-10-12----|--------------------------|-------------------------------|
E|--------------------------|--------------------------|-------------------------------|


E|-17-15--13---------------------------------|--------------11-13-15-17--17----|-17-----17---|
B|----------1513--11-13-13---11-13-11--------|-----11-13-15--------------------|-------------|
G|------------------------------------13-12--|---------------------------------|-------------|
D|-------------------------------------------|---------------------------------|-------------|
A|-------------------------------------------|---------------------------------|-------------|
E|-------------------------------------------|---------------------------------|-------------|


E|-------17----|------17-----|-17-----17---|-------17----|------17-----|--------|--------|
B|-------------|-------------|-------------|-------------|-------------|--------|--------|
G|-------------|-------------|-------------|-------------|-------------|--------|--------|
D|-------------|-------------|-------------|-------------|-------------|--------|--------|
A|-------------|-------------|-------------|-------------|-------------|--------|--------|
E|-------------|-------------|-------------|-------------|-------------|--------|--------|


E|--------|--------|--------|--------|--------------------|-------------|-----------------|
B|--------|--------|--------|--------|-15--13--15----15---|-------15----|-18---18---13----|
G|--------|--------|--------|--------|--------------------|-------------|-----------------|
D|--------|--------|--------|--------|--------------------|-------------|-----------------|
A|--------|--------|--------|--------|--------------------|-------------|-----------------|
E|--------|--------|--------|--------|--------------------|-------------|-----------------|


E|------------------------|--------------------|--------------------|--------------------|
B|-15-15-15-13-15----15---|-------17--13---13--|-----13--10---13----|-15--13--15----15---|
G|------------------------|--------------------|--------------------|--------------------|
D|------------------------|--------------------|--------------------|--------------------|
A|------------------------|--------------------|--------------------|--------------------|
E|------------------------|--------------------|--------------------|--------------------|


E|-------------|-----------17----|-17-17-17-15-17----17---|-------17--15---15--|-15---13---15----|
B|-------15----|-18---18---------|------------------------|--------------------|-----------------|
G|-------------|-----------------|------------------------|--------------------|-----------------|
D|-------------|-----------------|------------------------|--------------------|-----------------|
A|-------------|-----------------|------------------------|--------------------|-----------------|
E|-------------|-----------------|------------------------|--------------------|-----------------|


E|-15----15--15----|-----15--15----15--15--|-------15--15----|-15--15----15--15---|
B|-----------------|-----------------------|-----------------|--------------------|
G|-----------------|-----------------------|-----------------|--------------------|
D|-----------------|-----------------------|-----------------|--------------------|
A|-----------------|-----------------------|-----------------|--------------------|
E|-----------------|-----------------------|-----------------|--------------------|


E|------15--15----15--|--------|--------|--------|--------|--------|--------|--------|
B|--------------------|--------|--------|--------|--------|--------|--------|--------|
G|--------------------|--------|--------|--------|--------|--------|--------|--------|
D|--------------------|--------|--------|--------|--------|--------|--------|--------|
A|--------------------|--------|--------|--------|--------|--------|--------|--------|
E|--------------------|--------|--------|--------|--------|--------|--------|--------|


E|--------|--------|--------|--------|--------|--------|
B|--------|--------|--------|--------|--------|--------|
G|--------|--------|--------|--------|--------|--------|
D|--------|--------|--------|--------|--------|--------|
A|--------|--------|--------|--------|--------|--------|
E|--------|--------|--------|--------|--------|--------|





Track 3: Strangly Cat

E|--------|--------|--------|--------|--------|--------|--------|--------|--------|
B|--------|--------|--------|--------|--------|--------|--------|--------|--------|
G|--------|--------|--------|--------|--------|--------|--------|--------|--------|
D|--------|--------|--------|--------|--------|--------|--------|--------|--------|
A|--------|--------|--------|--------|--------|--------|--------|--------|--------|
E|--------|--------|--------|--------|--------|--------|--------|--------|--------|


E|--------|--------|--------|--------|--------|--------|--------|--------|--------|
B|--------|--------|--------|--------|--------|--------|--------|--------|--------|
G|--------|--------|--------|--------|--------|--------|--------|--------|--------|
D|--------|--------|--------|--------|--------|--------|--------|--------|--------|
A|--------|--------|--------|--------|--------|--------|--------|--------|--------|
E|--------|--------|--------|--------|--------|--------|--------|--------|--------|


E|--------|--------|--------|--------|--------|--------|--------|--------------------|
B|--------|--------|--------|--------|--------|--------|--------|-------10---10--8---|
G|--------|--------|--------|--------|--------|--------|--------|--------------------|
D|--------|--------|--------|--------|--------|--------|--------|--------------------|
A|--------|--------|--------|--------|--------|--------|--------|--------------------|
E|--------|--------|--------|--------|--------|--------|--------|--------------------|


E|----------------|-------------|------------------------------|-----------------------------|
B|-----8---10-----|-10-----10---|-8---8---6---6---10---10--13--|--------------10---8----6----|
G|----------------|-------------|------------------------------|-----------------------------|
D|----------------|-------------|------------------------------|-----------------------------|
A|----------------|-------------|------------------------------|-----------------------------|
E|----------------|-------------|------------------------------|-----------------------------|


E|-------------|--------------------|-----------------------|-------------|------------------------------|
B|-8------8----|-------10---10--8---|-----8---10--8---10----|-10-----10---|-8---8---6---6---10---10--13--|
G|-------------|--------------------|-----------------------|-------------|------------------------------|
D|-------------|--------------------|-----------------------|-------------|------------------------------|
A|-------------|--------------------|-----------------------|-------------|------------------------------|
E|-------------|--------------------|-----------------------|-------------|------------------------------|


E|-----------------------------|-------------|-----------------|--------------------|
B|--------------15---13---10---|-8-----------|-------15----15--|-13---13--15----15--|
G|-----------------------------|-------------|-----------------|--------------------|
D|-----------------------------|-------------|-----------------|--------------------|
A|-----------------------------|-------------|-----------------|--------------------|
E|-----------------------------|-------------|-----------------|--------------------|


E|-------------|------------------------------|-----------------------------|-------------|
B|-15-----13---|-13--13--11--11--15---15--18--|--------------20---18---15---|-13-----13---|
G|-------------|------------------------------|-----------------------------|-------------|
D|-------------|------------------------------|-----------------------------|-------------|
A|-------------|------------------------------|-----------------------------|-------------|
E|-------------|------------------------------|-----------------------------|-------------|


E|--------------------|------------------------|--------------------|------------------------------|
B|-------10---10--8---|-----------10---13--10--|-8---10----10-------|-8---8---6---6---10---10--13--|
G|--------------------|------------------------|--------------------|------------------------------|
D|--------------------|------------------------|--------------------|------------------------------|
A|--------------------|------------------------|--------------------|------------------------------|
E|--------------------|------------------------|--------------------|------------------------------|


E|-----------------------------|-------------|-----------------|--------------------|
B|--------------15---13---10---|-8-----------|------8----4-----|-4---4-----4---4----|
G|-----------------------------|-------------|-----------------|--------------------|
D|-----------------------------|-------------|-----------------|--------------------|
A|-----------------------------|-------------|-----------------|--------------------|
E|-----------------------------|-------------|-----------------|--------------------|


E|--------------------|-----------------|-----------------------|--------|--------|
B|------4---4-----4---|-7-----7---7-----|-----7---7-----7-------|--------|--------|
G|--------------------|-----------------|-----------------------|--------|--------|
D|--------------------|-----------------|-----------------------|--------|--------|
A|--------------------|-----------------|-----------------------|--------|--------|
E|--------------------|-----------------|-----------------------|--------|--------|


E|--------|--------|--------|--------|--------|--------|--------|--------|--------|
B|--------|--------|--------|--------|--------|--------|--------|--------|--------|
G|--------|--------|--------|--------|--------|--------|--------|--------|--------|
D|--------|--------|--------|--------|--------|--------|--------|--------|--------|
A|--------|--------|--------|--------|--------|--------|--------|--------|--------|
E|--------|--------|--------|--------|--------|--------|--------|--------|--------|


E|--------|--------|--------|--------|--------|--------|--------|--------|--------|
B|--------|--------|--------|--------|--------|--------|--------|--------|--------|
G|--------|--------|--------|--------|--------|--------|--------|--------|--------|
D|--------|--------|--------|--------|--------|--------|--------|--------|--------|
A|--------|--------|--------|--------|--------|--------|--------|--------|--------|
E|--------|--------|--------|--------|--------|--------|--------|--------|--------|


E|------------------------|-------------|---------------------------|------------------------|
B|-10---10--8----8---10---|-------10----|------10---8---8---6---6---|-10---10--13------------|
G|------------------------|-------------|---------------------------|------------------------|
D|------------------------|-------------|---------------------------|------------------------|
A|------------------------|-------------|---------------------------|------------------------|
E|------------------------|-------------|---------------------------|------------------------|


E|------------------------|--------------------|------------------------|-----------------------|
B|-13----13--10--8---8----|------8---------13--|-15----15--13-------13--|-15--18--15--13--15----|
G|------------------------|--------------------|------------------------|-----------------------|
D|------------------------|--------------------|------------------------|-----------------------|
A|------------------------|--------------------|------------------------|-----------------------|
E|------------------------|--------------------|------------------------|-----------------------|


E|-----------------|---------------------|----------------------|-------------|------------------------|
B|------------15---|-18----18--15--------|-18---18---15---13----|------13-----|-10----10--8--------8---|
G|-----------------|---------------------|----------------------|-------------|------------------------|
D|-----------------|---------------------|----------------------|-------------|------------------------|
A|-----------------|---------------------|----------------------|-------------|------------------------|
E|-----------------|---------------------|----------------------|-------------|------------------------|


E|-----------------------|---------------------------|---------------------------|
B|-10--13--10--8---10----|-----------8---8---6---6---|-10---10--13-----------13--|
G|-----------------------|---------------------------|---------------------------|
D|-----------------------|---------------------------|---------------------------|
A|-----------------------|---------------------------|---------------------------|
E|-----------------------|---------------------------|---------------------------|


E|--------------------|-------------|-----------------|-----------------------|-----------------|
B|-15---17--13--13----|------13-----|-----------------|-----------------------|-----------------|
G|--------------------|-------------|-3-----5---5-----|-----7---7-----9---9---|-------9---12----|
D|--------------------|-------------|-----------------|-----------------------|-----------------|
A|--------------------|-------------|-----------------|-----------------------|-----------------|
E|--------------------|-------------|-----------------|-----------------------|-----------------|


E|--------------------|--------------------|--------|--------|--------|--------|--------|
B|--------------------|--------------------|--------|--------|--------|--------|--------|
G|-14--14----17--17---|------19--19----21--|--------|--------|--------|--------|--------|
D|--------------------|--------------------|--------|--------|--------|--------|--------|
A|--------------------|--------------------|--------|--------|--------|--------|--------|
E|--------------------|--------------------|--------|--------|--------|--------|--------|


E|--------|--------|--------|--------|--------|--------|--------|--------|--------|
B|--------|--------|--------|--------|--------|--------|--------|--------|--------|
G|--------|--------|--------|--------|--------|--------|--------|--------|--------|
D|--------|--------|--------|--------|--------|--------|--------|--------|--------|
A|--------|--------|--------|--------|--------|--------|--------|--------|--------|
E|--------|--------|--------|--------|--------|--------|--------|--------|--------|


E|--------|--------|--------|--------|--------|--------|--------|--------|--------|
B|--------|--------|--------|--------|--------|--------|--------|--------|--------|
G|--------|--------|--------|--------|--------|--------|--------|--------|--------|
D|--------|--------|--------|--------|--------|--------|--------|--------|--------|
A|--------|--------|--------|--------|--------|--------|--------|--------|--------|
E|--------|--------|--------|--------|--------|--------|--------|--------|--------|


E|--------|--------|--------|--------|--------|--------|--------|--------|--------|
B|--------|--------|--------|--------|--------|--------|--------|--------|--------|
G|--------|--------|--------|--------|--------|--------|--------|--------|--------|
D|--------|--------|--------|--------|--------|--------|--------|--------|--------|
A|--------|--------|--------|--------|--------|--------|--------|--------|--------|
E|--------|--------|--------|--------|--------|--------|--------|--------|--------|


E|--------|--------|--------|--------|--------|--------|--------|--------|--------|
B|--------|--------|--------|--------|--------|--------|--------|--------|--------|
G|--------|--------|--------|--------|--------|--------|--------|--------|--------|
D|--------|--------|--------|--------|--------|--------|--------|--------|--------|
A|--------|--------|--------|--------|--------|--------|--------|--------|--------|
E|--------|--------|--------|--------|--------|--------|--------|--------|--------|


E|--------|--------|--------|--------|--------|--------|--------|--------|--------|
B|--------|--------|--------|--------|--------|--------|--------|--------|--------|
G|--------|--------|--------|--------|--------|--------|--------|--------|--------|
D|--------|--------|--------|--------|--------|--------|--------|--------|--------|
A|--------|--------|--------|--------|--------|--------|--------|--------|--------|
E|--------|--------|--------|--------|--------|--------|--------|--------|--------|


E|--------|--------|--------|--------|--------|--------|--------|--------|--------|
B|--------|--------|--------|--------|--------|--------|--------|--------|--------|
G|--------|--------|--------|--------|--------|--------|--------|--------|--------|
D|--------|--------|--------|--------|--------|--------|--------|--------|--------|
A|--------|--------|--------|--------|--------|--------|--------|--------|--------|
E|--------|--------|--------|--------|--------|--------|--------|--------|--------|


E|--------|--------|--------|--------|--------|------------------------|-------------|
B|--------|--------|--------|--------|--------|-10--8---10--10----10---|-------10----|
G|--------|--------|--------|--------|--------|------------------------|-------------|
D|--------|--------|--------|--------|--------|------------------------|-------------|
A|--------|--------|--------|--------|--------|------------------------|-------------|
E|--------|--------|--------|--------|--------|------------------------|-------------|


E|------------------------------|---------------------------|-------------|-------------|
B|------10--10--8---8---6---6---|-10--10--13--10--10---10---|-------10----|------10-----|
G|------------------------------|---------------------------|-------------|-------------|
D|------------------------------|---------------------------|-------------|-------------|
A|------------------------------|---------------------------|-------------|-------------|
E|------------------------------|---------------------------|-------------|-------------|


E|------------------------|-------------|------------------------------|---------------------------|
B|-10--8---10--10----10---|-------10----|------10--10--8---8---6---6---|-10--10--13--10--10---10---|
G|------------------------|-------------|------------------------------|---------------------------|
D|------------------------|-------------|------------------------------|---------------------------|
A|------------------------|-------------|------------------------------|---------------------------|
E|------------------------|-------------|------------------------------|---------------------------|


E|-------------|-------------|------------------------|-------------|------------------------------|
B|-------10----|------10-----|-10--8---10--10----10---|-------10----|------10--10--8---8---6---6---|
G|-------------|-------------|------------------------|-------------|------------------------------|
D|-------------|-------------|------------------------|-------------|------------------------------|
A|-------------|-------------|------------------------|-------------|------------------------------|
E|-------------|-------------|------------------------|-------------|------------------------------|


E|---------------------------|-------------|-------------|--------|--------|--------|
B|-10--10--13--10--10---10---|-------10----|------10-----|--------|--------|--------|
G|---------------------------|-------------|-------------|--------|--------|--------|
D|---------------------------|-------------|-------------|--------|--------|--------|
A|---------------------------|-------------|-------------|--------|--------|--------|
E|---------------------------|-------------|-------------|--------|--------|--------|


E|--------|--------|--------|--------|--------|--------|--------|--------|--------|
B|--------|--------|--------|--------|--------|--------|--------|--------|--------|
G|--------|--------|--------|--------|--------|--------|--------|--------|--------|
D|--------|--------|--------|--------|--------|--------|--------|--------|--------|
A|--------|--------|--------|--------|--------|--------|--------|--------|--------|
E|--------|--------|--------|--------|--------|--------|--------|--------|--------|


E|--------|--------|--------|--------|--------|--------|
B|--------|--------|--------|--------|--------|--------|
G|--------|--------|--------|--------|--------|--------|
D|--------|--------|--------|--------|--------|--------|
A|--------|--------|--------|--------|--------|--------|
E|--------|--------|--------|--------|--------|--------|





Track 4: Lead Guitar

E|--------|--------|--------|--------|--------|--------|--------|--------|--------|
B|--------|--------|--------|--------|--------|--------|--------|--------|--------|
G|--------|--------|--------|--------|--------|--------|--------|--------|--------|
D|--------|--------|--------|--------|--------|--------|--------|--------|--------|
A|--------|--------|--------|--------|--------|--------|--------|--------|--------|
E|--------|--------|--------|--------|--------|--------|--------|--------|--------|


E|--------|--------|--------|--------|--------|--------|--------|--------|--------|
B|--------|--------|--------|--------|--------|--------|--------|--------|--------|
G|--------|--------|--------|--------|--------|--------|--------|--------|--------|
D|--------|--------|--------|--------|--------|--------|--------|--------|--------|
A|--------|--------|--------|--------|--------|--------|--------|--------|--------|
E|--------|--------|--------|--------|--------|--------|--------|--------|--------|


E|--------|--------|--------|--------|--------|--------|--------|--------|--------|
B|--------|--------|--------|--------|--------|--------|--------|--------|--------|
G|--------|--------|--------|--------|--------|--------|--------|--------|--------|
D|--------|--------|--------|--------|--------|--------|--------|--------|--------|
A|--------|--------|--------|--------|--------|--------|--------|--------|--------|
E|--------|--------|--------|--------|--------|--------|--------|--------|--------|


E|--------|--------|--------|--------|--------|--------|--------|--------|--------|
B|--------|--------|--------|--------|--------|--------|--------|--------|--------|
G|--------|--------|--------|--------|--------|--------|--------|--------|--------|
D|--------|--------|--------|--------|--------|--------|--------|--------|--------|
A|--------|--------|--------|--------|--------|--------|--------|--------|--------|
E|--------|--------|--------|--------|--------|--------|--------|--------|--------|


E|--------|--------|--------|--------|--------|--------|--------|--------|--------|
B|--------|--------|--------|--------|--------|--------|--------|--------|--------|
G|--------|--------|--------|--------|--------|--------|--------|--------|--------|
D|--------|--------|--------|--------|--------|--------|--------|--------|--------|
A|--------|--------|--------|--------|--------|--------|--------|--------|--------|
E|--------|--------|--------|--------|--------|--------|--------|--------|--------|


E|--------|--------|--------|--------|--------|--------|--------|--------|----------------|
B|--------|--------|--------|--------|--------|--------|--------|--------|----------------|
G|--------|--------|--------|--------|--------|--------|--------|--------|----------------|
D|--------|--------|--------|--------|--------|--------|--------|--------|----------------|
A|--------|--------|--------|--------|--------|--------|--------|--------|----------------|
E|--------|--------|--------|--------|--------|--------|--------|--------|----------------|


E|--------------------------------------|----------------|-------------|------------------------------|
B|-------------------------7----7---5---|-----5---7------|-7------7----|-5---5---3---3---7----7---10--|
G|-------------5---7---9----------------|----------------|-------------|------------------------------|
D|-5---7---9----------------------------|----------------|-------------|------------------------------|
A|--------------------------------------|----------------|-------------|------------------------------|
E|--------------------------------------|----------------|-------------|------------------------------|


E|-----------------------------|-------------|------------------------|---------------------------|
B|--------------7----5----3----|-5------5----|------3----7----7---5---|-----------7---7---7---5---|
G|-----------------------------|-------------|------------------------|---------------------------|
D|-----------------------------|-------------|------------------------|---------------------------|
A|-----------------------------|-------------|------------------------|---------------------------|
E|-----------------------------|-------------|------------------------|---------------------------|


E|-------------|------------------------------|-----------------------------|-------------|
B|-7------5----|-5---5---3---3---7----7---10--|--------------7----5----3----|-5------5----|
G|-------------|------------------------------|-----------------------------|-------------|
D|-------------|------------------------------|-----------------------------|-------------|
A|-------------|------------------------------|-----------------------------|-------------|
E|-------------|------------------------------|-----------------------------|-------------|


E|-------------|-------------|--------------------|-------------|-----------------|
B|-------5-----|------5------|-15--13--15----15---|-------15----|-18---18---13----|
G|-------------|-------------|--------------------|-------------|-----------------|
D|-------------|-------------|--------------------|-------------|-----------------|
A|-------------|-------------|--------------------|-------------|-----------------|
E|-------------|-------------|--------------------|-------------|-----------------|


E|------------------------|--------------------|--------------------|-------------|
B|-15-15-15-13-15----15---|-------17--13---13--|-----13--10---13----|-15-----15---|
G|------------------------|--------------------|--------------------|-------------|
D|------------------------|--------------------|--------------------|-------------|
A|------------------------|--------------------|--------------------|-------------|
E|------------------------|--------------------|--------------------|-------------|


E|-------------|-------------|--------|--------|--------|--------|--------|--------|
B|-------15----|------15-----|--------|--------|--------|--------|--------|--------|
G|-------------|-------------|--------|--------|--------|--------|--------|--------|
D|-------------|-------------|--------|--------|--------|--------|--------|--------|
A|-------------|-------------|--------|--------|--------|--------|--------|--------|
E|-------------|-------------|--------|--------|--------|--------|--------|--------|


E|--------|--------|--------|--------|--------|--------|--------|--------|--------|
B|--------|--------|--------|--------|--------|--------|--------|--------|--------|
G|--------|--------|--------|--------|--------|--------|--------|--------|--------|
D|--------|--------|--------|--------|--------|--------|--------|--------|--------|
A|--------|--------|--------|--------|--------|--------|--------|--------|--------|
E|--------|--------|--------|--------|--------|--------|--------|--------|--------|


E|--------|--------|--------|--------|--------|-14----14--12---12---|-14--12--12--14--14----|
B|--------|--------|--------|--------|--------|---------------------|-----------------------|
G|--------|--------|--------|--------|--------|---------------------|-----------------------|
D|--------|--------|--------|--------|--------|---------------------|-----------------------|
A|--------|--------|--------|--------|--------|---------------------|-----------------------|
E|--------|--------|--------|--------|--------|---------------------|-----------------------|


E|------14--12--10---12---|-14---14--17-----------17--|-19--17--14--12--12----|------12-----|
B|------------------------|---------------------------|-----------------------|-------------|
G|------------------------|---------------------------|-----------------------|-------------|
D|------------------------|---------------------------|-----------------------|-------------|
A|------------------------|---------------------------|-----------------------|-------------|
E|------------------------|---------------------------|-----------------------|-------------|


E|-14----14--12-------12--|-14--17--14--12--14----|------------10--12--|-14---14--17-----------17--|
B|------------------------|-----------------------|--------------------|---------------------------|
G|------------------------|-----------------------|--------------------|---------------------------|
D|------------------------|-----------------------|--------------------|---------------------------|
A|------------------------|-----------------------|--------------------|---------------------------|
E|------------------------|-----------------------|--------------------|---------------------------|


E|-19---21--17--17----|------17-----|-17-----17---|--------|--------|--------|-----------------|
B|--------------------|-------------|-------------|--------|--------|--------|-------13----13--|
G|--------------------|-------------|-------------|--------|--------|--------|-----------------|
D|--------------------|-------------|-------------|--------|--------|--------|-----------------|
A|--------------------|-------------|-------------|--------|--------|--------|-----------------|
E|--------------------|-------------|-------------|--------|--------|--------|-----------------|


E|------------------------------|-----------------------------------------|-10---10---10-17----|
B|------13-10-------------------|-------------------------------------10--|--------------------|
G|------------12-10-------------|---------------------9---9---9---12------|--------------------|
D|------------------12-10-------|-------------10--12----------------------|--------------------|
A|------------------------10----|-10--10--10------------------------------|--------------------|
E|------------------------------|-----------------------------------------|--------------------|


E|-17--17-15-20-20-20-20-20---20---|-20--13--15--17---13--17---13--15-15-13-15-|-17--13--17-----------------|
B|---------------------------------|-------------------------------------------|--------------15--15----1513|
G|---------------------------------|-------------------------------------------|----------------------------|
D|---------------------------------|-------------------------------------------|----------------------------|
A|---------------------------------|-------------------------------------------|----------------------------|
E|---------------------------------|-------------------------------------------|----------------------------|


E|--------------------------------------|---------------------------------|------------------------------|
B|------13--15--17--17--20--20-20-17----|-----------5---13-10-------------|------------------------------|
G|-14--------------------------------19-|-19------------------12-10-------|------------------------------|
D|--------------------------------------|---------------------------12-10-|------------------------------|
A|--------------------------------------|---------------------------------|-12-10------------------------|
E|--------------------------------------|---------------------------------|-------12-10-7--5--0----------|


E|--------|--------|--------|--------|--------|--------|--------|--------|--------|
B|--------|--------|--------|--------|--------|--------|--------|--------|--------|
G|--------|--------|--------|--------|--------|--------|--------|--------|--------|
D|--------|--------|--------|--------|--------|--------|--------|--------|--------|
A|--------|--------|--------|--------|--------|--------|--------|--------|--------|
E|--------|--------|--------|--------|--------|--------|--------|--------|--------|


E|--------|--------|--------|--------|--------|--------|--------|--------|--------|
B|--------|--------|--------|--------|--------|--------|--------|--------|--------|
G|--------|--------|--------|--------|--------|--------|--------|--------|--------|
D|--------|--------|--------|--------|--------|--------|--------|--------|--------|
A|--------|--------|--------|--------|--------|--------|--------|--------|--------|
E|--------|--------|--------|--------|--------|--------|--------|--------|--------|


E|--------|--------|--------|--------|--------|--------|--------|--------|--------|
B|--------|--------|--------|--------|--------|--------|--------|--------|--------|
G|--------|--------|--------|--------|--------|--------|--------|--------|--------|
D|--------|--------|--------|--------|--------|--------|--------|--------|--------|
A|--------|--------|--------|--------|--------|--------|--------|--------|--------|
E|--------|--------|--------|--------|--------|--------|--------|--------|--------|


E|--------|--------|--------|--------|--------|--------|--------|--------|--------|
B|--------|--------|--------|--------|--------|--------|--------|--------|--------|
G|--------|--------|--------|--------|--------|--------|--------|--------|--------|
D|--------|--------|--------|--------|--------|--------|--------|--------|--------|
A|--------|--------|--------|--------|--------|--------|--------|--------|--------|
E|--------|--------|--------|--------|--------|--------|--------|--------|--------|


E|--------|--------|--------|--------|--------|--------|--------|--------|--------|
B|--------|--------|--------|--------|--------|--------|--------|--------|--------|
G|--------|--------|--------|--------|--------|--------|--------|--------|--------|
D|--------|--------|--------|--------|--------|--------|--------|--------|--------|
A|--------|--------|--------|--------|--------|--------|--------|--------|--------|
E|--------|--------|--------|--------|--------|--------|--------|--------|--------|


E|--------|--------|--------|--------|--------|--------|--------|--------|--------|
B|--------|--------|--------|--------|--------|--------|--------|--------|--------|
G|--------|--------|--------|--------|--------|--------|--------|--------|--------|
D|--------|--------|--------|--------|--------|--------|--------|--------|--------|
A|--------|--------|--------|--------|--------|--------|--------|--------|--------|
E|--------|--------|--------|--------|--------|--------|--------|--------|--------|


E|--------|--------|--------|--------|--------|--------|--------|--------|--------|
B|--------|--------|--------|--------|--------|--------|--------|--------|--------|
G|--------|--------|--------|--------|--------|--------|--------|--------|--------|
D|--------|--------|--------|--------|--------|--------|--------|--------|--------|
A|--------|--------|--------|--------|--------|--------|--------|--------|--------|
E|--------|--------|--------|--------|--------|--------|--------|--------|--------|


E|--------|--------|--------|--------|--------|--------|--------|--------|--------|
B|--------|--------|--------|--------|--------|--------|--------|--------|--------|
G|--------|--------|--------|--------|--------|--------|--------|--------|--------|
D|--------|--------|--------|--------|--------|--------|--------|--------|--------|
A|--------|--------|--------|--------|--------|--------|--------|--------|--------|
E|--------|--------|--------|--------|--------|--------|--------|--------|--------|


E|--------|--------|
B|--------|--------|
G|--------|--------|
D|--------|--------|
A|--------|--------|
E|--------|--------|





Track 5: Rythym Guitar

E|--------|--------|--------|--------|--------|--------|--------|--------|--------|
B|--------|--------|--------|--------|--------|--------|--------|--------|--------|
G|--------|--------|--------|--------|--------|--------|--------|--------|--------|
D|--------|--------|--------|--------|--------|--------|--------|--------|--------|
A|--------|--------|--------|--------|--------|--------|--------|--------|--------|
E|--------|--------|--------|--------|--------|--------|--------|--------|--------|


E|--------|--------|--------|--------|--------|--------|--------|--------|--------|
B|--------|--------|--------|--------|--------|--------|--------|--------|--------|
G|--------|--------|--------|--------|--------|--------|--------|--------|--------|
D|--------|--------|--------|--------|--------|--------|--------|--------|--------|
A|--------|--------|--------|--------|--------|--------|--------|--------|--------|
E|--------|--------|--------|--------|--------|--------|--------|--------|--------|


E|--------|--------|--------|--------|--------|--------|--------|--------|--------|
B|--------|--------|--------|--------|--------|--------|--------|--------|--------|
G|--------|--------|--------|--------|--------|--------|--------|--------|--------|
D|--------|--------|--------|--------|--------|--------|--------|--------|--------|
A|--------|--------|--------|--------|--------|--------|--------|--------|--------|
E|--------|--------|--------|--------|--------|--------|--------|--------|--------|


E|--------|--------|--------|--------|--------|--------|--------|--------|--------|
B|--------|--------|--------|--------|--------|--------|--------|--------|--------|
G|--------|--------|--------|--------|--------|--------|--------|--------|--------|
D|--------|--------|--------|--------|--------|--------|--------|--------|--------|
A|--------|--------|--------|--------|--------|--------|--------|--------|--------|
E|--------|--------|--------|--------|--------|--------|--------|--------|--------|


E|--------|--------|--------|--------|--------|--------|--------|--------|--------|
B|--------|--------|--------|--------|--------|--------|--------|--------|--------|
G|--------|--------|--------|--------|--------|--------|--------|--------|--------|
D|--------|--------|--------|--------|--------|--------|--------|--------|--------|
A|--------|--------|--------|--------|--------|--------|--------|--------|--------|
E|--------|--------|--------|--------|--------|--------|--------|--------|--------|


E|--------|--------|--------|--------|--------|--------|--------|--------|--------|
B|--------|--------|--------|--------|--------|--------|--------|--------|--------|
G|--------|--------|--------|--------|--------|--------|--------|--------|--------|
D|--------|--------|--------|--------|--------|--------|--------|--------|--------|
A|--------|--------|--------|--------|--------|--------|--------|--------|--------|
E|--------|--------|--------|--------|--------|--------|--------|--------|--------|


E|--------|--------|--------|--------|--------|--------|--------|--------|--------|
B|--------|--------|--------|--------|--------|--------|--------|--------|--------|
G|--------|--------|--------|--------|--------|--------|--------|--------|--------|
D|--------|--------|--------|--------|--------|--------|--------|--------|--------|
A|--------|--------|--------|--------|--------|--------|--------|--------|--------|
E|--------|--------|--------|--------|--------|--------|--------|--------|--------|


E|--------|--------|--------|--------|--------|--------|--------|--------|--------|
B|--------|--------|--------|--------|--------|--------|--------|--------|--------|
G|--------|--------|--------|--------|--------|--------|--------|--------|--------|
D|--------|--------|--------|--------|--------|--------|--------|--------|--------|
A|--------|--------|--------|--------|--------|--------|--------|--------|--------|
E|--------|--------|--------|--------|--------|--------|--------|--------|--------|


E|--------|--------|--------|--------|--------|--------|--------|--------|--------|
B|--------|--------|--------|--------|--------|--------|--------|--------|--------|
G|--------|--------|--------|--------|--------|--------|--------|--------|--------|
D|--------|--------|--------|--------|--------|--------|--------|--------|--------|
A|--------|--------|--------|--------|--------|--------|--------|--------|--------|
E|--------|--------|--------|--------|--------|--------|--------|--------|--------|


E|--------|--------|--------|--------|--------|--------|--------|--------|--------|
B|--------|--------|--------|--------|--------|--------|--------|--------|--------|
G|--------|--------|--------|--------|--------|--------|--------|--------|--------|
D|--------|--------|--------|--------|--------|--------|--------|--------|--------|
A|--------|--------|--------|--------|--------|--------|--------|--------|--------|
E|--------|--------|--------|--------|--------|--------|--------|--------|--------|


E|--------|--------|--------|--------|--------|--------|--------|--------|--------|
B|--------|--------|--------|--------|--------|--------|--------|--------|--------|
G|--------|--------|--------|--------|--------|--------|--------|--------|--------|
D|--------|--------|--------|--------|--------|--------|--------|--------|--------|
A|--------|--------|--------|--------|--------|--------|--------|--------|--------|
E|--------|--------|--------|--------|--------|--------|--------|--------|--------|


E|--------|--------|--------|--------|--------|--------|--------|--------|--------|
B|--------|--------|--------|--------|--------|--------|--------|--------|--------|
G|--------|--------|--------|--------|--------|--------|--------|--------|--------|
D|--------|--------|--------|--------|--------|--------|--------|--------|--------|
A|--------|--------|--------|--------|--------|--------|--------|--------|--------|
E|--------|--------|--------|--------|--------|--------|--------|--------|--------|


E|--------|--------|--------|--------|--------|--------|--------|--------|--------|
B|--------|--------|--------|--------|--------|--------|--------|--------|--------|
G|--------|--------|--------|--------|--------|--------|--------|--------|--------|
D|--------|--------|--------|--------|--------|--------|--------|--------|--------|
A|--------|--------|--------|--------|--------|--------|--------|--------|--------|
E|--------|--------|--------|--------|--------|--------|--------|--------|--------|


E|--------|--------|--------|--------|--------|-----------------------|------------------------------|
B|--------|--------|--------|--------|--------|-----------------------|------------------------------|
G|--------|--------|--------|--------|--------|-----------------------|------------------------------|
D|--------|--------|--------|--------|--------|-------------------15--|-----------------8------------|
A|--------|--------|--------|--------|--------|---------------13------|-------------6----------------|
E|--------|--------|--------|--------|--------|-------9---11----------|-----2---4------------0---2---|


E|---------------------------|------------------------------|---------------------------|
B|---------------------------|------------------------------|---------------------------|
G|---------------------------|------------------------------|---------------------------|
D|-----6----------------11---|-------------9----------------|-14---------------12-------|
A|-4----------------9--------|---------7----------------12--|--------------10-----------|
E|----------5---7------------|-3---5------------8---10------|------6---8------------9---|


E|--------------------|--------|--------|--------|--------|--------|--------|--------|
B|--------------------|--------|--------|--------|--------|--------|--------|--------|
G|--------------------|--------|--------|--------|--------|--------|--------|--------|
D|---------15---------|--------|--------|--------|--------|--------|--------|--------|
A|-----13-------------|--------|--------|--------|--------|--------|--------|--------|
E|-11-----------------|--------|--------|--------|--------|--------|--------|--------|


E|--------|--------|--------|--------|--------|--------|--------|--------|--------|
B|--------|--------|--------|--------|--------|--------|--------|--------|--------|
G|--------|--------|--------|--------|--------|--------|--------|--------|--------|
D|--------|--------|--------|--------|--------|--------|--------|--------|--------|
A|--------|--------|--------|--------|--------|--------|--------|--------|--------|
E|--------|--------|--------|--------|--------|--------|--------|--------|--------|


E|--------|--------|--------|--------|--------|--------|--------|--------|--------|
B|--------|--------|--------|--------|--------|--------|--------|--------|--------|
G|--------|--------|--------|--------|--------|--------|--------|--------|--------|
D|--------|--------|--------|--------|--------|--------|--------|--------|--------|
A|--------|--------|--------|--------|--------|--------|--------|--------|--------|
E|--------|--------|--------|--------|--------|--------|--------|--------|--------|


E|--------|--------|--------|--------|--------|--------|--------|--------|--------|
B|--------|--------|--------|--------|--------|--------|--------|--------|--------|
G|--------|--------|--------|--------|--------|--------|--------|--------|--------|
D|--------|--------|--------|--------|--------|--------|--------|--------|--------|
A|--------|--------|--------|--------|--------|--------|--------|--------|--------|
E|--------|--------|--------|--------|--------|--------|--------|--------|--------|


E|--------|--------|--------|--------|--------|--------|--------|--------|--------|
B|--------|--------|--------|--------|--------|--------|--------|--------|--------|
G|--------|--------|--------|--------|--------|--------|--------|--------|--------|
D|--------|--------|--------|--------|--------|--------|--------|--------|--------|
A|--------|--------|--------|--------|--------|--------|--------|--------|--------|
E|--------|--------|--------|--------|--------|--------|--------|--------|--------|


E|--------|--------|--------|--------|--------|--------|--------|--------|--------|
B|--------|--------|--------|--------|--------|--------|--------|--------|--------|
G|--------|--------|--------|--------|--------|--------|--------|--------|--------|
D|--------|--------|--------|--------|--------|--------|--------|--------|--------|
A|--------|--------|--------|--------|--------|--------|--------|--------|--------|
E|--------|--------|--------|--------|--------|--------|--------|--------|--------|


E|--------|--------|--------|--------|--------|--------|--------|--------|--------|
B|--------|--------|--------|--------|--------|--------|--------|--------|--------|
G|--------|--------|--------|--------|--------|--------|--------|--------|--------|
D|--------|--------|--------|--------|--------|--------|--------|--------|--------|
A|--------|--------|--------|--------|--------|--------|--------|--------|--------|
E|--------|--------|--------|--------|--------|--------|--------|--------|--------|


E|--------|--------|--------|--------|--------|--------|--------|--------|
B|--------|--------|--------|--------|--------|--------|--------|--------|
G|--------|--------|--------|--------|--------|--------|--------|--------|
D|--------|--------|--------|--------|--------|--------|--------|--------|
A|--------|--------|--------|--------|--------|--------|--------|--------|
E|--------|--------|--------|--------|--------|--------|--------|--------|





Track 6: Seven String Bits

E|--------|--------|--------|--------|--------|--------|--------|--------|--------|
B|--------|--------|--------|--------|--------|--------|--------|--------|--------|
G|--------|--------|--------|--------|--------|--------|--------|--------|--------|
D|--------|--------|--------|--------|--------|--------|--------|--------|--------|
A|--------|--------|--------|--------|--------|--------|--------|--------|--------|
E|--------|--------|--------|--------|--------|--------|--------|--------|--------|
B|--------|--------|--------|--------|--------|--------|--------|--------|--------|


E|--------|--------|--------|--------|--------|--------|--------|--------|--------|
B|--------|--------|--------|--------|--------|--------|--------|--------|--------|
G|--------|--------|--------|--------|--------|--------|--------|--------|--------|
D|--------|--------|--------|--------|--------|--------|--------|--------|--------|
A|--------|--------|--------|--------|--------|--------|--------|--------|--------|
E|--------|--------|--------|--------|--------|--------|--------|--------|--------|
B|--------|--------|--------|--------|--------|--------|--------|--------|--------|


E|--------|--------|--------|--------|--------|--------|--------|--------|--------|
B|--------|--------|--------|--------|--------|--------|--------|--------|--------|
G|--------|--------|--------|--------|--------|--------|--------|--------|--------|
D|--------|--------|--------|--------|--------|--------|--------|--------|--------|
A|--------|--------|--------|--------|--------|--------|--------|--------|--------|
E|--------|--------|--------|--------|--------|--------|--------|--------|--------|
B|--------|--------|--------|--------|--------|--------|--------|--------|--------|


E|--------|--------|--------|--------|--------|--------|--------|--------|--------|
B|--------|--------|--------|--------|--------|--------|--------|--------|--------|
G|--------|--------|--------|--------|--------|--------|--------|--------|--------|
D|--------|--------|--------|--------|--------|--------|--------|--------|--------|
A|--------|--------|--------|--------|--------|--------|--------|--------|--------|
E|--------|--------|--------|--------|--------|--------|--------|--------|--------|
B|--------|--------|--------|--------|--------|--------|--------|--------|--------|


E|--------|--------|--------|--------|--------|--------|--------|--------|--------|
B|--------|--------|--------|--------|--------|--------|--------|--------|--------|
G|--------|--------|--------|--------|--------|--------|--------|--------|--------|
D|--------|--------|--------|--------|--------|--------|--------|--------|--------|
A|--------|--------|--------|--------|--------|--------|--------|--------|--------|
E|--------|--------|--------|--------|--------|--------|--------|--------|--------|
B|--------|--------|--------|--------|--------|--------|--------|--------|--------|


E|--------|--------|--------|--------|--------|--------|--------|--------|--------|
B|--------|--------|--------|--------|--------|--------|--------|--------|--------|
G|--------|--------|--------|--------|--------|--------|--------|--------|--------|
D|--------|--------|--------|--------|--------|--------|--------|--------|--------|
A|--------|--------|--------|--------|--------|--------|--------|--------|--------|
E|--------|--------|--------|--------|--------|--------|--------|--------|--------|
B|--------|--------|--------|--------|--------|--------|--------|--------|--------|


E|--------|--------|--------|--------|--------|--------|--------|--------|--------|
B|--------|--------|--------|--------|--------|--------|--------|--------|--------|
G|--------|--------|--------|--------|--------|--------|--------|--------|--------|
D|--------|--------|--------|--------|--------|--------|--------|--------|--------|
A|--------|--------|--------|--------|--------|--------|--------|--------|--------|
E|--------|--------|--------|--------|--------|--------|--------|--------|--------|
B|--------|--------|--------|--------|--------|--------|--------|--------|--------|


E|--------|--------|--------|--------|--------|--------|--------|--------|--------|
B|--------|--------|--------|--------|--------|--------|--------|--------|--------|
G|--------|--------|--------|--------|--------|--------|--------|--------|--------|
D|--------|--------|--------|--------|--------|--------|--------|--------|--------|
A|--------|--------|--------|--------|--------|--------|--------|--------|--------|
E|--------|--------|--------|--------|--------|--------|--------|--------|--------|
B|--------|--------|--------|--------|--------|--------|--------|--------|--------|


E|--------|--------|--------|--------|--------|--------|--------|--------|--------|
B|--------|--------|--------|--------|--------|--------|--------|--------|--------|
G|--------|--------|--------|--------|--------|--------|--------|--------|--------|
D|--------|--------|--------|--------|--------|--------|--------|--------|--------|
A|--------|--------|--------|--------|--------|--------|--------|--------|--------|
E|--------|--------|--------|--------|--------|--------|--------|--------|--------|
B|--------|--------|--------|--------|--------|--------|--------|--------|--------|


E|--------|--------|--------|--------|--------|--------|--------|--------|--------|
B|--------|--------|--------|--------|--------|--------|--------|--------|--------|
G|--------|--------|--------|--------|--------|--------|--------|--------|--------|
D|--------|--------|--------|--------|--------|--------|--------|--------|--------|
A|--------|--------|--------|--------|--------|--------|--------|--------|--------|
E|--------|--------|--------|--------|--------|--------|--------|--------|--------|
B|--------|--------|--------|--------|--------|--------|--------|--------|--------|


E|--------|--------|--------|--------|--------|--------|--------|--------|--------|
B|--------|--------|--------|--------|--------|--------|--------|--------|--------|
G|--------|--------|--------|--------|--------|--------|--------|--------|--------|
D|--------|--------|--------|--------|--------|--------|--------|--------|--------|
A|--------|--------|--------|--------|--------|--------|--------|--------|--------|
E|--------|--------|--------|--------|--------|--------|--------|--------|--------|
B|--------|--------|--------|--------|--------|--------|--------|--------|--------|


E|--------|--------|--------|--------|--------|--------|--------|--------|--------|
B|--------|--------|--------|--------|--------|--------|--------|--------|--------|
G|--------|--------|--------|--------|--------|--------|--------|--------|--------|
D|--------|--------|--------|--------|--------|--------|--------|--------|--------|
A|--------|--------|--------|--------|--------|--------|--------|--------|--------|
E|--------|--------|--------|--------|--------|--------|--------|--------|--------|
B|--------|--------|--------|--------|--------|--------|--------|--------|--------|


E|--------|--------|--------|--------|--------|--------|--------|--------|--------|
B|--------|--------|--------|--------|--------|--------|--------|--------|--------|
G|--------|--------|--------|--------|--------|--------|--------|--------|--------|
D|--------|--------|--------|--------|--------|--------|--------|--------|--------|
A|--------|--------|--------|--------|--------|--------|--------|--------|--------|
E|--------|--------|--------|--------|--------|--------|--------|--------|--------|
B|--------|--------|--------|--------|--------|--------|--------|--------|--------|


E|--------|--------|--------|--------|--------|--------|--------|--------|--------|
B|--------|--------|--------|--------|--------|--------|--------|--------|--------|
G|--------|--------|--------|--------|--------|--------|--------|--------|--------|
D|--------|--------|--------|--------|--------|--------|--------|--------|--------|
A|--------|--------|--------|--------|--------|--------|--------|--------|--------|
E|--------|--------|--------|--------|--------|--------|--------|--------|--------|
B|--------|--------|--------|--------|--------|--------|--------|--------|--------|


E|--------|--------|--------|--------|--------|--------|--------|--------|--------|
B|--------|--------|--------|--------|--------|--------|--------|--------|--------|
G|--------|--------|--------|--------|--------|--------|--------|--------|--------|
D|--------|--------|--------|--------|--------|--------|--------|--------|--------|
A|--------|--------|--------|--------|--------|--------|--------|--------|--------|
E|--------|--------|--------|--------|--------|--------|--------|--------|--------|
B|--------|--------|--------|--------|--------|--------|--------|--------|--------|


E|--------|--------|--------|--------|--------|--------|--------|--------|--------|
B|--------|--------|--------|--------|--------|--------|--------|--------|--------|
G|--------|--------|--------|--------|--------|--------|--------|--------|--------|
D|--------|--------|--------|--------|--------|--------|--------|-10-----|-9------|
A|--------|--------|--------|--------|--------|--------|--------|-10-----|-9------|
E|--------|--------|--------|--------|--------|--------|--------|-8------|-7------|
B|--------|--------|--------|--------|--------|--------|--------|--------|--------|


E|-------------|----------------------|----------------------|--------|--------|--------|
B|-------------|----------------------|----------------------|--------|--------|--------|
G|-------------|----------------------|-8----7----5----3-----|--------|--------|--------|
D|-8-----------|----------------------|----------------------|--------|--------|--------|
A|-8-----------|-----------6----8-----|-6----5----3----1-----|-5------|-5------|-5------|
E|-6------11---|------6----6----6-----|----------------------|-5------|-5------|-5------|
B|-------------|-4----4----4----4-----|----------------------|-3------|-3------|-3------|


E|--------|--------|--------|--------|--------|--------|--------|--------|--------|
B|--------|--------|--------|--------|--------|--------|--------|--------|--------|
G|--------|--------|--------|--------|--------|--------|--------|--------|--------|
D|--------|--------|--------|--------|--------|--------|--------|--------|--------|
A|-5------|-6------|-6------|-6------|-6------|--------|--------|--------|--------|
E|-5------|-6------|-6------|-6------|-6------|--------|--------|--------|--------|
B|-3------|-4------|-4------|-4------|-4------|--------|--------|--------|--------|


E|--------|--------|--------|--------|--------|--------|--------|--------|--------|
B|--------|--------|--------|--------|--------|--------|--------|--------|--------|
G|--------|--------|--------|--------|--------|--------|--------|--------|--------|
D|--------|--------|--------|--------|--------|--------|--------|--------|--------|
A|--------|--------|--------|--------|--------|--------|--------|--------|--------|
E|--------|--------|--------|--------|--------|--------|--------|--------|--------|
B|--------|--------|--------|--------|--------|--------|--------|--------|--------|


E|--------|--------|--------|--------|--------|--------|--------|--------|--------|
B|--------|--------|--------|--------|--------|--------|--------|--------|--------|
G|--------|--------|--------|--------|--------|--------|--------|--------|--------|
D|--------|--------|--------|--------|--------|--------|--------|--------|--------|
A|--------|--------|--------|--------|--------|--------|--------|--------|--------|
E|--------|--------|--------|--------|--------|--------|--------|--------|--------|
B|--------|--------|--------|--------|--------|--------|--------|--------|--------|


E|--------|--------|--------|--------|--------|--------|--------|--------|--------|
B|--------|--------|--------|--------|--------|--------|--------|--------|--------|
G|--------|--------|--------|--------|--------|--------|--------|--------|--------|
D|--------|--------|--------|--------|--------|--------|--------|--------|--------|
A|--------|--------|--------|--------|--------|--------|--------|--------|--------|
E|--------|--------|--------|--------|--------|--------|--------|--------|--------|
B|--------|--------|--------|--------|--------|--------|--------|--------|--------|


E|--------|--------|--------|--------|--------|--------|--------|--------|--------|
B|--------|--------|--------|--------|--------|--------|--------|--------|--------|
G|--------|--------|--------|--------|--------|--------|--------|--------|--------|
D|--------|--------|--------|--------|--------|--------|--------|--------|--------|
A|--------|--------|--------|--------|--------|--------|--------|--------|--------|
E|--------|--------|--------|--------|--------|--------|--------|--------|--------|
B|--------|--------|--------|--------|--------|--------|--------|--------|--------|


E|--------|--------|
B|--------|--------|
G|--------|--------|
D|--------|--------|
A|--------|--------|
E|--------|--------|
B|--------|--------|





Track 7: Synth 2

E|--------|--------|--------|--------|--------|--------|--------|--------|--------|
B|--------|--------|--------|--------|--------|--------|--------|--------|--------|
G|--------|--------|--------|--------|--------|--------|--------|--------|--------|
D|--------|--------|--------|--------|--------|--------|--------|--------|--------|
A|--------|--------|--------|--------|--------|--------|--------|--------|--------|
E|--------|--------|--------|--------|--------|--------|--------|--------|--------|


E|--------|--------|--------|--------|--------|--------|--------|--------|--------|
B|--------|--------|--------|--------|--------|--------|--------|--------|--------|
G|--------|--------|--------|--------|--------|--------|--------|--------|--------|
D|--------|--------|--------|--------|--------|--------|--------|--------|--------|
A|--------|--------|--------|--------|--------|--------|--------|--------|--------|
E|--------|--------|--------|--------|--------|--------|--------|--------|--------|


E|--------|--------|--------|--------|--------|--------|--------|--------|--------|
B|--------|--------|--------|--------|--------|--------|--------|--------|--------|
G|--------|--------|--------|--------|--------|--------|--------|--------|--------|
D|--------|--------|--------|--------|--------|--------|--------|--------|--------|
A|--------|--------|--------|--------|--------|--------|--------|--------|--------|
E|--------|--------|--------|--------|--------|--------|--------|--------|--------|


E|--------|--------|--------|--------|--------|--------|--------|--------|--------|
B|--------|--------|--------|--------|--------|--------|--------|--------|--------|
G|--------|--------|--------|--------|--------|--------|--------|--------|--------|
D|--------|--------|--------|--------|--------|--------|--------|--------|--------|
A|--------|--------|--------|--------|--------|--------|--------|--------|--------|
E|--------|--------|--------|--------|--------|--------|--------|--------|--------|


E|--------|--------|--------|--------|--------|--------|--------|--------|--------|
B|--------|--------|--------|--------|--------|--------|--------|--------|--------|
G|--------|--------|--------|--------|--------|--------|--------|--------|--------|
D|--------|--------|--------|--------|--------|--------|--------|--------|--------|
A|--------|--------|--------|--------|--------|--------|--------|--------|--------|
E|--------|--------|--------|--------|--------|--------|--------|--------|--------|


E|--------|--------|--------|--------|--------|--------|--------|--------|--------|
B|--------|--------|--------|--------|--------|--------|--------|--------|--------|
G|--------|--------|--------|--------|--------|--------|--------|--------|--------|
D|--------|--------|--------|--------|--------|--------|--------|--------|--------|
A|--------|--------|--------|--------|--------|--------|--------|--------|--------|
E|--------|--------|--------|--------|--------|--------|--------|--------|--------|


E|--------|--------|--------|--------|--------|--------|--------|--------|--------|
B|--------|--------|--------|--------|--------|--------|--------|--------|--------|
G|--------|--------|--------|--------|--------|--------|--------|--------|--------|
D|--------|--------|--------|--------|--------|--------|--------|--------|--------|
A|--------|--------|--------|--------|--------|--------|--------|--------|--------|
E|--------|--------|--------|--------|--------|--------|--------|--------|--------|


E|--------|--------|--------|--------|--------|--------|--------|--------|--------|
B|--------|--------|--------|--------|--------|--------|--------|--------|--------|
G|--------|--------|--------|--------|--------|--------|--------|--------|--------|
D|--------|--------|--------|--------|--------|--------|--------|--------|--------|
A|--------|--------|--------|--------|--------|--------|--------|--------|--------|
E|--------|--------|--------|--------|--------|--------|--------|--------|--------|


E|--------|--------|--------|--------|--------|--------|--------|--------|--------|
B|--------|--------|--------|--------|--------|--------|--------|--------|--------|
G|--------|--------|--------|--------|--------|--------|--------|--------|--------|
D|--------|--------|--------|--------|--------|--------|--------|--------|--------|
A|--------|--------|--------|--------|--------|--------|--------|--------|--------|
E|--------|--------|--------|--------|--------|--------|--------|--------|--------|


E|--------|--------|--------|--------|--------|--------|--------|--------|--------|
B|--------|--------|--------|--------|--------|--------|--------|--------|--------|
G|--------|--------|--------|--------|--------|--------|--------|--------|--------|
D|--------|--------|--------|--------|--------|--------|--------|--------|--------|
A|--------|--------|--------|--------|--------|--------|--------|--------|--------|
E|--------|--------|--------|--------|--------|--------|--------|--------|--------|


E|--------|--------|--------|--------|--------|--------|--------|--------|--------|
B|--------|--------|--------|--------|--------|--------|--------|--------|--------|
G|--------|--------|--------|--------|--------|--------|--------|--------|--------|
D|--------|--------|--------|--------|--------|--------|--------|--------|--------|
A|--------|--------|--------|--------|--------|--------|--------|--------|--------|
E|--------|--------|--------|--------|--------|--------|--------|--------|--------|


E|--------|--------|--------|--------|--------|--------|--------|--------|--------|
B|--------|--------|--------|--------|--------|--------|--------|--------|--------|
G|--------|--------|--------|--------|--------|--------|--------|--------|--------|
D|--------|--------|--------|--------|--------|--------|--------|--------|--------|
A|--------|--------|--------|--------|--------|--------|--------|--------|--------|
E|--------|--------|--------|--------|--------|--------|--------|--------|--------|


E|--------|--------|--------|--------|--------|--------|--------|--------|--------|
B|--------|--------|--------|--------|--------|--------|--------|--------|--------|
G|--------|--------|--------|--------|--------|--------|--------|--------|--------|
D|--------|--------|--------|--------|--------|--------|--------|--------|--------|
A|--------|--------|--------|--------|--------|--------|--------|--------|--------|
E|--------|--------|--------|--------|--------|--------|--------|--------|--------|


E|--------|--------|--------|--------|--------|--------|--------|--------|--------|
B|--------|--------|--------|--------|--------|--------|--------|--------|--------|
G|--------|--------|--------|--------|--------|--------|--------|--------|--------|
D|--------|--------|--------|--------|--------|--------|--------|--------|--------|
A|--------|--------|--------|--------|--------|--------|--------|--------|--------|
E|--------|--------|--------|--------|--------|--------|--------|--------|--------|


E|--------|--------|--------|--------|--------|--------|--------|--------|--------|
B|--------|--------|--------|--------|--------|--------|--------|--------|--------|
G|--------|--------|--------|--------|--------|--------|--------|--------|--------|
D|--------|--------|--------|--------|--------|--------|--------|--------|--------|
A|--------|--------|--------|--------|--------|--------|--------|--------|--------|
E|--------|--------|--------|--------|--------|--------|--------|--------|--------|


E|--------|--------|--------|--------|--------|--------|--------|--------|--------|
B|--------|--------|--------|--------|--------|--------|--------|--------|--------|
G|--------|--------|--------|--------|--------|--------|--------|--------|--------|
D|--------|--------|--------|--------|--------|--------|--------|--------|--------|
A|--------|--------|--------|--------|--------|--------|--------|--------|--------|
E|--------|--------|--------|--------|--------|--------|--------|--------|--------|


E|--------|--------|--------|--------|--------|--------|--------|--------|--------|
B|--------|--------|--------|--------|--------|--------|--------|--------|--------|
G|--------|--------|--------|--------|--------|--------|--------|--------|--------|
D|--------|--------|--------|--------|--------|--------|--------|--------|--------|
A|--------|--------|--------|--------|--------|--------|--------|--------|--------|
E|--------|--------|--------|--------|--------|--------|--------|--------|--------|


E|--------|--------|--------|--------|--------|--------|--------|--------|--------|
B|--------|--------|--------|--------|--------|--------|--------|--------|--------|
G|--------|--------|--------|--------|--------|--------|--------|--------|--------|
D|--------|--------|--------|--------|--------|--------|--------|--------|--------|
A|--------|--------|--------|--------|--------|--------|--------|--------|--------|
E|--------|--------|--------|--------|--------|--------|--------|--------|--------|


E|--------|--------|--------|--------|--------|--------|--------|--------|--------|
B|--------|--------|--------|--------|--------|--------|--------|--------|--------|
G|--------|--------|--------|--------|--------|--------|--------|--------|--------|
D|--------|--------|--------|--------|--------|--------|--------|--------|--------|
A|--------|--------|--------|--------|--------|--------|--------|--------|--------|
E|--------|--------|--------|--------|--------|--------|--------|--------|--------|


E|--------|--------|--------|--------|--------|--------|--------|--------|--------|
B|--------|--------|--------|--------|--------|--------|--------|--------|--------|
G|--------|--------|--------|--------|--------|--------|--------|--------|--------|
D|--------|--------|--------|--------|--------|--------|--------|--------|--------|
A|--------|--------|--------|--------|--------|--------|--------|--------|--------|
E|--------|--------|--------|--------|--------|--------|--------|--------|--------|


E|--------|--------|--------|--------|-17-----17---|-------17----|------17-----|-17-----17---|
B|--------|--------|--------|--------|-------------|-------20----|------20-----|-20-----20---|
G|--------|--------|--------|--------|-------------|-------------|-------------|-22-----22---|
D|--------|--------|--------|--------|-------------|-------------|-------------|-------------|
A|--------|--------|--------|--------|-------------|-------------|-------------|-------------|
E|--------|--------|--------|--------|-------------|-------------|-------------|-------------|


E|-------17----|------17-----|--------|--------|--------|-14-----|-14-----|-14-----|
B|-------20----|------20-----|--------|--------|--------|-14-----|-14-----|-14-----|
G|-------22----|------22-----|-22-----|-22-----|-22-----|-11-----|-11-----|-11-----|
D|-------24----|------24-----|--------|--------|--------|--------|--------|--------|
A|-------------|-------------|--------|--------|--------|--------|--------|--------|
E|-------------|-------------|--------|--------|--------|--------|--------|--------|


E|-14-----|
B|-14-----|
G|-11-----|
D|--------|
A|--------|
E|--------|





Track 8: Untitled

G|--------|--------|--------|--------|--------|--------|--------|--------|--------|
D|--------|--------|--------|--------|--------|--------|--------|--------|--------|
A|--------|--------|--------|--------|--------|--------|--------|--------|--------|
E|--------|--------|--------|--------|--------|--------|--------|--------|--------|
B|--------|--------|--------|--------|--------|--------|--------|--------|--------|


G|--------|--------|--------|--------|--------|--------|--------|--------|--------|
D|--------|--------|--------|--------|--------|--------|--------|--------|--------|
A|--------|--------|--------|--------|--------|--------|--------|--------|--------|
E|--------|--------|--------|--------|--------|--------|--------|--------|--------|
B|--------|--------|--------|--------|--------|--------|--------|--------|--------|


G|--------|--------|--------|--------|--------|--------|--------|--------|--------|
D|--------|--------|--------|--------|--------|--------|--------|--------|--------|
A|--------|--------|--------|--------|--------|--------|--------|--------|--------|
E|--------|--------|--------|--------|--------|--------|--------|--------|--------|
B|--------|--------|--------|--------|--------|--------|--------|--------|--------|


G|--------|--------|--------|--------|--------|--------|--------|--------|--------|
D|--------|--------|--------|--------|--------|--------|--------|--------|--------|
A|--------|--------|--------|--------|--------|--------|--------|--------|--------|
E|--------|--------|--------|--------|--------|--------|--------|--------|--------|
B|--------|--------|--------|--------|--------|--------|--------|--------|--------|


G|--------|--------|--------|--------|--------|--------|--------|--------|--------|
D|--------|--------|--------|--------|--------|--------|--------|--------|--------|
A|--------|--------|--------|--------|--------|--------|--------|--------|--------|
E|--------|--------|--------|--------|--------|--------|--------|--------|--------|
B|--------|--------|--------|--------|--------|--------|--------|--------|--------|


G|--------|--------|--------|--------|--------|--------|--------|--------|--------|
D|--------|--------|--------|--------|--------|--------|--------|--------|--------|
A|--------|--------|--------|--------|--------|--------|--------|--------|--------|
E|--------|--------|--------|--------|--------|--------|--------|--------|--------|
B|--------|--------|--------|--------|--------|--------|--------|--------|--------|


G|--------|--------|--------|--------|--------|--------|--------|--------|--------|
D|--------|--------|--------|--------|--------|--------|--------|--------|--------|
A|--------|--------|--------|--------|--------|--------|--------|--------|--------|
E|--------|--------|--------|--------|--------|--------|--------|--------|--------|
B|--------|--------|--------|--------|--------|--------|--------|--------|--------|


G|--------|--------|--------|--------|--------|--------|--------|--------|--------|
D|--------|--------|--------|--------|--------|--------|--------|--------|--------|
A|--------|--------|--------|--------|--------|--------|--------|--------|--------|
E|--------|--------|--------|--------|--------|--------|--------|--------|--------|
B|--------|--------|--------|--------|--------|--------|--------|--------|--------|


G|--------|--------|--------|--------|--------|--------|--------|--------|--------|
D|--------|--------|--------|--------|--------|--------|--------|--------|--------|
A|--------|--------|--------|--------|--------|--------|--------|--------|--------|
E|--------|--------|--------|--------|--------|--------|--------|--------|--------|
B|--------|--------|--------|--------|--------|--------|--------|--------|--------|


G|--------|--------|--------|--------|--------|--------|--------|--------|--------|
D|--------|--------|--------|--------|--------|--------|--------|--------|--------|
A|--------|--------|--------|--------|--------|--------|--------|--------|--------|
E|--------|--------|--------|--------|--------|--------|--------|--------|--------|
B|--------|--------|--------|--------|--------|--------|--------|--------|--------|


G|--------|--------|--------|--------|--------|--------|--------|--------|--------|
D|--------|--------|--------|--------|--------|--------|--------|--------|--------|
A|--------|--------|--------|--------|--------|--------|--------|--------|--------|
E|--------|--------|--------|--------|--------|--------|--------|--------|--------|
B|--------|--------|--------|--------|--------|--------|--------|--------|--------|


G|--------|--------|--------|--------|--------|--------|--------|--------|--------|
D|--------|--------|--------|--------|--------|--------|--------|--------|--------|
A|--------|--------|--------|--------|--------|--------|--------|--------|--------|
E|--------|--------|--------|--------|--------|--------|--------|--------|--------|
B|--------|--------|--------|--------|--------|--------|--------|--------|--------|


G|--------|--------|--------|--------|--------|--------|--------|--------|--------|
D|--------|--------|--------|--------|--------|--------|--------|--------|--------|
A|--------|--------|--------|--------|--------|--------|--------|--------|--------|
E|--------|--------|--------|--------|--------|--------|--------|--------|--------|
B|--------|--------|--------|--------|--------|--------|--------|--------|--------|


G|--------|--------|--------|--------|--------|--------|--------|--------|--------|
D|--------|--------|--------|--------|--------|--------|--------|--------|--------|
A|--------|--------|--------|--------|--------|--------|--------|--------|--------|
E|--------|--------|--------|--------|--------|--------|--------|--------|--------|
B|--------|--------|--------|--------|--------|--------|--------|--------|--------|


G|--------|--------|--------|--------|--------|--------|--------|--------|--------|
D|--------|--------|--------|--------|--------|--------|--------|--------|--------|
A|--------|--------|--------|--------|--------|--------|--------|--------|--------|
E|--------|--------|--------|--------|--------|--------|--------|--------|--------|
B|--------|--------|--------|--------|--------|--------|--------|--------|--------|


G|--------|--------|--------|--------|--------|--------|--------|--------|--------|
D|--------|--------|--------|--------|--------|--------|--------|--------|--------|
A|--------|--------|--------|--------|--------|--------|--------|--------|--------|
E|--------|--------|--------|--------|--------|--------|--------|--------|--------|
B|--------|--------|--------|--------|--------|--------|--------|--------|--------|


G|--------|--------|--------|--------|--------|--------|--------|--------|--------|
D|--------|--------|--------|--------|--------|--------|--------|--------|--------|
A|--------|--------|--------|--------|--------|--------|--------|--------|--------|
E|--------|--------|--------|--------|--------|--------|--------|--------|--------|
B|--------|--------|--------|--------|--------|--------|--------|--------|--------|


G|--------|--------|--------|--------|--------|--------|--------|--------|--------|
D|--------|--------|--------|--------|--------|--------|--------|--------|--------|
A|--------|--------|--------|--------|--------|--------|--------|--------|--------|
E|--------|--------|--------|--------|--------|--------|--------|--------|--------|
B|--------|--------|--------|--------|--------|--------|--------|--------|--------|


G|--------|--------|--------|--------|--------|--------|--------|--------|--------|
D|--------|--------|--------|--------|--------|--------|--------|--------|--------|
A|--------|--------|--------|--------|--------|--------|--------|--------|--------|
E|--------|--------|--------|--------|--------|--------|--------|--------|--------|
B|--------|--------|--------|--------|--------|--------|--------|--------|--------|


G|--------|--------|--------|--------|--------|--------|--------|--------|--------|
D|--------|--------|--------|--------|--------|--------|--------|--------|--------|
A|--------|--------|--------|--------|--------|--------|--------|--------|--------|
E|--------|--------|--------|--------|--------|--------|--------|--------|--------|
B|--------|--------|--------|--------|--------|--------|--------|--------|--------|


G|--------|--------|--------|--------|--------|--------|--------|--------|--------|
D|--------|--------|--------|--------|--------|--------|--------|--------|--------|
A|--------|--------|--------|--------|--------|--------|--------|--------|--------|
E|--------|--------|--------|--------|--------|--------|--------|--------|--------|
B|--------|--------|--------|--------|--------|--------|--------|--------|--------|


G|--------|--------|--------|--------|--------|--------|--------|--------|
D|--------|--------|--------|--------|--------|--------|--------|--------|
A|--------|--------|--------|--------|--------|--------|--------|--------|
E|--------|--------|--------|--------|--------|--------|--------|--------|
B|--------|--------|--------|--------|--------|--------|--------|--------|