Menu:

 

Search:

 

steve vai - frank:

 



Title: Frank
Artist: 
Album: The Ultra Zone
Author: Steve Vai


Track 1: Electric

E|--------|--------|--------|--------|-----------------------|---------------------------------|
B|--------|--------|--------|--------|-------10--8---8-------|-----8---6---5---5---------------|
G|--------|--------|--------|--------|-------------------10--|-10------------------7---7---5---|
D|--------|--------|--------|--------|-------8---------------|---------7-----------------------|
A|--------|--------|--------|--------|-----------------------|---------------------------------|
E|--------|--------|--------|--------|-----------------------|---------------------------------|


E|---------------------------------|-----------------------------------|---------------------|
B|-6---5---5---3---3---5---3---1---|-1---------------------------------|------1---------1----|
G|---------------------------------|-----3---3---2---2---3--2--0-------|-0---------0---------|
D|-5-----------------------3-------|------------------------------3----|---------------------|
A|---------------------------------|-----------------------------------|---------------------|
E|---------------------------------|-----------------------------------|---------------------|


E|-3---------------------|-----------------------|--------|--------|--------|--------|
B|-1---------------------|-----------------------|--------|--------|--------|--------|
G|-0---------------------|-----------------------|--------|--------|--------|--------|
D|-----------------------|-----------------------|--------|--------|--------|--------|
A|-----------------------|-----------------------|--------|--------|--------|--------|
E|-------3---3---3---3---|-3---3---3-------------|--------|--------|--------|--------|


E|--------|--------|--------|--------|--------|--------|--------|--------|--------|
B|--------|--------|--------|--------|--------|--------|--------|--------|--------|
G|--------|--------|--------|--------|--------|--------|--------|--------|--------|
D|--------|--------|--------|--------|--------|--------|--------|--------|--------|
A|--------|--------|--------|--------|--------|--------|--------|--------|--------|
E|--------|--------|--------|--------|--------|--------|--------|--------|--------|


E|--------|--------|--------|--------|--------|--------|--------|--------|--------|
B|--------|--------|--------|--------|--------|--------|--------|--------|--------|
G|--------|--------|--------|--------|--------|--------|--------|--------|--------|
D|--------|--------|--------|--------|--------|--------|--------|--------|--------|
A|--------|--------|--------|--------|--------|--------|--------|--------|--------|
E|--------|--------|--------|--------|--------|--------|--------|--------|--------|


E|--------|--------|--------|--------|--------|--------|--------|--------|--------|
B|--------|--------|--------|--------|--------|--------|--------|--------|--------|
G|--------|--------|--------|--------|--------|--------|--------|--------|--------|
D|--------|--------|--------|--------|--------|--------|--------|--------|--------|
A|--------|--------|--------|--------|--------|--------|--------|--------|--------|
E|--------|--------|--------|--------|--------|--------|--------|--------|--------|


E|--------|--------|--------|--------|--------|--------|--------|--------|--------|
B|--------|--------|--------|--------|--------|--------|--------|--------|--------|
G|--------|--------|--------|--------|--------|--------|--------|--------|--------|
D|--------|--------|--------|--------|--------|--------|--------|--------|--------|
A|--------|--------|--------|--------|--------|--------|--------|--------|--------|
E|--------|--------|--------|--------|--------|--------|--------|--------|--------|


E|--------|--------|--------|--------|--------|--------|--------|--------|--------|
B|--------|--------|--------|--------|--------|--------|--------|--------|--------|
G|--------|--------|--------|--------|--------|--------|--------|--------|--------|
D|--------|--------|--------|--------|--------|--------|--------|--------|--------|
A|--------|--------|--------|--------|--------|--------|--------|--------|--------|
E|--------|--------|--------|--------|--------|--------|--------|--------|--------|


E|--------|--------|--------|--------|--------|--------|--------|--------|--------|
B|--------|--------|--------|--------|--------|--------|--------|--------|--------|
G|--------|--------|--------|--------|--------|--------|--------|--------|--------|
D|--------|--------|--------|--------|--------|--------|--------|--------|--------|
A|--------|--------|--------|--------|--------|--------|--------|--------|--------|
E|--------|--------|--------|--------|--------|--------|--------|--------|--------|


E|--------|--------|--------|--------|--------|--------|--------|--------|--------|
B|--------|--------|--------|--------|--------|--------|--------|--------|--------|
G|--------|--------|--------|--------|--------|--------|--------|--------|--------|
D|--------|--------|--------|--------|--------|--------|--------|--------|--------|
A|--------|--------|--------|--------|--------|--------|--------|--------|--------|
E|--------|--------|--------|--------|--------|--------|--------|--------|--------|


E|--------|--------|----------------------3----|-3------1----|--------|----------------------1----|
B|--------|--------|----------------------3----|-3------1----|--------|----------------------1----|
G|--------|--------|------------------4--------|--------2----|--------|------------------2--------|
D|--------|--------|--------------5------------|--------3----|--------|--------------3------------|
A|--------|--------|----------5----------------|--------3----|--------|----------3----------------|
E|--------|--------|------3--------------------|--------1----|--------|------1--------------------|


E|-1------3----|--------|----------------------6----|-6------4----|--------|----------------------3----|
B|-1------3----|--------|----------------------6----|-6------4----|--------|----------------------3----|
G|--------4----|--------|------------------7--------|--------5----|--------|------------------4--------|
D|--------5----|--------|--------------8------------|--------6----|--------|--------------5------------|
A|--------5----|--------|----------8----------------|--------6----|--------|----------5----------------|
E|--------3----|--------|------6--------------------|--------4----|--------|------3--------------------|


E|-3------1----|------1---1---1-----|--------------3---------------|-3-------3-------3-------3----|
B|-3------1----|------1---1---1-----|--------------1-----------1---|-----3-------3-----------3----|
G|--------2----|------2---2---0-----|----------0-----------0-------|-----0---------------0---4----|
D|--------3----|------3---3---3-----|------3-----------2-----------|-------------------------5----|
A|--------3----|------3---3---3-----|------------------------------|-------------------------5----|
E|--------1----|------1---1---1-----|------------------------------|-------------------------3----|


E|-----3---3----2-----2---|-2----3-----3---3----|-0-----0-------0-----------|-------------0---3-----|
B|-----3---3----3-----3---|-3----3-----3---3----|-1---------1---------------|-----1---1-------3-----|
G|-----4---4----4-----4---|-4----5-----5---5----|-2-------------------------|-0---------------0-----|
D|-----5---5----4-----4---|-4----5-----5---5----|-2---------------------1---|-----------------0-----|
A|-----5---5----2-----2---|-2----3-----3---3----|-0-----------------3-------|-----------------2-----|
E|-----3---3--------------|---------------------|---------------------------|-----------------3-----|


E|----------------------2----|-3------1----|-------2-----|------------------3--------|
B|------------------1--------|-3------1----|-------1-----|--------------3-------3----|
G|--------------2------------|-4------4----|-------2-----|------3--------------------|
D|----------1----------------|-5------1----|-------0-----|----------5----------------|
A|------1--------------------|-5-----------|-------0-----|---------------------------|
E|---------------------------|-3-----------|-------------|---------------------------|


E|-2------0----|-0---------------0-----|------0----0----0----|--------5----|------5----5-----|
B|-3------0----|---------0-------------|------0----0----0----|--------7----|------7----5-----|
G|-2------2----|-----2-----------------|-2----1----1----1----|--------7----|------7----6-----|
D|-4------2----|-------------2---------|------2----2----2----|--------7----|------7----7-----|
A|-2------2----|-----------------------|------2----2----2----|--------5----|------5----7-----|
E|-------------|-----------------------|------0----0----0----|-------------|-----------5-----|


E|-5----5-----3----|-5-----5----3----|------3----3-----3---|-3---3---3---3----3---1----|
B|-5----7-----3----|-5-----5----5----|------5----3-----3---|-3---3---5---5----5---1----|
G|-6----7-----4----|-6-----6----5----|------5----4-----4---|-4---4---5---5----5---2----|
D|-7----7-----5----|-7-----7----5----|------5----5-----5---|-5---5---5---5----5---3----|
A|-7----5-----5----|-7-----7----3----|------3----5-----5---|-5-------3---3----3---3----|
E|-5----------3----|-5-----5---------|-----------3-----3---|-3--------------------1----|


E|-3-----3----1----|-------------|--------|--------|--------|--------|--------|--------|
B|-3-----3----1----|-------------|--------|--------|--------|--------|--------|--------|
G|-4-----4----2----|-------------|--------|--------|--------|--------|--------|--------|
D|-5-----5----3----|-------------|--------|--------|--------|--------|--------|--------|
A|-5-----5----3----|-------------|--------|--------|--------|--------|--------|--------|
E|-3-----3----1----|-------------|--------|--------|--------|--------|--------|--------|


E|--------|--------|--------|--------|--------|--------|--------|--------|--------|
B|--------|--------|--------|--------|--------|--------|--------|--------|--------|
G|--------|--------|--------|--------|--------|--------|--------|--------|--------|
D|--------|--------|--------|--------|--------|--------|--------|--------|--------|
A|--------|--------|--------|--------|--------|--------|--------|--------|--------|
E|--------|--------|--------|--------|--------|--------|--------|--------|--------|


E|--------|--------|--------|--------|--------|--------|--------|--------|--------|
B|--------|--------|--------|--------|--------|--------|--------|--------|--------|
G|--------|--------|--------|--------|--------|--------|--------|--------|--------|
D|--------|--------|--------|--------|--------|--------|--------|--------|--------|
A|--------|--------|--------|--------|--------|--------|--------|--------|--------|
E|--------|--------|--------|--------|--------|--------|--------|--------|--------|


E|--------|--------|--------|--------|--------|--------|--------|--------|--------|
B|--------|--------|--------|--------|--------|--------|--------|--------|--------|
G|--------|--------|--------|--------|--------|--------|--------|--------|--------|
D|--------|--------|--------|--------|--------|--------|--------|--------|--------|
A|--------|--------|--------|--------|--------|--------|--------|--------|--------|
E|--------|--------|--------|--------|--------|--------|--------|--------|--------|


E|--------|--------|--------|--------|--------|--------|--------|--------|--------|
B|--------|--------|--------|--------|--------|--------|--------|--------|--------|
G|--------|--------|--------|--------|--------|--------|--------|--------|--------|
D|--------|--------|--------|--------|--------|--------|--------|--------|--------|
A|--------|--------|--------|--------|--------|--------|--------|--------|--------|
E|--------|--------|--------|--------|--------|--------|--------|--------|--------|


E|--------|--------|--------|--------|
B|--------|--------|--------|--------|
G|--------|--------|--------|--------|
D|--------|--------|--------|--------|
A|--------|--------|--------|--------|
E|--------|--------|--------|--------|





Track 2: Electric distortion guitar

E|--------|--------|--------|--------|--------|--------|--------|--------|--------|
B|--------|--------|--------|--------|--------|--------|--------|--------|--------|
G|--------|--------|--------|--------|--------|--------|--------|--------|--------|
D|--------|--------|--------|--------|--------|--------|--------|--------|--------|
A|--------|--------|--------|--------|--------|--------|--------|--------|--------|
E|--------|--------|--------|--------|--------|--------|--------|--------|--------|


E|--------|-----------------------|----------------|------------------------------|
B|--------|-----------------------|----------------|------------------------------|
G|--------|-------5---5-------5---|---------5------|------------------------------|
D|--------|-------5---7---7---7---|-----5---5------|-5---5---5---5---5---5---5----|
A|--------|-----------------------|----------------|-5---7---7---8---7---5---5----|
E|--------|-----------------------|----------------|---------------------3---3----|


E|------------------------------|----------------|------------------------------|-----------------------|
B|------------------------------|----------------|------------------------------|-------------------5---|
G|------------------------------|----------------|------------------------------|-------5---5-------5---|
D|------5---3---3---3---3---3---|---------3------|-3---3---3---3---3-------3----|-------5---7---7---7---|
A|------5---3---3---5---5---6---|-3---3---3------|-1---5---5---6---5---3---3----|-----------------------|
E|------------------------------|----------------|---------------------1---1----|-----------------------|


E|---------------8-------|------------------------------|---------------------------------|
B|-------------------8---|------------------------------|---------------------------------|
G|---------5-----5---5---|-5---5------------------------|-----------------3-----------3---|
D|-7---5---5-----5---5---|-5---5---5---5---5-------5----|-5---------------3---3-------3---|
A|-----------------------|-5---7---7---8---7---5---5----|-5---5---7---5---3---5---5---5---|
E|-----------------------|-------------------------3----|-3-------------------------------|


E|----------------|--------------------------------|--------------------------------|
B|----------------|--------------------------------|--------------------------------|
G|---------2------|-3-------------------------5----|--------------------------------|
D|---------3------|-3-------------------------3----|----------------------------8---|
A|-----3---3------|-3---5---5---5--5--5---3---3----|----------------7---8---8---8---|
E|---------1------|--------------------------------|-5--3--1---1----6---6---6---6---|


E|------------------------|------------------------------|-----3---------------------|
B|------------------------|------------------------------|-3---3---------------------|
G|--------------0---------|------------------------------|-0-------------------------|
D|---------8--------------|-0---2---0---2-------0---2----|-2-------------------------|
A|-----7---8---------8----|-3---3---3---3-------3---3----|-3---------7---8---8---8---|
E|-----6---6--------------|------------------------------|-----------6---6---6---6---|


E|------------------------------|-----------------------------------|---------------------------|
B|------------------------------|-----------------------------------|---------------------------|
G|---------------------0--------|-0-----------0---------------------|------0----5---3-----------|
D|------------------------------|-0---2-------2----3---2---3--2--0--|-----------5---3-------3---|
A|-8---7---8---8---10------8----|-3---3---3---3---------------------|-3---------3---1---1---1---|
E|-6---6---6--------------------|-----------------------------------|---------------------------|


E|---------------------------|------------------------------|-3---5---5---3-------------------|
B|---------------------------|------------------------------|-3---5---5---3-------------------|
G|--------------3---5---3----|------------------------------|-----------------------------3---|
D|-3---2---3----3---5---3----|-0---2-------2-------3---2----|-----------------2---3-------3---|
A|-1---1---1----1---3---1----|-3---3---3---3-------3---3----|-----------------1---1---1---1---|
E|---------------------------|------------------------------|---------------------------------|


E|------------------------|------------------------------|---------------------------------|
B|------------------------|------------------------------|-3---5---3-----------------------|
G|-3------------0---------|---------------------2--------|-2---4---2---0-------------------|
D|-3---2---3---------3----|---------3-------3------------|-------------------------3-------|
A|-1---1---1--------------|-----3-------0----------------|---------------------3-------0---|
E|------------------------|-1-----------------------3----|-----------------1---------------|


E|------------------------------|------------------------------|------------------------------|
B|-----------------5---3---5----|------------------------------|-3---5---3----------------1---|
G|-----2-----------4---2---4----|---------------------2--------|-2---4---2---0---0------------|
D|-3----------------------------|---------3-------3------------|------------------------------|
A|------------------------------|-----3-------0----------------|------------------------------|
E|---------3---3----------------|-1-----------------------3----|-----------------1----1-------|


E|------------------0-----------|------------------|---------10-------------------|
B|----------------------1-------|------------15-15-|-12--10------10------12-------|
G|-0------------2-----------0---|------------------|-----------------14------12---|
D|----------2-------------------|-5----------------|------------------------------|
A|------0-----------------------|-5----------------|------------------------------|
E|------------------------------|-3----------------|------------------------------|


E|-----------------------------------|------------------------------|------------------------------|
B|---------10------------------------|------------------------------|-13--13--13---13--13--13--13--|
G|-10----------10--------------------|-----10------------------14---|-12--12--12---12--14--14--14--|
D|-----14----------14-15-14--12--10--|-9---10--9-----------12-------|-12--12--12-------------------|
A|-----------------------------------|-------------12--10-----------|------------------------------|
E|-----------------------------------|------------------------------|------------------------------|


E|---------------15------|------------------------------|---------------------------------|
B|-----13--13--------13--|------------------------------|-----------------10--11------11--|
G|-----12--12------------|-12--12--12--12--12--12--12---|-----------------10--10------10--|
D|-----------------------|-12--14--14--15--14--12--12---|-----12--14--12--10--12--12--12--|
A|-----------------------|------------------------------|---------------------------------|
E|-----------------------|------------------------------|---------------------------------|


E|-------------------13------|-----------------------------------|--------------------------------|
B|---------10------------13--|-------------------------10--------|----------------13--13------13--|
G|---------10----------------|-10--10--10--10--10--10--10--------|----------------12--14--14--14--|
D|-----10--10----10----------|-10--12--12--13--12--10--10--------|--------------------------------|
A|---------------------------|-----------------------------12-10-|-8---10-10-10-------------------|
E|---------------------------|-----------------------------------|--------------------------------|


E|------------------------------|------------------------------|-------------------------------------|
B|-----13--13---13--18--15--13--|------------------------------|---------------------10--11------11--|
G|-----12--12---12--17--14--12--|-12--12--12--12--12--12--12---|---------------------10--10------10--|
D|------------------------------|-12--14--14--15--14--12--12---|-14-12-10--12-14-12--10--12--12--12--|
A|------------------------------|------------------------------|-------------------------------------|
E|------------------------------|------------------------------|-------------------------------------|


E|--------------------|-------------------------------------|------------------------------|
B|---------10---10----|-10--11------11-11-11----------------|------------------------------|
G|---------10---10----|-10--10--10--10-10-10--10--10--------|--------------9---10--10--10--|
D|-----10--10---10----|-10--12--12--12-12-12--10--10--------|--------------8---8---8---8---|
A|--------------------|-------------------------------12-10-|-10---------------------------|
E|--------------------|-------------------------------------|-----8---8--------------------|


E|---------------------------|------------------------------|---------8-----------------------|
B|---------------------------|------------------------------|---------8-----------------------|
G|-----9---10---10-12---10---|-7---9---9---9-------10--9----|-9-----------9---9---10--10--10--|
D|-----8---8----8--10---8----|-10--10--10--10------10--10---|-10--10----------8---8---8---8---|
A|---------------------------|---------10--10------10--10---|-10------------------------------|
E|---------------------------|------------------------------|---------------------------------|


E|------------------------------|--------------------------------------|------8--------------------|
B|------------------------------|--------------------------------------|------8--------------------|
G|-----9---10--10--12---10------|-7---9---9---9---9---10--9---10-9--7--|-----------12--10--10--10--|
D|-----8---8---8---10---8---10--|-10--10--10--10-----------------------|-10--------10--8---8---8---|
A|------------------------------|--------------------------------------|---------------------------|
E|------------------------------|--------------------------------------|---------------------------|


E|------------------------------|---------------------------------|---------------------------------|
B|------------------------------|---------------------------------|-----------------13--11--11--11--|
G|-----9---10--10--14---10------|-7---9---9---9-------10--12--10--|-9---10--9---0---12--10--10--10--|
D|-----8---8---8---12---8---10--|-10--10--10--10------10--10--10--|-10--10--10--10--10--8---8---8---|
A|------------------------------|---------------------------------|---------------------------------|
E|------------------------------|---------------------------------|---------------------------------|


E|------------------------------|------------------------------|-12---10--8-------------------|
B|-----11--11--11--18--18-------|---------------------10-------|-12---10--8-------------------|
G|-----9---10--10--17--17-------|---------10------10-----------|----------------------10------|
D|-----8---8---8---15--15-------|-----10-----------------------|------------------10----------|
A|------------------------------|-8-----------12----------10---|--------------8-----------12--|
E|-------------------------17---|------------------------------|------------------------------|


E|--------------12--10--12---|------------------------------|-12---10--8----------------|
B|-10-----------12--10--12---|---------------------10-------|-12---10--8------------10--|
G|-----10--------------------|---------10------10-----------|---------------------------|
D|---------------------------|-----10-----------------------|-------------------10------|
A|---------10----------------|-8-----------12----------10---|--------------8------------|
E|---------------------------|------------------------------|---------------------------|


E|---------------------------|-------------------------19--|-17--15----------13--------------|
B|---------------10----------|-----------------------------|---------15--17------17--15--13--|
G|-10----------------10------|------12---7-------5--5------|---------------------------------|
D|-----------10----------10--|---------------7---5---------|---------------------------------|
A|------12-------------------|-10--------------------------|---------------------------------|
E|---------------------------|-----------------------------|---------------------------------|


E|---------------------------------|------------------------------------|-10------------------------|
B|-----13--------------------------|------------------------------------|-----10------------13------|
G|-16------16--14------14----------|-14--14-----------------------------|-------------------12------|
D|-----------------17------17--15--|-14--14-1514--------------------12--|----------12--10---10------|
A|---------------------------------|------------17--15--14--12--10------|-----------------------8---|
E|---------------------------------|------------------------------------|---------------------------|


E|---------------------------|---------------------------|---------------------------|
B|---------------------------|---------------------------|---------7-----------------|
G|---------7-----------------|---------------------------|-----7-------5---5----5----|
D|---------7--------7----7---|-------7-------------------|-7-------------------------|
A|-7---5---5----5------------|-----------7-----------5---|---------------------------|
E|---------------------------|---------------8-----------|---------------------------|


E|-------------|-----------------|--------|-------------|-----------------------------|
B|-------------|-----------------|--------|-------------|-----------------------------|
G|-------------|-12----12---12---|--------|-------------|-----------------------------|
D|-------------|-----------------|--------|-------------|-7----7---7--7--7---7---7----|
A|-------------|-----------------|--------|-------------|-----------------------------|
E|-------------|-----------------|--------|-------------|-----------------------------|


E|--------|-----------------|-----------------|-------------|---------------------------|
B|--------|-----------------|-----------------|-------------|---------------------------|
G|--------|-----------------|-7-----7----7----|-------7-----|-7---7---7-----------------|
D|--------|------7----------|-----------------|-------------|---------------------------|
A|--------|-----------------|-----------------|-------------|---------------------------|
E|--------|-----------------|-----------------|-------------|---------------------------|


E|--------------------------|--------------------|-------------|-------------|----------------------|
B|-12----12-12-12---12--12--|------12--12--12----|------12-----|-------------|----------------------|
G|--------------------------|--------------------|-------------|-------------|-5--5-----------------|
D|--------------------------|--------------------|-------------|-------------|-------5---7----7-----|
A|--------------------------|--------------------|-------------|-------------|----------------------|
E|--------------------------|--------------------|-------------|-------------|----------------------|


E|-----------------------------|-----------------------|-----------------------|---------------------------------|
B|-----------------------------|-----------------------|-----------------------|---------------------------------|
G|---------7---7--7--7---------|---------------7----7--|-7----7--7----7--7-----|-7-------5----5--5----5--5----5--|
D|-7---7------------------7----|-7-----7---------------|-----------------------|---------------------------------|
A|-----------------------------|-----------------------|-----------------------|---------------------------------|
E|-----------------------------|-----------------------|-----------------------|---------------------------------|


E|-------------------------|----------------------|-----------------------------|-----------------|
B|-------------------------|----------------------|-----------------------------|-----------------|
G|-5-----5---5---7---7--7--|-7--------------------|-----------5--5--------------|-----------------|
D|-------------------------|------7---7--7--7-----|-------------------5---5--5--|-5----5-----5----|
A|-------------------------|----------------------|-----------------------------|-----------------|
E|-------------------------|----------------------|-----------------------------|-----------------|


E|-------------|----------------|-----------------------|---------------------------|
B|-------------|----------------|-----------------------|-7-------------------------|
G|-------------|----------------|-------------------7---|-----7---5-----------------|
D|-------5-----|-5---5---5------|-5---12----------------|-------------4-------------|
A|-------------|----------------|-----12----------------|-----------------4----4----|
E|-------------|----------------|-----12--17------------|---------------------------|


E|------------------------------|------------7---7--7--|-12---------------------------|
B|------7-------5---------------|----------------------|------------------------------|
G|----------7-------5-----------|----------------------|-----7---12-------------------|
D|----------------------5-------|----------------------|-------------7---7---7----7---|
A|--------------------------5---|-4----4---------------|------------------------------|
E|------------------------------|----------------------|------------------------------|


E|-----------------------------------|-----------------|-----------------|----------------------|
B|-----------------------------------|-----------------|-----------------|----------------------|
G|---------5---5--5--7-------12--12--|-12---12----5----|------5---5------|-----5--5--5----5-----|
D|-----7-----------------7-----------|-----------------|-----------------|----------------------|
A|-----------------------------------|-----------------|-----------------|----------------------|
E|-----------------------------------|-----------------|-----------------|----------------------|


E|----------------------|--------|----------------------|--------------------|---------------------------|
B|----------------------|--------|----------------------|------------5---5---|-----5-----------8---------|
G|-------5---5--5--5----|-5------|-5---5--5--5----5-----|-------5----5---5---|-----5-----------5----5----|
D|----------------------|--------|----------------------|------------5---7---|-7---7-------5---5----5----|
A|----------------------|--------|----------------------|--------------------|---------------------------|
E|----------------------|--------|----------------------|--------------------|---------------------------|


E|------------------------------|--------------------------------|---------------------------|
B|------------------------------|--------------------------------|----------------------6----|
G|------------------------------|-4----4-----------------3-------|-----3-----------5----5----|
D|------5---5---5---5---5-------|-5----5-----------------3-------|-----3-----------3----3----|
A|------5---7---7---8---7---5---|-5----5---3---5--5--5---3---5---|-5---5-------3---3----3----|
E|------------------------------|--------------------------------|---------------------------|


E|------------------------------|---------------------------------|-----12------12--12---12------|
B|------------------------------|---------8---10--10--------------|-----13------13--13-------13--|
G|------5---7---7---8---7---5---|-5---5---7---9---10--10--12--14--|-14--14------12--12-----------|
D|------3-----------------------|-5---3---5---7---10--10--12--12--|------------------------------|
A|------3---5---5---6---5---3---|-3---3-----------8---------------|------------------------------|
E|------------------------------|---------------------------------|------------------------------|


E|-----------15--15------15--15--15--|-15---15-13-10--8---------------|----------------------13------|
B|-----13-15-15--17--17--18--17--15--|-15---15-13-10--8---10--10--11--|-----11----------10-------13--|
G|-12--------------------------------|--------------------10--10--10--|-10--10------10--10-----------|
D|-----------------------------------|------------------------10--12--|-12--12------10--10-----------|
A|-----------------------------------|--------------------------------|------------------------------|
E|-----------------------------------|--------------------------------|------------------------------|


E|---------------------------------|------------------------------|------------------------------|
B|---------10--11------------------|------------------------------|------------------------------|
G|-12-12---10--10--10--10--10--10--|-10-------------------9---10--|-10--10------9---10---10-12---|
D|---------10--12--12--13--12--10--|-10----------12--10---8---8---|-8---8-------8---8----8--10---|
A|---------------------------------|-----10--8--------------------|------------------------------|
E|---------------------------------|------------------------------|------------------------------|


E|---------------------------------|------------------------------|---------------------------|
B|---------------------------------|------------------------------|---------------------------|
G|-10------7---9-------9-------10--|-9---12--7---7--------9---10--|-10--10---9---10--10--14---|
D|-8---10------10--10--10------10--|-10--------------7----8---8---|-8---8----8---8---8---12---|
A|---------7---10------10----------|------------------------------|---------------------------|
E|---------------------------------|------------------------------|---------------------------|


E|-----------------------------------|-----------------------------------|---------------------------------|
B|------10--10-8---------------------|-----------------------------------|---------------------------------|
G|-10---10--------10--9-9-9--9-------|-----------------------------------|-----------------------------0---|
D|-8----10-----------------------8---|---------------------------2---3---|-3---3-------2---3---3---5-------|
A|-----------------------------------|-8---7---------------------1---1---|-1---1-------1---1---------------|
E|-----------------------------------|---------8---6---3--3--3-----------|---------------------------------|


E|------------------------------|-----------------10--10--15--13--|-13--13---12--13--------17---|
B|------------------------------|-------------10--10--10--13--11--|-11--11---11--11--11-15-15---|
G|------------------------------|---------------------------------|-----------------------------|
D|-3----0---2-------2---2-------|---------12----------------------|-----------------------------|
A|------3---3---3---3---3-------|-----10--------------------------|-----------------------------|
E|------3---3---3-----------3---|-8-------------------------------|-----------------------------|


E|-13---------------------------|------------------------------|------------------------------|
B|-11---------------------------|------3---5---3---------------|-------------10-------12--10--|
G|--------------------------2---|------2---4---2---0-----------|-10-------------------12--10--|
D|--------------3-------3-------|--------------------------10--|---------10-------------------|
A|----------3-------0-----------|----------------------8-------|-----12----------10-----------|
E|------1-----------------------|-3----------------------------|------------------------------|


E|----------13------------------|-----------------------------|------------------------0-------|
B|-12-----------13------17--17--|-15--------------------------|-1--------------------------1---|
G|-12---10----------14------14--|-12---12-12------------------|-----0----0---------------------|
D|------------------------------|------12-14-12---------------|--------------------2-----------|
A|------------------------------|------14--------15--14-------|----------------0---------------|
E|------------------------------|------------------------1----|--------------------------------|


E|------3-----3-----------|---------10----------------8-------|------------------------------|
B|------3-----3-----------|---------10--11-10-------------8---|-----------------12---10------|
G|-0----0-----0--5-----5--|-5-------10--------12--10----------|-10--9------------------------|
D|------0-----0-----5-----|---------10------------------------|---------10--12--12---10--9---|
A|------------------------|-----------------------------------|------------------------------|
E|------3-----3-----------|-----------------------------------|------------------------------|


E|---------------------------|-----------------------------------|---------------------------|
B|-8----6-------5-------3----|-3--3----------5---5---5-----------|---------------------------|
G|---------------------------|---------------------------5---5---|-5---7---------------------|
D|-9----7---5---5---5---5----|-5--5------------------------------|---------7---7---7---7-----|
A|---------------------------|-----------------------------------|---------------------------|
E|---------------------------|-----------------------------------|---------------------------|


E|------------------------------|---------------------|------------------------|-------------|
B|------------------------------|---------------------|-------------------12---|-12---12-----|
G|-7---7---7----7---------------|-----------------12--|-----12--12---12---12---|-12---12-----|
D|-7---7---7----7-------7---7---|-7-----12--12--------|------------------------|-12---12-----|
A|------------------7-----------|---------------------|------------------------|-------------|
E|------------------------------|---------------------|------------------------|-------------|


E|--------|-------------|-------------|
B|-12-----|-------12----|-------------|
G|-12-----|-------12----|-------------|
D|-12-----|-------12----|-------------|
A|--------|-------------|-------------|
E|--------|-------------|-------------|





Track 3: Bass

G|--------|--------|--------|--------|-------------|------------19--17--|-17-----17---|
D|--------|--------|--------|--------|-------------|--------------------|-------------|
A|--------|--------|--------|--------|-------------|--------------------|-------------|
E|--------|--------|--------|--------|-------------|--------------------|-------------|


G|--------------------|--------------10---12---|-12--------------------|-----------------|
D|------3---2---------|------------------------|-----------------------|-----------------|
A|--------------1-----|-1-----------------10---|-10----10--10--10--10--|-10---10---3-----|
E|--------------------|---------1--------------|-----------------------|-----------------|


G|-5---------5-----|-----------------|-------------|-----------------|-----------------|
D|-----------------|-3----------5----|-------------|-----------3-----|-----------------|
A|------3----------|-----------------|-------1-----|-----------------|-1---------------|
E|-----------------|-----------------|-------------|------1----1-----|------------1----|


G|-----------------|-5----5-------5-----|-------------|---------------------|-3-----------|
D|-------------5---|----------5---------|--------5----|-----------------3---|------3------|
A|-------3---------|--------------------|-3-----------|-----------1---------|-------------|
E|-----------------|--------------------|-------------|---------------------|-------------|


G|-------3---------|-----------------|-------------|------5---------5----|-----5---7----------|
D|------------3----|-----------------|-------------|---------------------|--------------------|
A|-1---------------|-----------1-----|------1------|-3-------------------|--------------1-----|
E|-----------------|-----------------|-------------|---------------------|--------------------|


G|-----------------|--------|-------------|-----------------|---------------------|
D|-----------------|--------|-------------|------------3----|---------------------|
A|------1----------|-3------|-------1-----|------1----------|-3-----3--------3----|
E|------------1----|--------|-------------|-----------------|---------------------|


G|---------------------------|-------------|------------------|---------------------------|
D|---------------------------|-------------|------------------|-5---3---2---0-------------|
A|-5---7---7----0---1--------|-0----1------|-------0----------|-----------------------0---|
E|---------------------------|-------------|-1-----------3----|-----------------1---------|


G|--------------------|------------------|-----------------------|-------------|-----------------|
D|------------5---3---|------------------|-5---3---2---0---------|-------------|------5----------|
A|--------------------|-------0----------|-----------------------|------0------|-----------------|
E|------3-------------|-1-----------3----|-----------------1-----|-------------|-3----3----------|


G|-------------|--------|-------7-----|-------------|------5---------5-------|-----------------|
D|-------------|--------|-------------|-------------|-5----------5-------5---|-------5---------|
A|-------------|--------|-------------|-------3-----|------------------------|-3---------------|
E|-------------|--------|-------------|-------------|------------------------|------------3----|


G|--------------------|---------------------|-----------------3---------------|------------------------|
D|------5---3---------|---------------------|-------------3-------3-----------|------------------------|
A|--------------1-----|---------------------|-1---1---1-----------------------|--------------3---3-----|
E|--------------------|------1----1----1----|-------------------------1-------|-1---1---1--------------|


G|-5----5----7---7---9----|------------------------------|-----------------|-------------|
D|------------------------|------------------------------|------5----------|-------------|
A|------------------------|-3---3---3---3---7---5--------|-----------1-----|-------------|
E|------------------------|-------------------------3----|-----------------|------1------|


G|-------------|-------------|--------|-------------------------12---|-10--9------------------|
D|-------------|-------------|--------|-----5-------5-------12-------|---------10-------------|
A|-1-----------|-------1-----|--------|-3-------3--------------------|--------------1---------|
E|--------1----|-------------|--------|------------------------------|------------------------|


G|-------------|-----------------|-------------|-------------|-------5-------5----|
D|-------------|-----------------|-------------|-------------|-----------5--------|
A|------1------|-3-----3---------|-------1-----|------1------|-3------------------|
E|-------------|-----------------|-------------|-------------|--------------------|


G|-------------|-----------------|------------------|---------------------------|---------------------------|
D|-------------|-----------------|------------------|-5---3---2---0-------------|-----------5---0---5---3---|
A|-------1-----|------1----------|-------0----------|-----------------------0---|---------------------------|
E|-------------|-----------------|-1-----------3----|-----------------1---------|------3--------------------|


G|------------------|-----------------------|-------------|-------------|--------|
D|------------------|-5---3---2---0---------|-------------|-------------|--------|
A|-------0----------|-----------------------|------0------|-------------|--------|
E|-1-----------3----|-----------------1-----|-------------|-3-----------|--------|


G|--------|--------|--------|--------|--------|--------|--------|--------|--------|
D|--------|--------|--------|--------|--------|--------|--------|--------|--------|
A|--------|--------|--------|--------|--------|--------|--------|--------|--------|
E|--------|--------|--------|--------|--------|--------|--------|--------|--------|


G|--------|--------|--------|--------|--------|--------|--------|--------|--------|
D|--------|--------|--------|--------|--------|--------|--------|--------|--------|
A|--------|--------|--------|--------|--------|--------|--------|--------|--------|
E|--------|--------|--------|--------|--------|--------|--------|--------|--------|


G|--------|--------|--------|--------|--------|--------|--------|--------|--------|
D|--------|--------|--------|--------|--------|--------|--------|--------|--------|
A|--------|--------|--------|--------|--------|--------|--------|--------|--------|
E|--------|--------|--------|--------|--------|--------|--------|--------|--------|


G|--------|--------|--------|--------|--------|--------|--------|--------|--------|
D|--------|--------|--------|--------|--------|--------|--------|--------|--------|
A|--------|--------|--------|--------|--------|--------|--------|--------|--------|
E|--------|--------|--------|--------|--------|--------|--------|--------|--------|


G|--------|--------|--------|--------|--------|--------|--------|--------|--------|
D|--------|--------|--------|--------|--------|--------|--------|--------|--------|
A|--------|--------|--------|--------|--------|--------|--------|--------|--------|
E|--------|--------|--------|--------|--------|--------|--------|--------|--------|


G|--------|--------|--------|--------|--------|--------|--------|--------|--------|
D|--------|--------|--------|--------|--------|--------|--------|--------|--------|
A|--------|--------|--------|--------|--------|--------|--------|--------|--------|
E|--------|--------|--------|--------|--------|--------|--------|--------|--------|


G|--------|--------|--------|--------|--------|--------|--------|--------|--------|
D|--------|--------|--------|--------|--------|--------|--------|--------|--------|
A|--------|--------|--------|--------|--------|--------|--------|--------|--------|
E|--------|--------|--------|--------|--------|--------|--------|--------|--------|


G|--------|--------|--------|--------|--------|--------|--------|--------|--------|
D|--------|--------|--------|--------|--------|--------|--------|--------|--------|
A|--------|--------|--------|--------|--------|--------|--------|--------|--------|
E|--------|--------|--------|--------|--------|--------|--------|--------|--------|


G|--------|--------|--------|--------|--------|--------|--------|--------|--------|
D|--------|--------|--------|--------|--------|--------|--------|--------|--------|
A|--------|--------|--------|--------|--------|--------|--------|--------|--------|
E|--------|--------|--------|--------|--------|--------|--------|--------|--------|


G|--------|--------|--------|--------|
D|--------|--------|--------|--------|
A|--------|--------|--------|--------|
E|--------|--------|--------|--------|





Track 4: Simulated effects for Gtr II in guitar section

E|--------|--------|--------|--------|--------|--------|--------|--------|--------|
B|--------|--------|--------|--------|--------|--------|--------|--------|--------|
G|--------|--------|--------|--------|--------|--------|--------|--------|--------|
D|--------|--------|--------|--------|--------|--------|--------|--------|--------|
A|--------|--------|--------|--------|--------|--------|--------|--------|--------|
E|--------|--------|--------|--------|--------|--------|--------|--------|--------|


E|--------|--------|--------|--------|--------|--------|--------|--------|--------|
B|--------|--------|--------|--------|--------|--------|--------|--------|--------|
G|--------|--------|--------|--------|--------|--------|--------|--------|--------|
D|--------|--------|--------|--------|--------|--------|--------|--------|--------|
A|--------|--------|--------|--------|--------|--------|--------|--------|--------|
E|--------|--------|--------|--------|--------|--------|--------|--------|--------|


E|--------|--------|--------|--------|--------|--------|--------|--------|--------|
B|--------|--------|--------|--------|--------|--------|--------|--------|--------|
G|--------|--------|--------|--------|--------|--------|--------|--------|--------|
D|--------|--------|--------|--------|--------|--------|--------|--------|--------|
A|--------|--------|--------|--------|--------|--------|--------|--------|--------|
E|--------|--------|--------|--------|--------|--------|--------|--------|--------|


E|--------|--------|--------|--------|--------|--------|--------|--------|--------|
B|--------|--------|--------|--------|--------|--------|--------|--------|--------|
G|--------|--------|--------|--------|--------|--------|--------|--------|--------|
D|--------|--------|--------|--------|--------|--------|--------|--------|--------|
A|--------|--------|--------|--------|--------|--------|--------|--------|--------|
E|--------|--------|--------|--------|--------|--------|--------|--------|--------|


E|--------|--------|--------|--------|--------|--------|--------|--------|--------|
B|--------|--------|--------|--------|--------|--------|--------|--------|--------|
G|--------|--------|--------|--------|--------|--------|--------|--------|--------|
D|--------|--------|--------|--------|--------|--------|--------|--------|--------|
A|--------|--------|--------|--------|--------|--------|--------|--------|--------|
E|--------|--------|--------|--------|--------|--------|--------|--------|--------|


E|--------|--------|--------|--------|--------|--------|--------|-------------|--------|
B|--------|--------|--------|--------|--------|--------|--------|-------------|--------|
G|--------|--------|--------|--------|--------|--------|--------|-------------|--------|
D|--------|--------|--------|--------|--------|--------|--------|-------------|--------|
A|--------|--------|--------|--------|--------|--------|--------|-------------|--------|
E|--------|--------|--------|--------|--------|--------|--------|-------------|--------|


E|-------------------------------------|--------------------|--------|--------|--------|
B|-10--11------11-11-11----------------|--------------------|--------|--------|--------|
G|-10--10--10--10-10-10--10--10--------|--------------------|--------|--------|--------|
D|-10--12--12--12-12-12--10--10--------|--------------------|--------|--------|--------|
A|-------------------------------12-10-|-10-----------------|--------|--------|--------|
E|-------------------------------------|-----8---8----------|--------|--------|--------|


E|--------|--------|--------|--------|--------|--------|--------|--------|--------|
B|--------|--------|--------|--------|--------|--------|--------|--------|--------|
G|--------|--------|--------|--------|--------|--------|--------|--------|--------|
D|--------|--------|--------|--------|--------|--------|--------|--------|--------|
A|--------|--------|--------|--------|--------|--------|--------|--------|--------|
E|--------|--------|--------|--------|--------|--------|--------|--------|--------|


E|--------|--------|--------|--------|--------|--------|--------|--------|--------|
B|--------|--------|--------|--------|--------|--------|--------|--------|--------|
G|--------|--------|--------|--------|--------|--------|--------|--------|--------|
D|--------|--------|--------|--------|--------|--------|--------|--------|--------|
A|--------|--------|--------|--------|--------|--------|--------|--------|--------|
E|--------|--------|--------|--------|--------|--------|--------|--------|--------|


E|--------|--------|--------|--------|--------|--------|-------------|-----------------------------|
B|--------|--------|--------|--------|--------|--------|-------------|-----------------------------|
G|--------|--------|--------|--------|--------|--------|-------------|-----------------------------|
D|--------|--------|--------|--------|--------|--------|-------------|-7----7---7--7--7---7---7----|
A|--------|--------|--------|--------|--------|--------|-------------|-----------------------------|
E|--------|--------|--------|--------|--------|--------|-------------|-----------------------------|


E|--------|---------------------|-------------|--------|-------------|--------------------------|
B|--------|---------------------|-------------|--------|-------------|-12----12-12-12---12--12--|
G|--------|---------------------|-------------|--------|-------------|--------------------------|
D|--------|------7--------------|-------------|--------|-------------|--------------------------|
A|--------|---------------------|-------------|--------|-------------|--------------------------|
E|--------|---------------------|-------------|--------|-------------|--------------------------|


E|--------------------|-------------|-------------|----------------------|-----------------------------|
B|------12--12--12----|------12-----|-------------|----------------------|-----------------------------|
G|--------------------|-------------|-------------|----------------------|---------7---7--7--7---------|
D|--------------------|-------------|-------------|-5--5--5---7----7-----|-7---7------------------7----|
A|--------------------|-------------|-------------|----------------------|-----------------------------|
E|--------------------|-------------|-------------|----------------------|-----------------------------|


E|--------------------|--------|-------------|------------------|-------------|-----------------------------|
B|--------------------|--------|-------------|------------------|-------------|-----------------------------|
G|--------------------|--------|-------------|--------7---7--7--|-7-----------|-----------------------------|
D|-7-----7------------|--------|-------------|------------------|-------------|-----------5--5----5---5--5--|
A|--------------------|--------|-------------|------------------|-------------|-----------------------------|
E|--------------------|--------|-------------|------------------|-------------|-----------------------------|


E|-----------------|-------------|----------------|--------------------|--------|-------------|
B|-----------------|-------------|----------------|--------------------|--------|-------------|
G|-----------------|-------------|----------------|--------------------|--------|-------------|
D|-5----5-----5----|-------5-----|-5---5---5------|-5---12-------------|--------|-------------|
A|-----------------|-------------|----------------|-----12-------------|--------|-------------|
E|-----------------|-------------|----------------|-----12--17---------|--------|-------------|


E|--------7---7--7--|-12------------------------|-------------------------------------|
B|------------------|---------------------------|-------------------------------------|
G|------------------|-----7---12----------------|-----------5---5--5--7-------12--12--|
D|------------------|-------------7---7---7-----|-----7--7----------------7-----------|
A|------------------|---------------------------|-------------------------------------|
E|------------------|---------------------------|-------------------------------------|


E|------------12---|------12-----|-12--12-12-12---12----|----------------------|--------|
B|-----------------|-------------|----------------------|----------------------|--------|
G|-12---12---------|-------------|----------------------|-------5---5--5--5----|-5------|
D|-----------------|-------------|----------------------|----------------------|--------|
A|-----------------|-------------|----------------------|----------------------|--------|
E|-----------------|-------------|----------------------|----------------------|--------|


E|----------------------|-----------------|--------|--------|--------|--------|--------|
B|----------------------|-----------------|--------|--------|--------|--------|--------|
G|-5---5--5--5----5-----|-------5---------|--------|--------|--------|--------|--------|
D|----------------------|-----------------|--------|--------|--------|--------|--------|
A|----------------------|-----------------|--------|--------|--------|--------|--------|
E|----------------------|-----------------|--------|--------|--------|--------|--------|


E|--------|--------|--------|--------|--------|--------|--------|--------|--------|
B|--------|--------|--------|--------|--------|--------|--------|--------|--------|
G|--------|--------|--------|--------|--------|--------|--------|--------|--------|
D|--------|--------|--------|--------|--------|--------|--------|--------|--------|
A|--------|--------|--------|--------|--------|--------|--------|--------|--------|
E|--------|--------|--------|--------|--------|--------|--------|--------|--------|


E|--------|--------|--------|--------|--------|--------|--------|--------|--------|
B|--------|--------|--------|--------|--------|--------|--------|--------|--------|
G|--------|--------|--------|--------|--------|--------|--------|--------|--------|
D|--------|--------|--------|--------|--------|--------|--------|--------|--------|
A|--------|--------|--------|--------|--------|--------|--------|--------|--------|
E|--------|--------|--------|--------|--------|--------|--------|--------|--------|


E|--------|--------|--------|--------|--------|--------|--------|--------|--------|
B|--------|--------|--------|--------|--------|--------|--------|--------|--------|
G|--------|--------|--------|--------|--------|--------|--------|--------|--------|
D|--------|--------|--------|--------|--------|--------|--------|--------|--------|
A|--------|--------|--------|--------|--------|--------|--------|--------|--------|
E|--------|--------|--------|--------|--------|--------|--------|--------|--------|


E|------------------------------|-----------------------|------------------------------|
B|----------5---5---5-----------|-----------------------|------------------------------|
G|----------------------5---5---|-5---7-----------------|-7---7---7----7---------------|
D|------------------------------|---------7---7---7-----|-7---7---7----7-------7---7---|
A|------------------------------|-----------------------|------------------7-----------|
E|------------------------------|-----------------------|------------------------------|


E|------------------------|------------------------|-------------|--------|-------------|
B|------------------------|-------------------12---|-12---12-----|-12-----|-------12----|
G|--------------------12--|-----12--12---12---12---|-12---12-----|-12-----|-------12----|
D|-7-----12--12---12------|------------------------|-12---12-----|-12-----|-------12----|
A|------------------------|------------------------|-------------|--------|-------------|
E|------------------------|------------------------|-------------|--------|-------------|


E|-------------|
B|-------------|
G|-------------|
D|-------------|
A|-------------|
E|-------------|





Track 5: Bass (5 string)

G|--------|--------|--------|--------|--------|--------|--------|--------|--------|
D|--------|--------|--------|--------|--------|--------|--------|--------|--------|
A|--------|--------|--------|--------|--------|--------|--------|--------|--------|
E|--------|--------|--------|--------|--------|--------|--------|--------|--------|
B|--------|--------|--------|--------|--------|--------|--------|--------|--------|


G|--------|--------|--------|--------|--------|--------|--------|--------|--------|
D|--------|--------|--------|--------|--------|--------|--------|--------|--------|
A|--------|--------|--------|--------|--------|--------|--------|--------|--------|
E|--------|--------|--------|--------|--------|--------|--------|--------|--------|
B|--------|--------|--------|--------|--------|--------|--------|--------|--------|


G|--------|--------|--------|--------|--------|--------|--------|--------|--------|
D|--------|--------|--------|--------|--------|--------|--------|--------|--------|
A|--------|--------|--------|--------|--------|--------|--------|--------|--------|
E|--------|--------|--------|--------|--------|--------|--------|--------|--------|
B|--------|--------|--------|--------|--------|--------|--------|--------|--------|


G|--------|--------|--------|--------|--------|--------|--------|--------|--------|
D|--------|--------|--------|--------|--------|--------|--------|--------|--------|
A|--------|--------|--------|--------|--------|--------|--------|--------|--------|
E|--------|--------|--------|--------|--------|--------|--------|--------|--------|
B|--------|--------|--------|--------|--------|--------|--------|--------|--------|


G|--------|--------|--------|--------|--------|--------|--------|--------|--------|
D|--------|--------|--------|--------|--------|--------|--------|--------|--------|
A|--------|--------|--------|--------|--------|--------|--------|--------|--------|
E|--------|--------|--------|--------|--------|--------|--------|--------|--------|
B|--------|--------|--------|--------|--------|--------|--------|--------|--------|


G|--------|--------|--------|--------|--------|--------|--------|--------|--------|
D|--------|--------|--------|--------|--------|--------|--------|--------|--------|
A|--------|--------|--------|--------|--------|--------|--------|--------|--------|
E|--------|--------|--------|--------|--------|--------|--------|--------|--------|
B|--------|--------|--------|--------|--------|--------|--------|--------|--------|


G|--------|--------|--------|--------|--------|--------|--------|--------|--------|
D|--------|--------|--------|--------|--------|--------|--------|--------|--------|
A|--------|--------|--------|--------|--------|--------|--------|--------|--------|
E|--------|--------|--------|--------|--------|--------|--------|--------|--------|
B|--------|--------|--------|--------|--------|--------|--------|--------|--------|


G|--------|--------|--------|--------|--------|--------|--------|--------|--------|
D|--------|--------|--------|--------|--------|--------|--------|--------|--------|
A|--------|--------|--------|--------|--------|--------|--------|--------|--------|
E|--------|--------|--------|--------|--------|--------|--------|--------|--------|
B|--------|--------|--------|--------|--------|--------|--------|--------|--------|


G|--------|--------|--------|-------------|-------------|----------------11--|--------------11------12---|
D|--------|--------|--------|-------------|-------------|--------------------|------12--14------12-------|
A|--------|--------|--------|-------------|-------------|--------------------|---------------------------|
E|--------|--------|--------|--------3----|-------1-----|--------------------|---------------------------|
B|--------|--------|--------|-------------|-------------|------3-------------|---------------------------|


G|-12--14--14-----|-------------|---------------------|-------------|-------------|
D|----------------|-------------|---------------------|-------------|-------------|
A|----------------|-------------|----------------1----|--------1----|-------------|
E|----------------|------3------|------3-----5--------|-------------|------1------|
B|----------------|-------------|---------------------|-------------|-------------|


G|-------------|-------------|----------------|-3-----3----1----|--------|-------------|
D|-------------|-------------|----------------|-----------------|--------|-------------|
A|-------------|-------------|---------1------|-----------------|--------|-------------|
E|--------3----|--------3----|----------------|-----------------|--------|------3------|
B|-------------|-------------|----------------|-----------------|--------|-------------|


G|--------------------|--------|------------------|---------------------|------------------------|
D|-5-----5---5--------|--------|------15----14----|-12------------------|---------5--------------|
A|--------------------|--------|------------------|-------15---15-------|--------------2---------|
E|---------------1----|--------|------------------|----------------3----|-----3------------------|
B|--------------------|--------|------------------|---------------------|-------------------0----|


G|------------5-------|--------------------|-----------------|---------------------------|
D|--------------------|-------7------------|------0----------|-5---5-------------6-------|
A|-2----3-------------|--------------------|-----------------|---------------------------|
E|--------------------|-5-------------1----|-----------3-----|---------4-----4-----------|
B|--------------------|--------------------|-----------------|-----------------------3---|


G|------------------------|--------------------|-7---7---------5---5-------|-------4---4--------|
D|--------------5---------|--------------------|---------------------------|--------------------|
A|-------------------5----|----------6---5-----|---------3-----------------|-2------------------|
E|-3----3---3-------------|--------------------|---------------------------|---------------0----|
B|------------------------|------4-------------|---------------------------|--------------------|


G|-------9---7---6-------|-----------------|-9------------------|------7----------|
D|-------------------9---|-7----6----------|--------------------|-----------------|
A|-----------------------|-----------7-----|---------------5----|-----------------|
E|-----------------------|-----------------|--------------------|-----------5-----|
B|-----------------------|-----------------|--------------------|-----------------|


G|------------7----|---------------------------|------5-----------------|--------------5---5--------|
D|-7---------------|--------------7---6--------|------------------------|-5--------------------3----|
A|------5----------|----------------------3----|------------------------|------3---3----------------|
E|-----------------|-5----5---5----------------|-----------3----3---3---|---------------------------|
B|-----------------|---------------------------|------------------------|---------------------------|


G|--------------------|-------------|-------------|-------------|--------|-------------|
D|-5----------3-------|-------------|-------------|-------------|--------|-------------|
A|--------------------|-------------|-------------|-------------|--------|-------------|
E|--------------------|-------------|-------------|-------------|--------|-------------|
B|--------------------|-------------|-------------|-------------|--------|-------------|


G|-------------|-----------5----5----|-----------------|---------------------|-------------|
D|-------------|------5--------------|-----------------|-5---------5---------|-------------|
A|--------3----|---------------------|------3----------|----------------1----|-------------|
E|-------------|---------------------|-----------------|---------------------|-------1-----|
B|-------------|---------------------|-----------------|---------------------|-------------|


G|-------------|-------------|-----------5----7---7---|-9--------------5----|-----------------|
D|-------------|-------------|------5-----------------|------------5--------|-5-----5---------|
A|------1------|--------3----|------------------------|------3--------------|------------1----|
E|-------------|-1-----------|------------------------|---------------------|-----------------|
B|-------------|-------------|------------------------|---------------------|-----------------|


G|---------3----------|------3---3---3---3---3---3---|-------------|-----------------|
D|-----3--------3-----|------------------------------|-3-----------|-----------------|
A|--------------------|------------------------------|--------1----|-----------1-----|
E|--------------------|------------------------------|-------------|-----------------|
B|--------------------|------------------------------|-------------|-----------------|


G|--------------------|-5----7---7---9---------|------------------------------|-------------|
D|--------------------|------------------------|------------------------------|-------------|
A|----------------3---|-------------------1----|-1---1---1---1---1---1---1----|-1-----------|
E|--------------------|------------------------|------------------------------|-------------|
B|------1-------------|------------------------|------------------------------|------1------|


G|-------------|--------------------|--------------------|-5---3------------------------|
D|-------------|--------------------|----------------5---|---------5---3---2------------|
A|--------1----|--------------1-----|------3-------------|---------------------3---1----|
E|-------------|----------1---------|--------------------|------------------------------|
B|-------------|--------------------|--------------------|------------------------------|


G|--------------3-----|------------------|---------------------------|------------------------|
D|----------3---------|------------------|------5---2----------------|----------------5---3---|
A|--------------------|------------0-----|--------------5---3--------|-----0------------------|
E|--------------------|------1-----------|-3--------------------1----|-----------3------------|
B|--------------------|------------------|---------------------------|------------------------|


G|------------------|---------------------------|-------------|-------------|--------|
D|-5----------------|------5---3---2------------|-------------|-------------|--------|
A|------------0-----|------------------5--------|-------0-----|-------------|--------|
E|------1-----------|-3--------------------1----|-------------|------3------|--------|
B|------------------|---------------------------|-------------|-------------|--------|


G|-------------|--------|--------|--------|--------|--------|--------|--------|--------|
D|-------------|--------|--------|--------|--------|--------|--------|--------|--------|
A|-------------|--------|--------|--------|--------|--------|--------|--------|--------|
E|-------------|--------|--------|--------|--------|--------|--------|--------|--------|
B|-------------|--------|--------|--------|--------|--------|--------|--------|--------|


G|--------|--------|
D|--------|--------|
A|--------|--------|
E|--------|--------|
B|--------|--------|





Track 6: Bass

G|--------|--------|--------|--------|--------|--------|--------|--------|--------|
D|--------|--------|--------|--------|--------|--------|--------|--------|--------|
A|--------|--------|--------|--------|--------|--------|--------|--------|--------|
E|--------|--------|--------|--------|--------|--------|--------|--------|--------|


G|--------|--------|--------|--------|--------|--------|--------|--------|--------|
D|--------|--------|--------|--------|--------|--------|--------|--------|--------|
A|--------|--------|--------|--------|--------|--------|--------|--------|--------|
E|--------|--------|--------|--------|--------|--------|--------|--------|--------|


G|--------|--------|--------|--------|--------|--------|--------|--------|--------|
D|--------|--------|--------|--------|--------|--------|--------|--------|--------|
A|--------|--------|--------|--------|--------|--------|--------|--------|--------|
E|--------|--------|--------|--------|--------|--------|--------|--------|--------|


G|--------|--------|--------|--------|--------|--------|--------|--------|--------|
D|--------|--------|--------|--------|--------|--------|--------|--------|--------|
A|--------|--------|--------|--------|--------|--------|--------|--------|--------|
E|--------|--------|--------|--------|--------|--------|--------|--------|--------|


G|--------|--------|--------|--------|--------|--------|--------|--------|--------|
D|--------|--------|--------|--------|--------|--------|--------|--------|--------|
A|--------|--------|--------|--------|--------|--------|--------|--------|--------|
E|--------|--------|--------|--------|--------|--------|--------|--------|--------|


G|--------|--------|--------|--------|--------|--------|--------|--------|--------|
D|--------|--------|--------|--------|--------|--------|--------|--------|--------|
A|--------|--------|--------|--------|--------|--------|--------|--------|--------|
E|--------|--------|--------|--------|--------|--------|--------|--------|--------|


G|--------|--------|--------|--------|--------|--------|--------|--------|--------|
D|--------|--------|--------|--------|--------|--------|--------|--------|--------|
A|--------|--------|--------|--------|--------|--------|--------|--------|--------|
E|--------|--------|--------|--------|--------|--------|--------|--------|--------|


G|--------|--------|--------|--------|--------|--------|--------|--------|--------|
D|--------|--------|--------|--------|--------|--------|--------|--------|--------|
A|--------|--------|--------|--------|--------|--------|--------|--------|--------|
E|--------|--------|--------|--------|--------|--------|--------|--------|--------|


G|--------|--------|--------|--------|--------|--------|--------|--------|-------------|
D|--------|--------|--------|--------|--------|--------|--------|--------|-------------|
A|--------|--------|--------|--------|--------|--------|--------|--------|-------------|
E|--------|--------|--------|--------|--------|--------|--------|--------|-------------|


G|-------------|--------|--------|--------|--------|--------|--------|--------|--------|
D|-------------|--------|--------|--------|--------|--------|--------|--------|--------|
A|-------------|--------|--------|--------|--------|--------|--------|--------|--------|
E|-------------|--------|--------|--------|--------|--------|--------|--------|--------|


G|--------|--------|--------|--------|--------|--------|--------|--------|--------|
D|--------|--------|--------|--------|--------|--------|--------|--------|--------|
A|--------|--------|--------|--------|--------|--------|--------|--------|--------|
E|--------|--------|--------|--------|--------|--------|--------|--------|--------|


G|--------|--------|--------|--------|--------|--------|--------|--------|--------|
D|--------|--------|--------|--------|--------|--------|--------|--------|--------|
A|--------|--------|--------|--------|--------|--------|--------|--------|--------|
E|--------|--------|--------|--------|--------|--------|--------|--------|--------|


G|--------|--------|--------|--------|--------|--------|--------|--------|--------|
D|--------|--------|--------|--------|--------|--------|--------|--------|--------|
A|--------|--------|--------|--------|--------|--------|--------|--------|--------|
E|--------|--------|--------|--------|--------|--------|--------|--------|--------|


G|--------|--------|--------|--------|--------|--------|--------|--------|--------|
D|--------|--------|--------|--------|--------|--------|--------|--------|--------|
A|--------|--------|--------|--------|--------|--------|--------|--------|--------|
E|--------|--------|--------|--------|--------|--------|--------|--------|--------|


G|--------|--------|--------|--------|--------|--------|--------|--------|--------|
D|--------|--------|--------|--------|--------|--------|--------|--------|--------|
A|--------|--------|--------|--------|--------|--------|--------|--------|--------|
E|--------|--------|--------|--------|--------|--------|--------|--------|--------|


G|--------|--------|--------|--------|--------|--------|--------|--------|--------|
D|--------|--------|--------|--------|--------|--------|--------|--------|--------|
A|--------|--------|--------|--------|--------|--------|--------|--------|--------|
E|--------|--------|--------|--------|--------|--------|--------|--------|--------|


G|--------|--------|--------|--------|--------|--------|--------|--------|--------|
D|--------|--------|--------|--------|--------|--------|--------|--------|--------|
A|--------|--------|--------|--------|--------|--------|--------|--------|--------|
E|--------|--------|--------|--------|--------|--------|--------|--------|--------|


G|--------|--------|--------|--------|--------|--------|
D|--------|--------|--------|--------|--------|--------|
A|--------|--------|--------|--------|--------|--------|
E|--------|--------|--------|--------|--------|--------|