Menu:

 

Search:

 

soilwork - the mindmaker:

 



Title: The Mindmaker
Artist: 
Album: Figure Number Five
Author: Peter Wichers


Track 1: Frenning

 B|--------|-------------------------------------------|-----------------------------------------|
F#|--------|-------------------------------------------|-----------------------------------------|
 D|--------|-------------------------------------------|----------------------------------7--9---|
 A|--------|--------------5-------------5--------------|------------5------------5--7--9---------|
 E|--------|-----5--7--------7---5--7------7-----5--7--|-----5--7------7---5--7------------------|
 B|--------|-0---------0----------------------0--------|-0---------------------------------------|


 B|-------------------------------------------|-------------------------------------------|
F#|-------------------------------------------|-------------------------------------------|
 D|-------------------------------------------|--------------------------------------6----|
 A|--------------5-------------5--------------|--------------------------------------7----|
 E|-----5--7--------7---5--7------7-----5--7--|----------------------------5---------4----|
 B|-0---------0----------------------0--------|-6--0--0--6--0--0--0--0--0--3---3--0-------|


 B|-------------------------------------------|-----------------------------------------|
F#|-------------------------------------------|-----------------------------------------|
 D|-------------------------------------------|----------------------------------7--9---|
 A|--------------5-------------5--------------|------------5------------5--7--9---------|
 E|-----5--7--------7---5--7------7-----5--7--|-----5--7------7---5--7------------------|
 B|-0---------0----------------------0--------|-0---------------------------------------|


 B|-------------------------------------------|-----------------------------------------|
F#|-------------------------------------------|-----------------------------------------|
 D|-------------------------------------------|-----------------------------------------|
 A|--------------5-------------5--------------|-----------------------------------------|
 E|-----5--7--------7---5--7------7-----5--7--|----------------------------5-------5----|
 B|-0---------0----------------------0--------|-6--0--0--6--0--0--0--0--0--3----0--2----|


 B|--------------------|----------------------|--------------------|--------------------|
F#|--------------------|----------------------|--------------------|--------------------|
 D|--------------------|----------------------|--------------------|--------------------|
 A|--------------------|----------------------|--------------------|--------------------|
 E|-2------------------|------------2--2---2--|-2------------------|---------------5----|
 B|-0------------------|------------0--0---0--|-0------------------|------------0--3----|


 B|--------------------|----------------------|--------------------|--------------------|
F#|--------------------|----------------------|--------------------|--------------------|
 D|--------------------|----------------------|--------------------|--------------------|
 A|--------------------|----------------------|--------------------|--------------------|
 E|-2------------------|------------2--2---2--|-2------------------|---------------5----|
 B|-0------------------|------------0--0---0--|-0------------------|------------0--3----|


 B|-------------------------------------------|-----------------------------------------|
F#|-------------------------------------------|-----------------------------------------|
 D|-------------------------------------------|----------------------------------7--9---|
 A|--------------5-------------5--------------|------------5------------5--7--9---------|
 E|-----5--7--------7---5--7------7-----5--7--|-----5--7------7---5--7------------------|
 B|-0---------0----------------------0--------|-0---------------------------------------|


 B|-------------------------------------------|-------------------------------------------|
F#|-------------------------------------------|-------------------------------------------|
 D|-------------------------------------------|--------------------------------------6----|
 A|--------------5-------------5--------------|--------------------------------------7----|
 E|-----5--7--------7---5--7------7-----5--7--|----------------------------5---------4----|
 B|-0---------0----------------------0--------|-6--0--0--6--0--0--0--0--0--3---3--0-------|


 B|-------------------------------------------|-----------------------------------------|
F#|-------------------------------------------|-----------------------------------------|
 D|-------------------------------------------|----------------------------------7--9---|
 A|--------------5-------------5--------------|------------5------------5--7--9---------|
 E|-----5--7--------7---5--7------7-----5--7--|-----5--7------7---5--7------------------|
 B|-0---------0----------------------0--------|-0---------------------------------------|


 B|-------------------------------------------|-----------------------------------------|
F#|-------------------------------------------|-----------------------------------------|
 D|-------------------------------------------|-----------------------------------------|
 A|--------------5-------------5--------------|-----------------------------------------|
 E|-----5--7--------7---5--7------7-----5--7--|----------------------------5-------5----|
 B|-0---------0----------------------0--------|-6--0--0--6--0--0--0--0--0--3----0--2----|


 B|--------------------|----------------------|--------------------|--------------------|
F#|--------------------|----------------------|--------------------|--------------------|
 D|--------------------|----------------------|--------------------|--------------------|
 A|--------------------|----------------------|--------------------|--------------------|
 E|-2------------------|------------2--2---2--|-2------------------|---------------5----|
 B|-0------------------|------------0--0---0--|-0------------------|------------0--3----|


 B|--------------------|----------------------|--------------------|--------------------|
F#|--------------------|----------------------|--------------------|--------------------|
 D|--------------------|----------------------|--------------------|--------------------|
 A|--------------------|----------------------|--------------------|--------------------|
 E|-2------------------|------------2--2---2--|-2------------------|---------------5----|
 B|-0------------------|------------0--0---0--|-0------------------|------------0--3----|


 B|--------|------------------------------------------|-------------------------------------------------|
F#|--------|------------------------------------------|-------------------------------------------------|
 D|--------|------------------------------------------|-11-11-11-11-11-11-11-11-11-11-11-11-11-11-11-11-|
 A|--------|------------------------------------------|-9--9--9--9--9--9--9--9--9--9--9--9--9--9--9--9--|
 E|-5------|-------------------------------------5----|-7--7--7--7--7--7--7--7--7--7--7--7--7--7--7--7--|
 B|--------|-3--3--4--4--4--4--4--5--5--6--6--6--3----|-------------------------------------------------|


 B|-------------------------------------------------|-------------------------------------------------|
F#|-------------------------------------------------|-------------------------------------------------|
 D|-11-11-11-11-11-11-11-11-11-11-11-11-11-11-11-11-|-15-15-15-15-15-15-15-15-15-15-15-15-15-15-15-15-|
 A|-9--9--9--9--9--9--9--9--9--9--9--9--9--9--9--9--|-12-12-12-12-12-12-12-12-12-12-12-12-12-12-12-12-|
 E|-7--7--7--7--7--7--7--7--7--7--7--7--7--7--7--7--|-10-10-10-10-10-10-10-10-10-10-10-10-10-10-10-10-|
 B|-------------------------------------------------|-------------------------------------------------|


 B|-------------------------------------------------|-------------------------------------------------|
F#|-------------------------------------------------|-------------------------------------------------|
 D|-14-14-14-14-14-14-14-14-14-14-14-14-14-14-14-14-|-11-11-11-11-11-11-11-11-11-11-11-11-11-11-11-11-|
 A|-12-12-12-12-12-12-12-12-12-12-12-12-12-12-12-12-|-9--9--9--9--9--9--9--9--9--9--9--9--9--9--9--9--|
 E|-10-10-10-10-10-10-10-10-10-10-10-10-10-10-10-10-|-7--7--7--7--7--7--7--7--7--7--7--7--7--7--7--7--|
 B|-------------------------------------------------|-------------------------------------------------|


 B|-------------------------------------------------|-----------------------------------------------|
F#|-------------------------------------------------|-----------------------------------------------|
 D|-11-11-11-11-11-11-11-11-11-11-11-11-11-11-11-11-|-15-15-15-15-15-15-15-15-15-15-15-15-15-15-17--|
 A|-9--9--9--9--9--9--9--9--9--9--9--9--9--9--9--9--|-12-12-12-12-12-12-12-12-12-12-12-12-12-12-14--|
 E|-7--7--7--7--7--7--7--7--7--7--7--7--7--7--7--7--|-10-10-10-10-10-10-10-10-10-10-10-10-10-10-12--|
 B|-------------------------------------------------|-----------------------------------------------|


 B|-----------------|-------------------------------------------|-----------------------------------------|
F#|-------5---5-----|-------------------------------------------|-----------------------------------------|
 D|-17----5---5-----|-------------------------------------------|----------------------------------7--9---|
 A|-14----7---7-----|--------------5-------------5--------------|------------5------------5--7--9---------|
 E|-12----8---8-----|-----5--7--------7---5--7------7-----5--7--|-----5--7------7---5--7------------------|
 B|-----------------|-0---------0----------------------0--------|-0---------------------------------------|


 B|-------------------------------------------|-------------------------------------------|
F#|-------------------------------------------|-------------------------------------------|
 D|-------------------------------------------|--------------------------------------6----|
 A|--------------5-------------5--------------|--------------------------------------7----|
 E|-----5--7--------7---5--7------7-----5--7--|----------------------------5---------4----|
 B|-0---------0----------------------0--------|-6--0--0--6--0--0--0--0--0--3---3--0-------|


 B|-------------------------------------------|-----------------------------------------|
F#|-------------------------------------------|-----------------------------------------|
 D|-------------------------------------------|----------------------------------7--9---|
 A|--------------5-------------5--------------|------------5------------5--7--9---------|
 E|-----5--7--------7---5--7------7-----5--7--|-----5--7------7---5--7------------------|
 B|-0---------0----------------------0--------|-0---------------------------------------|


 B|-------------------------------------------|-----------------------------------------|
F#|-------------------------------------------|-----------------------------------------|
 D|-------------------------------------------|-----------------------------------------|
 A|--------------5-------------5--------------|-----------------------------------------|
 E|-----5--7--------7---5--7------7-----5--7--|----------------------------5-------5----|
 B|-0---------0----------------------0--------|-6--0--0--6--0--0--0--0--0--3----0--2----|


 B|--------------------|----------------------|--------------------|--------------------|
F#|--------------------|----------------------|--------------------|--------------------|
 D|--------------------|----------------------|--------------------|--------------------|
 A|--------------------|----------------------|--------------------|--------------------|
 E|-2------------------|------------2--2---2--|-2------------------|---------------5----|
 B|-0------------------|------------0--0---0--|-0------------------|------------0--3----|


 B|--------------------|----------------------|--------------------|--------------------|
F#|--------------------|----------------------|--------------------|--------------------|
 D|--------------------|----------------------|--------------------|--------------------|
 A|--------------------|----------------------|--------------------|--------------------|
 E|-2------------------|------------2--2---2--|-2------------------|---------------5----|
 B|-0------------------|------------0--0---0--|-0------------------|------------0--3----|


 B|------------------------------------------|-------------------------------------------------|
F#|------------------------------------------|-------------------------------------------------|
 D|------------------------------------------|-11-11-11-11-11-11-11-11-11-11-11-11-11-11-11-11-|
 A|------------------------------------------|-9--9--9--9--9--9--9--9--9--9--9--9--9--9--9--9--|
 E|-------------------------------------5----|-7--7--7--7--7--7--7--7--7--7--7--7--7--7--7--7--|
 B|-3--3--4--4--4--4--4--5--5--6--6--6--3----|-------------------------------------------------|


 B|-------------------------------------------------|-------------------------------------------------|
F#|-------------------------------------------------|-------------------------------------------------|
 D|-11-11-11-11-11-11-11-11-11-11-11-11-11-11-11-11-|-15-15-15-15-15-15-15-15-15-15-15-15-15-15-15-15-|
 A|-9--9--9--9--9--9--9--9--9--9--9--9--9--9--9--9--|-12-12-12-12-12-12-12-12-12-12-12-12-12-12-12-12-|
 E|-7--7--7--7--7--7--7--7--7--7--7--7--7--7--7--7--|-10-10-10-10-10-10-10-10-10-10-10-10-10-10-10-10-|
 B|-------------------------------------------------|-------------------------------------------------|


 B|-------------------------------------------------|-------------------------------------------------|
F#|-------------------------------------------------|-------------------------------------------------|
 D|-14-14-14-14-14-14-14-14-14-14-14-14-14-14-14-14-|-11-11-11-11-11-11-11-11-11-11-11-11-11-11-11-11-|
 A|-12-12-12-12-12-12-12-12-12-12-12-12-12-12-12-12-|-9--9--9--9--9--9--9--9--9--9--9--9--9--9--9--9--|
 E|-10-10-10-10-10-10-10-10-10-10-10-10-10-10-10-10-|-7--7--7--7--7--7--7--7--7--7--7--7--7--7--7--7--|
 B|-------------------------------------------------|-------------------------------------------------|


 B|-------------------------------------------------|-----------------------------------------------|
F#|-------------------------------------------------|-----------------------------------------------|
 D|-11-11-11-11-11-11-11-11-11-11-11-11-11-11-11-11-|-15-15-15-15-15-15-15-15-15-15-15-15-15-15-17--|
 A|-9--9--9--9--9--9--9--9--9--9--9--9--9--9--9--9--|-12-12-12-12-12-12-12-12-12-12-12-12-12-12-14--|
 E|-7--7--7--7--7--7--7--7--7--7--7--7--7--7--7--7--|-10-10-10-10-10-10-10-10-10-10-10-10-10-10-12--|
 B|-------------------------------------------------|-----------------------------------------------|


 B|-----------------|---------------------------------------|-----------------------------------------|
F#|-------5---5-----|---------------------------------------|-----------------------------------------|
 D|-17----5---5-----|---------------------------------------|-----------------------------------------|
 A|-14----7---7-----|---------------------------------------|-----------------------------------------|
 E|-12----8---8-----|---------------------------------------|-----------------------------5--7--7--7--|
 B|-----------------|-3--0---0---0--3--0---0---0--3--0------|-3--0---0---0--3--0---0---0--3--5--5--5--|


 B|---------------------------------------|------------------------------|---------------------------------------|
F#|---------------------------------------|------------------------------|---------------------------------------|
 D|---------------------------------------|------------------------------|---------------------------------------|
 A|---------------------------------------|-------------------------7----|---------------------------------------|
 E|---------------------------------------|---------------5----7----5----|---------------------------------------|
 B|-3--0---0---0--3--0---0---0--3--0------|-3--0---0---0--3----5---------|-3--0---0---0--3--0---0---0--3--0------|


 B|-----------------------------------------|---------------------------------------|
F#|-----------------------------------------|---------------------------------------|
 D|-----------------------------------------|---------------------------------------|
 A|-----------------------------------------|---------------------------------------|
 E|-----------------------------------------|---------------------------------------|
 B|-3--0---0---0--3--0---0---0--3--0--5--0--|-3--0---0---0--3--0---0---0--3--0------|


 B|------------------------------|---------------------------------------|-----------------------------------------|
F#|------------------------------|---------------------------------------|-----------------------------------------|
 D|------------------------------|---------------------------------------|-----------------------------------------|
 A|-------------------------7----|---------------------------------------|-----------------------------------------|
 E|---------------5----7----5----|---------------------------------------|-----------------------------------------|
 B|-3--0---0---0--3----5---------|-3--0---0---0--3--0---0---0--3--0------|-3--0---0---0--3--0---0---0--3--0--5--0--|


 B|---------------------------------------|------------------------------|-14--14---14-12-14----|
F#|---------------------------------------|------------------------------|----------------------|
 D|---------------------------------------|------------------------------|----------------------|
 A|---------------------------------------|-------------------------7----|----------------------|
 E|---------------------------------------|---------------5----7----5----|----------------------|
 B|-3--0---0---0--3--0---0---0--3--0------|-3--0---0---0--3----5---------|----------------------|


 B|-------------------|-----------------------------------|---------------------|-------------------------------------|
F#|-10----10-8--10----|-10---10----8--12-10---------------|---------------------|-------------------------------------|
 D|-------------------|---------9-----------11-9-----9----|-9-----12--12--------|-----------------------7---7--7--9---|
 A|-------------------|---------------------------12------|---------------------|---------5---5--5--9-----------------|
 E|-------------------|-----------------------------------|---------------------|-----7-------------------------------|
 B|-------------------|-----------------------------------|---------------------|-------------------------------------|


 B|------------------15----------------15-17-15-|-17--17----17--17-15-------------|
F#|-8----15-17-15-17----17-15-17-15-17----------|---------------------17-16-15----|
 D|---------------------------------------------|------------------------------16-|
 A|---------------------------------------------|---------------------------------|
 E|---------------------------------------------|---------------------------------|
 B|---------------------------------------------|---------------------------------|


 B|------12---12---------|--------------------|--------|--------|-------------------------------------------|
F#|----------------------|--------------------|--------|--------|-------------------------------------------|
 D|-14---14---14---------|--------------------|--------|--------|--------------------------------------6----|
 A|----------------------|--------------------|--------|--------|--------------------------------------7----|
 E|----------------------|-2------------------|--------|--------|----------------------------5---------4----|
 B|----------------------|-0------------------|--------|--------|-6--0--0--6--0--0--0--0--0--3---3--0-------|


 B|-------------------------------------------------|-------------------------------------------------|
F#|-------------------------------------------------|-------------------------------------------------|
 D|-11-11-11-11-11-11-11-11-11-11-11-11-11-11-11-11-|-11-11-11-11-11-11-11-11-11-11-11-11-11-11-11-11-|
 A|-9--9--9--9--9--9--9--9--9--9--9--9--9--9--9--9--|-9--9--9--9--9--9--9--9--9--9--9--9--9--9--9--9--|
 E|-7--7--7--7--7--7--7--7--7--7--7--7--7--7--7--7--|-7--7--7--7--7--7--7--7--7--7--7--7--7--7--7--7--|
 B|-------------------------------------------------|-------------------------------------------------|


 B|-------------------------------------------------|-------------------------------------------------|
F#|-------------------------------------------------|-------------------------------------------------|
 D|-15-15-15-15-15-15-15-15-15-15-15-15-15-15-15-15-|-14-14-14-14-14-14-14-14-14-14-14-14-14-14-14-14-|
 A|-12-12-12-12-12-12-12-12-12-12-12-12-12-12-12-12-|-12-12-12-12-12-12-12-12-12-12-12-12-12-12-12-12-|
 E|-10-10-10-10-10-10-10-10-10-10-10-10-10-10-10-10-|-10-10-10-10-10-10-10-10-10-10-10-10-10-10-10-10-|
 B|-------------------------------------------------|-------------------------------------------------|


 B|-----------------------------------------------|-------------------------------------------------|
F#|-----------------------------------------------|-------------------------------------------------|
 D|-11-11-11-11-11-11-11-11-11-11-11-11--11-11-11-|-11-11-11-11-11-11-11-11-11-11-11-11-11-11-11-11-|
 A|-9--9--9--9--9--9--9--9--9--9--9--9---9--9--9--|-9--9--9--9--9--9--9--9--9--9--9--9--9--9--9--9--|
 E|-7--7--7--7--7--7--7--7--7--7--7--7---7--7--7--|-7--7--7--7--7--7--7--7--7--7--7--7--7--7--7--7--|
 B|-----------------------------------------------|-------------------------------------------------|


 B|-----------------------------------------------|-----------------|-------------------------------------------------|
F#|-----------------------------------------------|-------5---5-----|-------------------------------------------------|
 D|-15-15-15-15-15-15-15-15-15-15-15-15-15-15-17--|-17----5---5-----|-11-11-11-11-11-11-11-11-11-11-11-11-11-11-11-11-|
 A|-12-12-12-12-12-12-12-12-12-12-12-12-12-12-14--|-14----7---7-----|-9--9--9--9--9--9--9--9--9--9--9--9--9--9--9--9--|
 E|-10-10-10-10-10-10-10-10-10-10-10-10-10-10-12--|-12----8---8-----|-7--7--7--7--7--7--7--7--7--7--7--7--7--7--7--7--|
 B|-----------------------------------------------|-----------------|-------------------------------------------------|


 B|-------------------------------------------------|-------------------------------------------------|
F#|-------------------------------------------------|-------------------------------------------------|
 D|-11-11-11-11-11-11-11-11-11-11-11-11-11-11-11-11-|-15-15-15-15-15-15-15-15-15-15-15-15-15-15-15-15-|
 A|-9--9--9--9--9--9--9--9--9--9--9--9--9--9--9--9--|-12-12-12-12-12-12-12-12-12-12-12-12-12-12-12-12-|
 E|-7--7--7--7--7--7--7--7--7--7--7--7--7--7--7--7--|-10-10-10-10-10-10-10-10-10-10-10-10-10-10-10-10-|
 B|-------------------------------------------------|-------------------------------------------------|


 B|-------------------------------------------------|-----------------------------------------------|
F#|-------------------------------------------------|-----------------------------------------------|
 D|-14-14-14-14-14-14-14-14-14-14-14-14-14-14-14-14-|-11-11-11-11-11-11-11-11-11-11-11-11--11-11-11-|
 A|-12-12-12-12-12-12-12-12-12-12-12-12-12-12-12-12-|-9--9--9--9--9--9--9--9--9--9--9--9---9--9--9--|
 E|-10-10-10-10-10-10-10-10-10-10-10-10-10-10-10-10-|-7--7--7--7--7--7--7--7--7--7--7--7---7--7--7--|
 B|-------------------------------------------------|-----------------------------------------------|


 B|-------------------------------------------------|-----------------------------------------------|
F#|-------------------------------------------------|-----------------------------------------------|
 D|-11-11-11-11-11-11-11-11-11-11-11-11-11-11-11-11-|-15-15-15-15-15-15-15-15-15-15-15-15-15-15-17--|
 A|-9--9--9--9--9--9--9--9--9--9--9--9--9--9--9--9--|-12-12-12-12-12-12-12-12-12-12-12-12-12-12-14--|
 E|-7--7--7--7--7--7--7--7--7--7--7--7--7--7--7--7--|-10-10-10-10-10-10-10-10-10-10-10-10-10-10-12--|
 B|-------------------------------------------------|-----------------------------------------------|


 B|-----------------|
F#|-------5---5-----|
 D|-17----5---5-----|
 A|-14----7---7-----|
 E|-12----8---8-----|
 B|-----------------|





Track 2: Wichers

 B|--------|--------|--------|--------|--------|--------|--------|--------|--------|
F#|--------|--------|--------|--------|--------|--------|--------|--------|--------|
 D|--------|--------|--------|--------|--------|--------|--------|--------|--------|
 A|--------|--------|--------|--------|--------|--------|--------|--------|--------|
 E|--------|--------|--------|--------|--------|--------|--------|--------|--------|
 B|--------|--------|--------|--------|--------|--------|--------|--------|--------|


 B|--------|--------|--------|--------|-----------------------------------------------|
F#|--------|--------|--------|--------|-----------------------------------------------|
 D|--------|--------|--------|--------|-----9--9--9--9--9--9--9--9--12-12-12-12-12-12-|
 A|--------|--------|--------|--------|-----------------------------------------------|
 E|--------|--------|--------|--------|-----7--7--7--7--7--7--7--7--10-10-10-10-10-10-|
 B|--------|--------|--------|--------|-----------------------------------------------|


 B|-------------------------------------------------|-------------------------------------------------|
F#|-------------------------------------------------|-------------------------------------------------|
 D|-12-14-14-14-14-14-14-14-14-16-16-16-16-16-16-16-|-9--9--9--9--9--9--9--9--9--12-12-12-12-12-12-12-|
 A|-------------------------------------------------|-------------------------------------------------|
 E|-10-12-12-12-12-12-12-12-12-14-14-14-14-14-14-14-|-7--7--7--7--7--7--7--7--7--10-10-10-10-10-10-10-|
 B|-------------------------------------------------|-------------------------------------------------|


 B|---------------------------------------------|--------|--------|--------|--------|
F#|---------------------------------------------|--------|--------|--------|--------|
 D|-12-14-14-14-14-14-14-14-13-13-13-13---------|--------|--------|--------|--------|
 A|---------------------------------------------|--------|--------|--------|--------|
 E|-10-12-12-12-12-12-12-12-11-11-11-11----5----|--------|--------|--------|--------|
 B|-------------------------------------0--3----|--------|--------|--------|--------|


 B|--------|--------|--------|--------|--------|--------|--------|--------|-----7--7--7--7--7--7--7--7--7--7--7--7--7--7--|
F#|--------|--------|--------|--------|--------|--------|--------|--------|-----8--8--8--8--8--8--8--8--8--8--8--8--8--8--|
 D|--------|--------|--------|--------|--------|--------|--------|--------|-----9--9--9--9--9--9--9--9--9--9--9--9--9--9--|
 A|--------|--------|--------|--------|--------|--------|--------|--------|-----------------------------------------------|
 E|--------|--------|--------|--------|--------|--------|--------|--------|-----------------------------------------------|
 B|--------|--------|--------|--------|--------|--------|--------|--------|-----------------------------------------------|


 B|-7--8--8--8--8--8--8--8--10-10-10-10-10-10-10-10-|-7--7--7--7--7--7--7--7--7--7--7--7--7--7--7--7--|
F#|-8--8--8--8--8--8--8--8--8--8--8--8--8--8--8--8--|-8--8--8--8--8--8--8--8--8--8--8--8--8--8--8--8--|
 D|-9--9--9--9--9--9--9--9--9--9--9--9--9--9--9--9--|-9--9--9--9--9--9--9--9--9--9--9--9--9--9--9--9--|
 A|-------------------------------------------------|-------------------------------------------------|
 E|-------------------------------------------------|-------------------------------------------------|
 B|-------------------------------------------------|-------------------------------------------------|


 B|-7--8--8--8--8--8--8--8--10-10-10-10------|--------|------------------------------------------|
F#|-8--8--8--8--8--8--8--8--8--8--8--8-------|--------|------------------------------------------|
 D|-9--9--9--9--9--9--9--9--9--9--9--9-------|--------|------------------------------------------|
 A|------------------------------------------|--------|------------------------------------------|
 E|------------------------------------------|-9------|-------------------------------------5----|
 B|------------------------------------------|--------|-3--3--4--4--4--4--4--5--5--6--6--6--3----|


 B|--------|--------|--------|--------|--------|--------|--------|--------|--------|
F#|--------|--------|--------|--------|--------|--------|--------|--------|--------|
 D|--------|--------|--------|--------|--------|--------|--------|--------|--------|
 A|--------|--------|--------|--------|--------|--------|--------|--------|--------|
 E|--------|--------|--------|--------|--------|--------|--------|--------|--------|
 B|--------|--------|--------|--------|--------|--------|--------|--------|--------|


 B|--------|--------|--------|--------|--------|--------|--------|--------|--------|
F#|--------|--------|--------|--------|--------|--------|--------|--------|--------|
 D|--------|--------|--------|--------|--------|--------|--------|--------|--------|
 A|--------|--------|--------|--------|--------|--------|--------|--------|--------|
 E|--------|--------|--------|--------|--------|--------|--------|--------|--------|
 B|--------|--------|--------|--------|--------|--------|--------|--------|--------|


 B|--------|--------|-----5--7--7--7--7--7--7--7--7--7--7--7--7--7--|-7--8--8--8--8--8--8--8--10-10-10-10-10-10-10-10-|
F#|--------|--------|-----7--8--8--8--8--8--8--8--8--8--8--8--8--8--|-8--8--8--8--8--8--8--8--8--8--8--8--8--8--8--8--|
 D|--------|--------|-----------9--9--9--9--9--9--9--9--9--9--9--9--|-9--9--9--9--9--9--9--9--9--9--9--9--9--9--9--9--|
 A|--------|--------|-----------------------------------------------|-------------------------------------------------|
 E|--------|--------|-----------------------------------------------|-------------------------------------------------|
 B|--------|--------|-----------------------------------------------|-------------------------------------------------|


 B|-----5--7--7--7--7--7--7--7--7--7--7--7--7--7--|-7--8--8--8--8--8--8--8--10-10-10-10------|
F#|-----7--8--8--8--8--8--8--8--8--8--8--8--8--8--|-8--8--8--8--8--8--8--8--8--8--8--8-------|
 D|-----------9--9--9--9--9--9--9--9--9--9--9--9--|-9--9--9--9--9--9--9--9--9--9--9--9-------|
 A|-----------------------------------------------|------------------------------------------|
 E|-----------------------------------------------|------------------------------------------|
 B|-----------------------------------------------|------------------------------------------|


 B|------------------------------------------|--------|--------|--------|--------|
F#|------------------------------------------|--------|--------|--------|--------|
 D|------------------------------------------|--------|--------|--------|--------|
 A|------------------------------------------|--------|--------|--------|--------|
 E|-------------------------------------5----|--------|--------|--------|--------|
 B|-3--3--4--4--4--4--4--5--5--6--6--6--3----|--------|--------|--------|--------|


 B|--------|--------|--------|--------|--------|--------|--------|--------|--------|
F#|--------|--------|--------|--------|--------|--------|--------|--------|--------|
 D|--------|--------|--------|--------|--------|--------|--------|--------|--------|
 A|--------|--------|--------|--------|--------|--------|--------|--------|--------|
 E|--------|--------|--------|--------|--------|--------|--------|--------|--------|
 B|--------|--------|--------|--------|--------|--------|--------|--------|--------|


 B|--------|--------|--------|--------|--------|--------|--------|--------------------------------|
F#|--------|--------|--------|--------|--------|--------|--------|-8----8---8--7----7---7---------|
 D|--------|--------|--------|--------|--------|--------|--------|-5----5---5--5----5---5---5--5--|
 A|--------|--------|--------|--------|--------|--------|--------|--------------------------------|
 E|--------|--------|--------|--------|--------|--------|--------|--------------------------------|
 B|--------|--------|--------|--------|--------|--------|--------|--------------------------------|


 B|--------------------------------|--------------------------------|--------|--------|
F#|-8----8---8--7----7---7---------|-8----8---8--7----7---7---------|--------|--------|
 D|-5----5---5--5----5---5---5--5--|-5----5---5--5----5---5---5--5--|--------|--------|
 A|--------------------------------|--------------------------------|--------|--------|
 E|--------------------------------|--------------------------------|--------|--------|
 B|--------------------------------|--------------------------------|--------|--------|


 B|--------|--------|--------|--------|--------|--------|--------|--------|--------|
F#|--------|--------|--------|--------|--------|--------|--------|--------|--------|
 D|--------|--------|--------|--------|--------|--------|--------|--------|--------|
 A|--------|--------|--------|--------|--------|--------|--------|--------|--------|
 E|--------|--------|--------|--------|--------|--------|--------|--------|--------|
 B|--------|--------|--------|--------|--------|--------|--------|--------|--------|


 B|--------|--------|--------|--------|--------|--------|--------|--------|--------|
F#|--------|--------|--------|--------|--------|--------|--------|--------|--------|
 D|--------|--------|--------|--------|--------|--------|--------|--------|--------|
 A|--------|--------|--------|--------|--------|--------|--------|--------|--------|
 E|--------|--------|--------|--------|--------|--------|--------|--------|--------|
 B|--------|--------|--------|--------|--------|--------|--------|--------|--------|


 B|--------|--------|--------|--------|--------|
F#|--------|--------|--------|--------|--------|
 D|--------|--------|--------|--------|--------|
 A|--------|--------|--------|--------|--------|
 E|--------|--------|--------|--------|--------|
 B|--------|--------|--------|--------|--------|





Track 3: Frenning

 B|--------|--------|--------|--------|--------|--------|--------|--------|--------|
F#|--------|--------|--------|--------|--------|--------|--------|--------|--------|
 D|--------|--------|--------|--------|--------|--------|--------|--------|--------|
 A|--------|--------|--------|--------|--------|--------|--------|--------|--------|
 E|--------|--------|--------|--------|--------|--------|--------|--------|--------|
 B|--------|--------|--------|--------|--------|--------|--------|--------|--------|


 B|--------|--------|--------|--------|--------|--------|--------|--------|--------|
F#|--------|--------|--------|--------|--------|--------|--------|--------|--------|
 D|--------|--------|--------|--------|--------|--------|--------|--------|--------|
 A|--------|--------|--------|--------|--------|--------|--------|--------|--------|
 E|--------|--------|--------|--------|--------|--------|--------|--------|--------|
 B|--------|--------|--------|--------|--------|--------|--------|--------|--------|


 B|--------|--------|--------|--------|--------|--------|--------|--------|--------|
F#|--------|--------|--------|--------|--------|--------|--------|--------|--------|
 D|--------|--------|--------|--------|--------|--------|--------|--------|--------|
 A|--------|--------|--------|--------|--------|--------|--------|--------|--------|
 E|--------|--------|--------|--------|--------|--------|--------|--------|--------|
 B|--------|--------|--------|--------|--------|--------|--------|--------|--------|


 B|--------|--------|--------|--------|--------|--------|--------|--------|--------|
F#|--------|--------|--------|--------|--------|--------|--------|--------|--------|
 D|--------|--------|--------|--------|--------|--------|--------|--------|--------|
 A|--------|--------|--------|--------|--------|--------|--------|--------|--------|
 E|--------|--------|--------|--------|--------|--------|--------|--------|--------|
 B|--------|--------|--------|--------|--------|--------|--------|--------|--------|


 B|--------|--------|--------|--------|--------|--------|--------|--------|--------|
F#|--------|--------|--------|--------|--------|--------|--------|--------|--------|
 D|--------|--------|--------|--------|--------|--------|--------|--------|--------|
 A|--------|--------|--------|--------|--------|--------|--------|--------|--------|
 E|--------|--------|--------|--------|--------|--------|--------|--------|--------|
 B|--------|--------|--------|--------|--------|--------|--------|--------|--------|


 B|--------|--------|--------|--------|--------|--------|--------|--------|--------|
F#|--------|--------|--------|--------|--------|--------|--------|--------|--------|
 D|--------|--------|--------|--------|--------|--------|--------|--------|--------|
 A|--------|--------|--------|--------|--------|--------|--------|--------|--------|
 E|--------|--------|--------|--------|--------|--------|--------|--------|--------|
 B|--------|--------|--------|--------|--------|--------|--------|--------|--------|


 B|--------|--------|--------|--------|--------|--------|--------|--------|--------|
F#|--------|--------|--------|--------|--------|--------|--------|--------|--------|
 D|--------|--------|--------|--------|--------|--------|--------|--------|--------|
 A|--------|--------|--------|--------|--------|--------|--------|--------|--------|
 E|--------|--------|--------|--------|--------|--------|--------|--------|--------|
 B|--------|--------|--------|--------|--------|--------|--------|--------|--------|


 B|--------|--------|--------|--------|--------|---------------------------------------|
F#|--------|--------|--------|--------|--------|---------------------------------------|
 D|--------|--------|--------|--------|--------|---------------------------------------|
 A|--------|--------|--------|--------|--------|---------------------------------------|
 E|--------|--------|--------|--------|--------|---------------------------------------|
 B|--------|--------|--------|--------|--------|-3--0---0---0--3--0---0---0--3--0------|


 B|-----------------------------------------|---------------------------------------|
F#|-----------------------------------------|---------------------------------------|
 D|-----------------------------------------|---------------------------------------|
 A|-----------------------------------------|---------------------------------------|
 E|-----------------------------------------|---------------------------------------|
 B|-3--0---0---0--3--0---0---0--3--0--5--0--|-3--0---0---0--3--0---0---0--3--0------|


 B|------------------------------|--------|--------|--------|--------|--------|--------|
F#|------------------------------|--------|--------|--------|--------|--------|--------|
 D|------------------------------|--------|--------|--------|--------|--------|--------|
 A|-------------------------7----|--------|--------|--------|--------|--------|--------|
 E|---------------5----7----5----|--------|--------|--------|--------|--------|--------|
 B|-3--0---0---0--3----5---------|--------|--------|--------|--------|--------|--------|


 B|--------|--------|--------|--------|--------|--------|--------|--------|--------|
F#|--------|--------|--------|--------|--------|--------|--------|--------|--------|
 D|--------|--------|--------|--------|--------|--------|--------|--------|--------|
 A|--------|--------|--------|--------|--------|--------|--------|--------|--------|
 E|--------|--------|--------|--------|--------|--------|--------|--------|--------|
 B|--------|--------|--------|--------|--------|--------|--------|--------|--------|


 B|--------|--------|--------|--------|--------|--------|--------|--------|--------|
F#|--------|--------|--------|--------|--------|--------|--------|--------|--------|
 D|--------|--------|--------|--------|--------|--------|--------|--------|--------|
 A|--------|--------|--------|--------|--------|--------|--------|--------|--------|
 E|--------|--------|--------|--------|--------|--------|--------|--------|--------|
 B|--------|--------|--------|--------|--------|--------|--------|--------|--------|


 B|--------|--------|--------|--------|--------|--------|--------|--------|--------|
F#|--------|--------|--------|--------|--------|--------|--------|--------|--------|
 D|--------|--------|--------|--------|--------|--------|--------|--------|--------|
 A|--------|--------|--------|--------|--------|--------|--------|--------|--------|
 E|--------|--------|--------|--------|--------|--------|--------|--------|--------|
 B|--------|--------|--------|--------|--------|--------|--------|--------|--------|


 B|--------|--------|--------|
F#|--------|--------|--------|
 D|--------|--------|--------|
 A|--------|--------|--------|
 E|--------|--------|--------|
 B|--------|--------|--------|





Track 4: Solo-guitar-type-of-thing

 B|--------|--------|--------|--------|--------|--------|--------|--------|--------|
F#|--------|--------|--------|--------|--------|--------|--------|--------|--------|
 D|--------|--------|--------|--------|--------|--------|--------|--------|--------|
 A|--------|--------|--------|--------|--------|--------|--------|--------|--------|
 E|--------|--------|--------|--------|--------|--------|--------|--------|--------|
 B|--------|--------|--------|--------|--------|--------|--------|--------|--------|


 B|--------|--------|--------|--------|--------|--------|--------|--------|--------|
F#|--------|--------|--------|--------|--------|--------|--------|--------|--------|
 D|--------|--------|--------|--------|--------|--------|--------|--------|--------|
 A|--------|--------|--------|--------|--------|--------|--------|--------|--------|
 E|--------|--------|--------|--------|--------|--------|--------|--------|--------|
 B|--------|--------|--------|--------|--------|--------|--------|--------|--------|


 B|--------|--------|--------|--------|--------|--------|--------|--------|--------|
F#|--------|--------|--------|--------|--------|--------|--------|--------|--------|
 D|--------|--------|--------|--------|--------|--------|--------|--------|--------|
 A|--------|--------|--------|--------|--------|--------|--------|--------|--------|
 E|--------|--------|--------|--------|--------|--------|--------|--------|--------|
 B|--------|--------|--------|--------|--------|--------|--------|--------|--------|


 B|--------|--------|--------|--------|--------|--------|--------|--------|--------|
F#|--------|--------|--------|--------|--------|--------|--------|--------|--------|
 D|--------|--------|--------|--------|--------|--------|--------|--------|--------|
 A|--------|--------|--------|--------|--------|--------|--------|--------|--------|
 E|--------|--------|--------|--------|--------|--------|--------|--------|--------|
 B|--------|--------|--------|--------|--------|--------|--------|--------|--------|


 B|--------|--------|--------|--------|--------|--------|--------|--------|--------|
F#|--------|--------|--------|--------|--------|--------|--------|--------|--------|
 D|--------|--------|--------|--------|--------|--------|--------|--------|--------|
 A|--------|--------|--------|--------|--------|--------|--------|--------|--------|
 E|--------|--------|--------|--------|--------|--------|--------|--------|--------|
 B|--------|--------|--------|--------|--------|--------|--------|--------|--------|


 B|--------|--------|--------|--------|--------|--------|--------|--------|--------|
F#|--------|--------|--------|--------|--------|--------|--------|--------|--------|
 D|--------|--------|--------|--------|--------|--------|--------|--------|--------|
 A|--------|--------|--------|--------|--------|--------|--------|--------|--------|
 E|--------|--------|--------|--------|--------|--------|--------|--------|--------|
 B|--------|--------|--------|--------|--------|--------|--------|--------|--------|


 B|--------|--------|--------|--------|--------|--------|--------|--------|--------|
F#|--------|--------|--------|--------|--------|--------|--------|--------|--------|
 D|--------|--------|--------|--------|--------|--------|--------|--------|--------|
 A|--------|--------|--------|--------|--------|--------|--------|--------|--------|
 E|--------|--------|--------|--------|--------|--------|--------|--------|--------|
 B|--------|--------|--------|--------|--------|--------|--------|--------|--------|


 B|--------|--------|--------|--------|--------|--------|--------|--------|--------|
F#|--------|--------|--------|--------|--------|--------|--------|--------|--------|
 D|--------|--------|--------|--------|--------|--------|--------|--------|--------|
 A|--------|--------|--------|--------|--------|--------|--------|--------|--------|
 E|--------|--------|--------|--------|--------|--------|--------|--------|--------|
 B|--------|--------|--------|--------|--------|--------|--------|--------|--------|


 B|-------------------------------------------------|-------------------------------------------------|
F#|-12-12-12-12-12-12-12-12-12-12-12-12-12-12-12-12-|-12-12-12-12-12-12-12-12-12-12-12-12-12-12-12-12-|
 D|-------------------------------------------------|-------------------------------------------------|
 A|-------------------------------------------------|-------------------------------------------------|
 E|-------------------------------------------------|-------------------------------------------------|
 B|-------------------------------------------------|-------------------------------------------------|


 B|-------------------------------------------------|-----------------|-------------------------------------------------|
F#|-12-12-12-12-12-12-12-12-12-12-12-12-12-12-12-12-|-8-----10--10----|-12-12-12-12-12-12-12-12-12-12-12-12-12-12-12-12-|
 D|-------------------------------------------------|-----------------|-------------------------------------------------|
 A|-------------------------------------------------|-----------------|-------------------------------------------------|
 E|-------------------------------------------------|-----------------|-------------------------------------------------|
 B|-------------------------------------------------|-----------------|-------------------------------------------------|


 B|-------------------------------------------------|-------------------------------------------------|
F#|-12-12-12-12-12-12-12-12-12-12-12-12-12-12-12-12-|-12-12-12-12-12-12-12-12-12-12-12-12-12-12-12-12-|
 D|-------------------------------------------------|-------------------------------------------------|
 A|-------------------------------------------------|-------------------------------------------------|
 E|-------------------------------------------------|-------------------------------------------------|
 B|-------------------------------------------------|-------------------------------------------------|


 B|-----------------|--------|-------------------|-----------------|---------------------------|
F#|-----------------|--------|-------------------|-----------------|-8----8---8--7----7--------|
 D|-12----11--11----|--------|-11----11-9--11----|-11--------------|-5----5---5--5----5--------|
 A|-----------------|--------|-------------------|-----------------|---------------------------|
 E|-----------------|--------|-------------------|-----------------|---------------------------|
 B|-----------------|--------|-------------------|-----------------|---------------------------|


 B|--------|--------|--------|--------|--------|--------|--------|--------|--------|
F#|--------|--------|--------|--------|--------|--------|--------|--------|--------|
 D|--------|--------|--------|--------|--------|--------|--------|--------|--------|
 A|--------|--------|--------|--------|--------|--------|--------|--------|--------|
 E|--------|--------|--------|--------|--------|--------|--------|--------|--------|
 B|--------|--------|--------|--------|--------|--------|--------|--------|--------|


 B|--------|--------|--------|--------|--------|--------|--------|--------|--------|
F#|--------|--------|--------|--------|--------|--------|--------|--------|--------|
 D|--------|--------|--------|--------|--------|--------|--------|--------|--------|
 A|--------|--------|--------|--------|--------|--------|--------|--------|--------|
 E|--------|--------|--------|--------|--------|--------|--------|--------|--------|
 B|--------|--------|--------|--------|--------|--------|--------|--------|--------|


 B|--------|--------|--------|--------|--------|--------|
F#|--------|--------|--------|--------|--------|--------|
 D|--------|--------|--------|--------|--------|--------|
 A|--------|--------|--------|--------|--------|--------|
 E|--------|--------|--------|--------|--------|--------|
 B|--------|--------|--------|--------|--------|--------|





Track 5: Pick Scrapes

 B|--------|--------|--------|--------|--------|--------|--------|--------|--------|
F#|--------|--------|--------|--------|--------|--------|--------|--------|--------|
 D|--------|--------|--------|--------|--------|--------|--------|--------|--------|
 A|--------|--------|--------|--------|--------|--------|--------|--------|--------|
 E|--------|--------|--------|--------|--------|--------|--------|--------|--------|
 B|--------|--------|--------|--------|--------|--------|--------|--------|--------|


 B|--------|--------|--------|--------|--------|--------|--------|--------|--------|
F#|--------|--------|--------|--------|--------|--------|--------|--------|--------|
 D|--------|--------|--------|--------|--------|--------|--------|--------|--------|
 A|--------|--------|--------|--------|--------|--------|--------|--------|--------|
 E|--------|--------|--------|--------|--------|--------|--------|--------|--------|
 B|--------|--------|--------|--------|--------|--------|--------|--------|--------|


 B|--------|--------|--------|--------|--------|--------|--------|--------|--------|
F#|--------|--------|--------|--------|--------|--------|--------|--------|--------|
 D|--------|--------|--------|--------|--------|--------|--------|--------|--------|
 A|--------|--------|--------|--------|--------|--------|--------|--------|--------|
 E|--------|--------|--------|--------|--------|--------|--------|--------|--------|
 B|--------|--------|--------|--------|--------|--------|--------|--------|--------|


 B|--------|--------|--------|--------|--------|--------|--------|--------|--------|
F#|--------|--------|--------|--------|--------|--------|--------|--------|--------|
 D|--------|--------|--------|--------|--------|--------|--------|--------|--------|
 A|--------|--------|--------|--------|--------|--------|--------|--------|--------|
 E|--------|--------|--------|--------|--------|--------|--------|--------|--------|
 B|--------|--------|--------|--------|--------|--------|--------|--------|--------|


 B|--------|--------|--------|--------|--------|--------|--------|--------|--------|
F#|--------|--------|--------|--------|--------|--------|--------|--------|--------|
 D|--------|--------|--------|--------|--------|--------|--------|--------|--------|
 A|--------|--------|--------|--------|--------|--------|--------|--------|--------|
 E|--------|--------|--------|--------|--------|--------|--------|--------|--------|
 B|--------|--------|--------|--------|--------|--------|--------|--------|--------|


 B|--------|--------|--------|--------|--------|--------|--------|--------|--------|
F#|--------|--------|--------|--------|--------|--------|--------|--------|--------|
 D|--------|--------|--------|--------|--------|--------|--------|--------|--------|
 A|--------|--------|--------|--------|--------|--------|--------|--------|--------|
 E|--------|--------|--------|--------|--------|--------|--------|--------|--------|
 B|--------|--------|--------|--------|--------|--------|--------|--------|--------|


 B|--------|--------|--------|--------|--------|--------|--------|--------|--------|
F#|--------|--------|--------|--------|--------|--------|--------|--------|--------|
 D|--------|--------|--------|--------|--------|--------|--------|--------|--------|
 A|--------|--------|--------|--------|--------|--------|--------|--------|--------|
 E|--------|--------|--------|--------|--------|--------|--------|--------|--------|
 B|--------|--------|--------|--------|--------|--------|--------|--------|--------|


 B|--------|--------|--------|--------|--------|--------|--------|--------|--------|
F#|--------|--------|--------|--------|--------|--------|--------|--------|--------|
 D|--------|--------|--------|--------|--------|--------|--------|--------|--------|
 A|--------|--------|--------|--------|--------|--------|--------|--------|--------|
 E|--------|--------|--------|--------|--------|--------|--------|--------|--------|
 B|--------|--------|--------|--------|--------|--------|--------|--------|--------|


 B|--------|--------|--------|--------|--------|--------|--------|--------|--------|
F#|--------|--------|--------|--------|--------|--------|--------|--------|--------|
 D|--------|--------|--------|--------|--------|--------|--------|--------|--------|
 A|--------|--------|--------|--------|--------|--------|--------|--------|--------|
 E|--------|--------|--------|--------|--------|--------|--------|--------|--------|
 B|--------|--------|--------|--------|--------|--------|--------|--------|--------|


 B|--------|--------|-------------|--------|--------|--------|----------------|--------|
F#|--------|--------|-------------|--------|--------|--------|----------------|--------|
 D|--------|--------|-------------|--------|--------|--------|----------------|--------|
 A|--------|--------|-------------|--------|--------|--------|----------------|--------|
 E|--------|--------|--------12---|--------|--------|--------|-----------14---|--------|
 B|--------|--------|-------------|--------|--------|--------|-----------12---|--------|


 B|--------|---------------------|--------|--------|--------|--------|--------|--------|
F#|--------|---------------------|--------|--------|--------|--------|--------|--------|
 D|--------|---------------------|--------|--------|--------|--------|--------|--------|
 A|--------|---------------------|--------|--------|--------|--------|--------|--------|
 E|--------|---------------------|--------|--------|--------|--------|--------|--------|
 B|--------|-24---17---12---7----|--------|--------|--------|--------|--------|--------|


 B|--------|--------|--------|--------|--------|--------|--------|--------|--------|
F#|--------|--------|--------|--------|--------|--------|--------|--------|--------|
 D|--------|--------|--------|--------|--------|--------|--------|--------|--------|
 A|--------|--------|--------|--------|--------|--------|--------|--------|--------|
 E|--------|--------|--------|--------|--------|--------|--------|--------|--------|
 B|--------|--------|--------|--------|--------|--------|--------|--------|--------|


 B|--------|--------|
F#|--------|--------|
 D|--------|--------|
 A|--------|--------|
 E|--------|--------|
 B|--------|--------|





Track 6: Frenning

 B|--------|--------|--------|--------|--------|--------|--------|--------|--------|
F#|--------|--------|--------|--------|--------|--------|--------|--------|--------|
 D|--------|--------|--------|--------|--------|--------|--------|--------|--------|
 A|--------|--------|--------|--------|--------|--------|--------|--------|--------|
 E|--------|--------|--------|--------|--------|--------|--------|--------|--------|
 B|--------|--------|--------|--------|--------|--------|--------|--------|--------|


 B|--------|--------|--------|--------|--------|--------|--------|--------|--------|
F#|--------|--------|--------|--------|--------|--------|--------|--------|--------|
 D|--------|--------|--------|--------|--------|--------|--------|--------|--------|
 A|--------|--------|--------|--------|--------|--------|--------|--------|--------|
 E|--------|--------|--------|--------|--------|--------|--------|--------|--------|
 B|--------|--------|--------|--------|--------|--------|--------|--------|--------|


 B|--------|--------|--------|--------|--------|--------|--------|--------|--------|
F#|--------|--------|--------|--------|--------|--------|--------|--------|--------|
 D|--------|--------|--------|--------|--------|--------|--------|--------|--------|
 A|--------|--------|--------|--------|--------|--------|--------|--------|--------|
 E|--------|--------|--------|--------|--------|--------|--------|--------|--------|
 B|--------|--------|--------|--------|--------|--------|--------|--------|--------|


 B|--------|--------|--------|--------|--------|--------|--------|--------|--------|
F#|--------|--------|--------|--------|--------|--------|--------|--------|--------|
 D|--------|--------|--------|--------|--------|--------|--------|--------|--------|
 A|--------|--------|--------|--------|--------|--------|--------|--------|--------|
 E|--------|--------|--------|--------|--------|--------|--------|--------|--------|
 B|--------|--------|--------|--------|--------|--------|--------|--------|--------|


 B|--------|--------|--------|--------|--------|--------|--------|--------|--------|
F#|--------|--------|--------|--------|--------|--------|--------|--------|--------|
 D|--------|--------|--------|--------|--------|--------|--------|--------|--------|
 A|--------|--------|--------|--------|--------|--------|--------|--------|--------|
 E|--------|--------|--------|--------|--------|--------|--------|--------|--------|
 B|--------|--------|--------|--------|--------|--------|--------|--------|--------|


 B|--------|--------|--------|--------|--------|--------|--------|--------|--------|
F#|--------|--------|--------|--------|--------|--------|--------|--------|--------|
 D|--------|--------|--------|--------|--------|--------|--------|--------|--------|
 A|--------|--------|--------|--------|--------|--------|--------|--------|--------|
 E|--------|--------|--------|--------|--------|--------|--------|--------|--------|
 B|--------|--------|--------|--------|--------|--------|--------|--------|--------|


 B|--------|--------|--------|--------|--------|--------|--------|--------|--------|
F#|--------|--------|--------|--------|--------|--------|--------|--------|--------|
 D|--------|--------|--------|--------|--------|--------|--------|--------|--------|
 A|--------|--------|--------|--------|--------|--------|--------|--------|--------|
 E|--------|--------|--------|--------|--------|--------|--------|--------|--------|
 B|--------|--------|--------|--------|--------|--------|--------|--------|--------|


 B|--------|--------|--------|--------|--------|--------|--------|--------|--------|
F#|--------|--------|--------|--------|--------|--------|--------|--------|--------|
 D|--------|--------|--------|--------|--------|--------|--------|--------|--------|
 A|--------|--------|--------|--------|--------|--------|--------|--------|--------|
 E|--------|--------|--------|--------|--------|--------|--------|--------|--------|
 B|--------|--------|--------|--------|--------|--------|--------|--------|--------|


 B|--------|--------|--------|--------|--------|--------|--------|--------|--------|
F#|--------|--------|--------|--------|--------|--------|--------|--------|--------|
 D|--------|--------|--------|--------|--------|--------|--------|--------|--------|
 A|--------|--------|--------|--------|--------|--------|--------|--------|--------|
 E|--------|--------|--------|--------|--------|--------|--------|--------|--------|
 B|--------|--------|--------|--------|--------|--------|--------|--------|--------|


 B|--------|--------|------------------|--------|--------|--------|--------|--------|
F#|--------|--------|--------7---------|--------|--------|--------|--------|--------|
 D|--------|--------|--------5---5--5--|--------|--------|--------|--------|--------|
 A|--------|--------|------------------|--------|--------|--------|--------|--------|
 E|--------|--------|------------------|--------|--------|--------|--------|--------|
 B|--------|--------|------------------|--------|--------|--------|--------|--------|


 B|--------|--------|--------|--------|--------|--------|--------|--------|--------|
F#|--------|--------|--------|--------|--------|--------|--------|--------|--------|
 D|--------|--------|--------|--------|--------|--------|--------|--------|--------|
 A|--------|--------|--------|--------|--------|--------|--------|--------|--------|
 E|--------|--------|--------|--------|--------|--------|--------|--------|--------|
 B|--------|--------|--------|--------|--------|--------|--------|--------|--------|


 B|--------|--------|--------|--------|--------|--------|--------|--------|--------|
F#|--------|--------|--------|--------|--------|--------|--------|--------|--------|
 D|--------|--------|--------|--------|--------|--------|--------|--------|--------|
 A|--------|--------|--------|--------|--------|--------|--------|--------|--------|
 E|--------|--------|--------|--------|--------|--------|--------|--------|--------|
 B|--------|--------|--------|--------|--------|--------|--------|--------|--------|


 B|--------|
F#|--------|
 D|--------|
 A|--------|
 E|--------|
 B|--------|





Track 7: Frenning

 B|--------|--------|--------|--------|--------|--------|--------|--------|--------|
F#|--------|--------|--------|--------|--------|--------|--------|--------|--------|
 D|--------|--------|--------|--------|--------|--------|--------|--------|--------|
 A|--------|--------|--------|--------|--------|--------|--------|--------|--------|
 E|--------|--------|--------|--------|--------|--------|--------|--------|--------|
 B|--------|--------|--------|--------|--------|--------|--------|--------|--------|


 B|--------|--------|--------|--------|--------|--------|--------|--------|--------|
F#|--------|--------|--------|--------|--------|--------|--------|--------|--------|
 D|--------|--------|--------|--------|--------|--------|--------|--------|--------|
 A|--------|--------|--------|--------|--------|--------|--------|--------|--------|
 E|--------|--------|--------|--------|--------|--------|--------|--------|--------|
 B|--------|--------|--------|--------|--------|--------|--------|--------|--------|


 B|--------|--------|--------|--------|--------|--------|--------|--------|--------|
F#|--------|--------|--------|--------|--------|--------|--------|--------|--------|
 D|--------|--------|--------|--------|--------|--------|--------|--------|--------|
 A|--------|--------|--------|--------|--------|--------|--------|--------|--------|
 E|--------|--------|--------|--------|--------|--------|--------|--------|--------|
 B|--------|--------|--------|--------|--------|--------|--------|--------|--------|


 B|--------|--------|--------|--------|--------|--------|--------|--------|--------|
F#|--------|--------|--------|--------|--------|--------|--------|--------|--------|
 D|--------|--------|--------|--------|--------|--------|--------|--------|--------|
 A|--------|--------|--------|--------|--------|--------|--------|--------|--------|
 E|--------|--------|--------|--------|--------|--------|--------|--------|--------|
 B|--------|--------|--------|--------|--------|--------|--------|--------|--------|


 B|--------|--------|--------|--------|--------|--------|--------|--------|--------|
F#|--------|--------|--------|--------|--------|--------|--------|--------|--------|
 D|--------|--------|--------|--------|--------|--------|--------|--------|--------|
 A|--------|--------|--------|--------|--------|--------|--------|--------|--------|
 E|--------|--------|--------|--------|--------|--------|--------|--------|--------|
 B|--------|--------|--------|--------|--------|--------|--------|--------|--------|


 B|--------|--------|--------|--------|--------|--------|--------|--------|--------|
F#|--------|--------|--------|--------|--------|--------|--------|--------|--------|
 D|--------|--------|--------|--------|--------|--------|--------|--------|--------|
 A|--------|--------|--------|--------|--------|--------|--------|--------|--------|
 E|--------|--------|--------|--------|--------|--------|--------|--------|--------|
 B|--------|--------|--------|--------|--------|--------|--------|--------|--------|


 B|--------|--------|--------|--------|--------|--------|--------|--------|--------|
F#|--------|--------|--------|--------|--------|--------|--------|--------|--------|
 D|--------|--------|--------|--------|--------|--------|--------|--------|--------|
 A|--------|--------|--------|--------|--------|--------|--------|--------|--------|
 E|--------|--------|--------|--------|--------|--------|--------|--------|--------|
 B|--------|--------|--------|--------|--------|--------|--------|--------|--------|


 B|--------|--------|--------|--------|--------|--------|--------|--------|--------|
F#|--------|--------|--------|--------|--------|--------|--------|--------|--------|
 D|--------|--------|--------|--------|--------|--------|--------|--------|--------|
 A|--------|--------|--------|--------|--------|--------|--------|--------|--------|
 E|--------|--------|--------|--------|--------|--------|--------|--------|--------|
 B|--------|--------|--------|--------|--------|--------|--------|--------|--------|


 B|--------|--------|--------|--------|--------|--------|--------|--------|--------|
F#|--------|--------|--------|--------|--------|--------|--------|--------|--------|
 D|--------|--------|--------|--------|--------|--------|--------|--------|--------|
 A|--------|--------|--------|--------|--------|--------|--------|--------|--------|
 E|--------|--------|--------|--------|--------|--------|--------|--------|--------|
 B|--------|--------|--------|--------|--------|--------|--------|--------|--------|


 B|--------|--------|--------|--------------------------------|--------------------------------|
F#|--------|--------|--------|-7----7---7--8----8---8---------|-7----7---7--8----8---8---------|
 D|--------|--------|--------|-7----7---7--7----7---7---7--7--|-7----7---7--7----7---7---7--7--|
 A|--------|--------|--------|--------------------------------|--------------------------------|
 E|--------|--------|--------|--------------------------------|--------------------------------|
 B|--------|--------|--------|--------------------------------|--------------------------------|


 B|-----7---7---7--7--8---8---7--7------|---------------------|--------|--------|--------|
F#|-----7---7---7--7--7---7---7--7--7---|-8----8----7---7-----|--------|--------|--------|
 D|-----9---9---------9---9-------------|-7----7----7---7-----|--------|--------|--------|
 A|-------------------------------------|---------------------|--------|--------|--------|
 E|-------------------------------------|---------------------|--------|--------|--------|
 B|-------------------------------------|---------------------|--------|--------|--------|


 B|--------|--------|--------|--------|--------|--------|--------|--------|--------|
F#|--------|--------|--------|--------|--------|--------|--------|--------|--------|
 D|--------|--------|--------|--------|--------|--------|--------|--------|--------|
 A|--------|--------|--------|--------|--------|--------|--------|--------|--------|
 E|--------|--------|--------|--------|--------|--------|--------|--------|--------|
 B|--------|--------|--------|--------|--------|--------|--------|--------|--------|


 B|--------|--------|--------|--------|--------|--------|--------|--------|
F#|--------|--------|--------|--------|--------|--------|--------|--------|
 D|--------|--------|--------|--------|--------|--------|--------|--------|
 A|--------|--------|--------|--------|--------|--------|--------|--------|
 E|--------|--------|--------|--------|--------|--------|--------|--------|
 B|--------|--------|--------|--------|--------|--------|--------|--------|





Track 8: Frenning

 B|--------|--------|--------|--------|--------|--------|--------|--------|--------|
F#|--------|--------|--------|--------|--------|--------|--------|--------|--------|
 D|--------|--------|--------|--------|--------|--------|--------|--------|--------|
 A|--------|--------|--------|--------|--------|--------|--------|--------|--------|
 E|--------|--------|--------|--------|--------|--------|--------|--------|--------|
 B|--------|--------|--------|--------|--------|--------|--------|--------|--------|


 B|--------|--------|--------|--------|--------|--------|--------|--------|--------|
F#|--------|--------|--------|--------|--------|--------|--------|--------|--------|
 D|--------|--------|--------|--------|--------|--------|--------|--------|--------|
 A|--------|--------|--------|--------|--------|--------|--------|--------|--------|
 E|--------|--------|--------|--------|--------|--------|--------|--------|--------|
 B|--------|--------|--------|--------|--------|--------|--------|--------|--------|


 B|--------|--------|--------|--------|--------|--------|--------|--------|--------|
F#|--------|--------|--------|--------|--------|--------|--------|--------|--------|
 D|--------|--------|--------|--------|--------|--------|--------|--------|--------|
 A|--------|--------|--------|--------|--------|--------|--------|--------|--------|
 E|--------|--------|--------|--------|--------|--------|--------|--------|--------|
 B|--------|--------|--------|--------|--------|--------|--------|--------|--------|


 B|--------|--------|--------|--------|--------|--------|--------|--------|--------|
F#|--------|--------|--------|--------|--------|--------|--------|--------|--------|
 D|--------|--------|--------|--------|--------|--------|--------|--------|--------|
 A|--------|--------|--------|--------|--------|--------|--------|--------|--------|
 E|--------|--------|--------|--------|--------|--------|--------|--------|--------|
 B|--------|--------|--------|--------|--------|--------|--------|--------|--------|


 B|--------|--------|--------|--------|--------|--------|--------|--------|--------|
F#|--------|--------|--------|--------|--------|--------|--------|--------|--------|
 D|--------|--------|--------|--------|--------|--------|--------|--------|--------|
 A|--------|--------|--------|--------|--------|--------|--------|--------|--------|
 E|--------|--------|--------|--------|--------|--------|--------|--------|--------|
 B|--------|--------|--------|--------|--------|--------|--------|--------|--------|


 B|--------|--------|--------|--------|--------|--------|--------|--------|--------|
F#|--------|--------|--------|--------|--------|--------|--------|--------|--------|
 D|--------|--------|--------|--------|--------|--------|--------|--------|--------|
 A|--------|--------|--------|--------|--------|--------|--------|--------|--------|
 E|--------|--------|--------|--------|--------|--------|--------|--------|--------|
 B|--------|--------|--------|--------|--------|--------|--------|--------|--------|


 B|--------|--------|--------|--------|--------|--------|--------|--------|--------|
F#|--------|--------|--------|--------|--------|--------|--------|--------|--------|
 D|--------|--------|--------|--------|--------|--------|--------|--------|--------|
 A|--------|--------|--------|--------|--------|--------|--------|--------|--------|
 E|--------|--------|--------|--------|--------|--------|--------|--------|--------|
 B|--------|--------|--------|--------|--------|--------|--------|--------|--------|


 B|--------|--------|--------|--------|--------|--------|--------|--------|--------|
F#|--------|--------|--------|--------|--------|--------|--------|--------|--------|
 D|--------|--------|--------|--------|--------|--------|--------|--------|--------|
 A|--------|--------|--------|--------|--------|--------|--------|--------|--------|
 E|--------|--------|--------|--------|--------|--------|--------|--------|--------|
 B|--------|--------|--------|--------|--------|--------|--------|--------|--------|


 B|--------|--------|--------|--------|--------|--------|--------|--------|--------|
F#|--------|--------|--------|--------|--------|--------|--------|--------|--------|
 D|--------|--------|--------|--------|--------|--------|--------|--------|--------|
 A|--------|--------|--------|--------|--------|--------|--------|--------|--------|
 E|--------|--------|--------|--------|--------|--------|--------|--------|--------|
 B|--------|--------|--------|--------|--------|--------|--------|--------|--------|


 B|--------|--------|--------|--------|--------|--------|--------|-------------------------------------------|
F#|--------|--------|--------|--------|--------|--------|--------|-------------------------------------------|
 D|--------|--------|--------|--------|--------|--------|--------|-------------------------------------------|
 A|--------|--------|--------|--------|--------|--------|--------|--------------5-------------5--------------|
 E|--------|--------|--------|--------|--------|--------|--------|-----5--7--------7---5--7------7-----5--7--|
 B|--------|--------|--------|--------|--------|--------|--------|-0---------0----------------------0--------|


 B|-----------------------------------------|--------|--------|--------|--------|--------|
F#|-----------------------------------------|--------|--------|--------|--------|--------|
 D|----------------------------------7--9---|--------|--------|--------|--------|--------|
 A|------------5------------5--7--9---------|--------|--------|--------|--------|--------|
 E|-----5--7------7---5--7------------------|--------|--------|--------|--------|--------|
 B|-0---------------------------------------|--------|--------|--------|--------|--------|


 B|--------|--------|--------|--------|--------|--------|--------|--------|--------|
F#|--------|--------|--------|--------|--------|--------|--------|--------|--------|
 D|--------|--------|--------|--------|--------|--------|--------|--------|--------|
 A|--------|--------|--------|--------|--------|--------|--------|--------|--------|
 E|--------|--------|--------|--------|--------|--------|--------|--------|--------|
 B|--------|--------|--------|--------|--------|--------|--------|--------|--------|


 B|--------|--------|--------|--------|
F#|--------|--------|--------|--------|
 D|--------|--------|--------|--------|
 A|--------|--------|--------|--------|
 E|--------|--------|--------|--------|
 B|--------|--------|--------|--------|





Track 9: Frenning

 B|--------|--------|--------|--------|--------|--------|--------|--------|--------|
F#|--------|--------|--------|--------|--------|--------|--------|--------|--------|
 D|--------|--------|--------|--------|--------|--------|--------|--------|--------|
 A|--------|--------|--------|--------|--------|--------|--------|--------|--------|
 E|--------|--------|--------|--------|--------|--------|--------|--------|--------|
 B|--------|--------|--------|--------|--------|--------|--------|--------|--------|


 B|--------|--------|--------|--------|--------|--------|--------|--------|--------|
F#|--------|--------|--------|--------|--------|--------|--------|--------|--------|
 D|--------|--------|--------|--------|--------|--------|--------|--------|--------|
 A|--------|--------|--------|--------|--------|--------|--------|--------|--------|
 E|--------|--------|--------|--------|--------|--------|--------|--------|--------|
 B|--------|--------|--------|--------|--------|--------|--------|--------|--------|


 B|--------|--------|--------|--------|--------|--------|--------|--------|--------|
F#|--------|--------|--------|--------|--------|--------|--------|--------|--------|
 D|--------|--------|--------|--------|--------|--------|--------|--------|--------|
 A|--------|--------|--------|--------|--------|--------|--------|--------|--------|
 E|--------|--------|--------|--------|--------|--------|--------|--------|--------|
 B|--------|--------|--------|--------|--------|--------|--------|--------|--------|


 B|--------|--------|--------|--------|--------|--------|--------|--------|--------|
F#|--------|--------|--------|--------|--------|--------|--------|--------|--------|
 D|--------|--------|--------|--------|--------|--------|--------|--------|--------|
 A|--------|--------|--------|--------|--------|--------|--------|--------|--------|
 E|--------|--------|--------|--------|--------|--------|--------|--------|--------|
 B|--------|--------|--------|--------|--------|--------|--------|--------|--------|


 B|--------|--------|--------|--------|--------|--------|--------|--------|--------|
F#|--------|--------|--------|--------|--------|--------|--------|--------|--------|
 D|--------|--------|--------|--------|--------|--------|--------|--------|--------|
 A|--------|--------|--------|--------|--------|--------|--------|--------|--------|
 E|--------|--------|--------|--------|--------|--------|--------|--------|--------|
 B|--------|--------|--------|--------|--------|--------|--------|--------|--------|


 B|--------|--------|--------|--------|--------|--------|--------|--------|--------|
F#|--------|--------|--------|--------|--------|--------|--------|--------|--------|
 D|--------|--------|--------|--------|--------|--------|--------|--------|--------|
 A|--------|--------|--------|--------|--------|--------|--------|--------|--------|
 E|--------|--------|--------|--------|--------|--------|--------|--------|--------|
 B|--------|--------|--------|--------|--------|--------|--------|--------|--------|


 B|--------|--------|--------|--------|--------|--------|--------|--------|--------|
F#|--------|--------|--------|--------|--------|--------|--------|--------|--------|
 D|--------|--------|--------|--------|--------|--------|--------|--------|--------|
 A|--------|--------|--------|--------|--------|--------|--------|--------|--------|
 E|--------|--------|--------|--------|--------|--------|--------|--------|--------|
 B|--------|--------|--------|--------|--------|--------|--------|--------|--------|


 B|--------|--------|--------|--------|--------|--------|--------|--------|--------|
F#|--------|--------|--------|--------|--------|--------|--------|--------|--------|
 D|--------|--------|--------|--------|--------|--------|--------|--------|--------|
 A|--------|--------|--------|--------|--------|--------|--------|--------|--------|
 E|--------|--------|--------|--------|--------|--------|--------|--------|--------|
 B|--------|--------|--------|--------|--------|--------|--------|--------|--------|


 B|--------|--------|--------|--------|--------|--------|--------|--------|--------|
F#|--------|--------|--------|--------|--------|--------|--------|--------|--------|
 D|--------|--------|--------|--------|--------|--------|--------|--------|--------|
 A|--------|--------|--------|--------|--------|--------|--------|--------|--------|
 E|--------|--------|--------|--------|--------|--------|--------|--------|--------|
 B|--------|--------|--------|--------|--------|--------|--------|--------|--------|


 B|--------|--------|--------|--------|--------|--------|--------|--------|--------|
F#|--------|--------|--------|--------|--------|--------|--------|--------|--------|
 D|--------|--------|--------|--------|--------|--------|--------|--------|--------|
 A|--------|--------|--------|--------|--------|--------|--------|--------|--------|
 E|--------|--------|--------|--------|--------|--------|--------|--------|--------|
 B|--------|--------|--------|--------|--------|--------|--------|--------|--------|


 B|-------------------------------------------|--------|--------|--------|--------|
F#|-------------------------------------------|--------|--------|--------|--------|
 D|-------------------------------------------|--------|--------|--------|--------|
 A|--------------5-------------5--------------|--------|--------|--------|--------|
 E|-----5--7--------7---5--7------7-----5--7--|--------|--------|--------|--------|
 B|-0---------0----------------------0--------|--------|--------|--------|--------|


 B|--------|--------|--------|--------|--------|--------|--------|--------|--------|
F#|--------|--------|--------|--------|--------|--------|--------|--------|--------|
 D|--------|--------|--------|--------|--------|--------|--------|--------|--------|
 A|--------|--------|--------|--------|--------|--------|--------|--------|--------|
 E|--------|--------|--------|--------|--------|--------|--------|--------|--------|
 B|--------|--------|--------|--------|--------|--------|--------|--------|--------|


 B|--------|--------|--------|--------|
F#|--------|--------|--------|--------|
 D|--------|--------|--------|--------|
 A|--------|--------|--------|--------|
 E|--------|--------|--------|--------|
 B|--------|--------|--------|--------|





Track 10: Frenning

 B|--------|--------|--------|--------|--------|--------|--------|--------|--------|
F#|--------|--------|--------|--------|--------|--------|--------|--------|--------|
 D|--------|--------|--------|--------|--------|--------|--------|--------|--------|
 A|--------|--------|--------|--------|--------|--------|--------|--------|--------|
 E|--------|--------|--------|--------|--------|--------|--------|--------|--------|
 B|--------|--------|--------|--------|--------|--------|--------|--------|--------|


 B|--------|--------|--------|--------|--------|--------|--------|--------|--------|
F#|--------|--------|--------|--------|--------|--------|--------|--------|--------|
 D|--------|--------|--------|--------|--------|--------|--------|--------|--------|
 A|--------|--------|--------|--------|--------|--------|--------|--------|--------|
 E|--------|--------|--------|--------|--------|--------|--------|--------|--------|
 B|--------|--------|--------|--------|--------|--------|--------|--------|--------|


 B|--------|--------|--------|--------|--------|--------|--------|--------|--------|
F#|--------|--------|--------|--------|--------|--------|--------|--------|--------|
 D|--------|--------|--------|--------|--------|--------|--------|--------|--------|
 A|--------|--------|--------|--------|--------|--------|--------|--------|--------|
 E|--------|--------|--------|--------|--------|--------|--------|--------|--------|
 B|--------|--------|--------|--------|--------|--------|--------|--------|--------|


 B|--------|--------|--------|--------|--------|--------|--------|--------|--------|
F#|--------|--------|--------|--------|--------|--------|--------|--------|--------|
 D|--------|--------|--------|--------|--------|--------|--------|--------|--------|
 A|--------|--------|--------|--------|--------|--------|--------|--------|--------|
 E|--------|--------|--------|--------|--------|--------|--------|--------|--------|
 B|--------|--------|--------|--------|--------|--------|--------|--------|--------|


 B|--------|--------|--------|--------|--------|--------|--------|--------|--------|
F#|--------|--------|--------|--------|--------|--------|--------|--------|--------|
 D|--------|--------|--------|--------|--------|--------|--------|--------|--------|
 A|--------|--------|--------|--------|--------|--------|--------|--------|--------|
 E|--------|--------|--------|--------|--------|--------|--------|--------|--------|
 B|--------|--------|--------|--------|--------|--------|--------|--------|--------|


 B|--------|--------|--------|--------|--------|--------|--------|--------|--------|
F#|--------|--------|--------|--------|--------|--------|--------|--------|--------|
 D|--------|--------|--------|--------|--------|--------|--------|--------|--------|
 A|--------|--------|--------|--------|--------|--------|--------|--------|--------|
 E|--------|--------|--------|--------|--------|--------|--------|--------|--------|
 B|--------|--------|--------|--------|--------|--------|--------|--------|--------|


 B|--------|--------|--------|--------|--------|--------|--------|--------|--------|
F#|--------|--------|--------|--------|--------|--------|--------|--------|--------|
 D|--------|--------|--------|--------|--------|--------|--------|--------|--------|
 A|--------|--------|--------|--------|--------|--------|--------|--------|--------|
 E|--------|--------|--------|--------|--------|--------|--------|--------|--------|
 B|--------|--------|--------|--------|--------|--------|--------|--------|--------|


 B|--------|--------|--------|--------|--------|--------|--------|--------|--------|
F#|--------|--------|--------|--------|--------|--------|--------|--------|--------|
 D|--------|--------|--------|--------|--------|--------|--------|--------|--------|
 A|--------|--------|--------|--------|--------|--------|--------|--------|--------|
 E|--------|--------|--------|--------|--------|--------|--------|--------|--------|
 B|--------|--------|--------|--------|--------|--------|--------|--------|--------|


 B|--------|--------|--------|--------|--------|--------|--------|--------|--------|
F#|--------|--------|--------|--------|--------|--------|--------|--------|--------|
 D|--------|--------|--------|--------|--------|--------|--------|--------|--------|
 A|--------|--------|--------|--------|--------|--------|--------|--------|--------|
 E|--------|--------|--------|--------|--------|--------|--------|--------|--------|
 B|--------|--------|--------|--------|--------|--------|--------|--------|--------|


 B|--------|--------|--------|--------|--------|--------|--------|--------|--------|
F#|--------|--------|--------|--------|--------|--------|--------|--------|--------|
 D|--------|--------|--------|--------|--------|--------|--------|--------|--------|
 A|--------|--------|--------|--------|--------|--------|--------|--------|--------|
 E|--------|--------|--------|--------|--------|--------|--------|--------|--------|
 B|--------|--------|--------|--------|--------|--------|--------|--------|--------|


 B|--------|-------------------------------------------|--------|--------|--------|
F#|--------|-------------------------------------------|--------|--------|--------|
 D|--------|--------------------------------------6----|--------|--------|--------|
 A|--------|--------------------------------------7----|--------|--------|--------|
 E|--------|----------------------------5---------4----|--------|--------|--------|
 B|--------|-6--0--0--6--0--0--0--0--0--3---3--0-------|--------|--------|--------|


 B|--------|--------|--------|--------|--------|--------|--------|--------|--------|
F#|--------|--------|--------|--------|--------|--------|--------|--------|--------|
 D|--------|--------|--------|--------|--------|--------|--------|--------|--------|
 A|--------|--------|--------|--------|--------|--------|--------|--------|--------|
 E|--------|--------|--------|--------|--------|--------|--------|--------|--------|
 B|--------|--------|--------|--------|--------|--------|--------|--------|--------|


 B|--------|--------|--------|--------|
F#|--------|--------|--------|--------|
 D|--------|--------|--------|--------|
 A|--------|--------|--------|--------|
 E|--------|--------|--------|--------|
 B|--------|--------|--------|--------|





Track 11: Untitled

D|--------|---------------------------------------|----------------------------------7--9---|
A|--------|------------5-------------5------------|------------5------------5--7--9---------|
E|--------|-----5--7------7---5--7------7---5--7--|-----5--7------7---5--7------------------|
B|--------|-0-------------------------------------|-0---------------------------------------|


D|---------------------------------------|-------------------------------------------|
A|------------5-------------5------------|-------------------------------------------|
E|-----5--7------7---5--7------7---5--7--|-------------------------------------------|
B|-0-------------------------------------|-6--0--0--6--0--0--0--0--0--3---3--0--5----|


D|---------------------------------------|----------------------------------7--9---|
A|------------5-------------5------------|------------5------------5--7--9---------|
E|-----5--7------7---5--7------7---5--7--|-----5--7------7---5--7------------------|
B|-0-------------------------------------|-0---------------------------------------|


D|---------------------------------------|-----------------------------------------|
A|------------5-------------5------------|-----------------------------------------|
E|-----5--7------7---5--7------7---5--7--|-----------------------------------------|
B|-0-------------------------------------|-6--0--0--6--0--0--0--0--0--3----0--2----|


D|--------------------|----------------------|--------------------|--------------------|
A|--------------------|----------------------|--------------------|--------------------|
E|--------------------|----------------------|--------------------|--------------------|
B|-0------------------|------------0--0---0--|-0------------------|------------0--3----|


D|--------------------|----------------------|--------------------|--------------------|
A|--------------------|----------------------|--------------------|--------------------|
E|--------------------|----------------------|--------------------|--------------------|
B|-0------------------|------------0--0---0--|-0------------------|------------0--3----|


D|---------------------------------------|----------------------------------7--9---|
A|------------5-------------5------------|------------5------------5--7--9---------|
E|-----5--7------7---5--7------7---5--7--|-----5--7------7---5--7------------------|
B|-0-------------------------------------|-0---------------------------------------|


D|---------------------------------------|-------------------------------------------|
A|------------5-------------5------------|-------------------------------------------|
E|-----5--7------7---5--7------7---5--7--|-------------------------------------------|
B|-0-------------------------------------|-6--0--0--6--0--0--0--0--0--3---3--0--5----|


D|---------------------------------------|----------------------------------7--9---|
A|------------5-------------5------------|------------5------------5--7--9---------|
E|-----5--7------7---5--7------7---5--7--|-----5--7------7---5--7------------------|
B|-0-------------------------------------|-0---------------------------------------|


D|---------------------------------------|-----------------------------------------|
A|------------5-------------5------------|-----------------------------------------|
E|-----5--7------7---5--7------7---5--7--|-----------------------------------------|
B|-0-------------------------------------|-6--0--0--6--0--0--0--0--0--3----0--2----|


D|--------------------|----------------------|--------------------|--------------------|
A|--------------------|----------------------|--------------------|--------------------|
E|--------------------|----------------------|--------------------|--------------------|
B|-0------------------|------------0--0---0--|-0------------------|------------0--3----|


D|--------------------|----------------------|--------------------|--------------------|
A|--------------------|----------------------|--------------------|--------------------|
E|--------------------|----------------------|--------------------|--------------------|
B|-0------------------|------------0--0---0--|-0------------------|------------0--3----|


D|--------|------------------------------------------|-------------------------------------------------|
A|--------|------------------------------------------|-------------------------------------------------|
E|-5------|------------------------------------------|-7--7--7--7--7--7--7--7--7--7--7--7--7--7--7--7--|
B|--------|-15-14-13-12-11-10-9--8--7--6--5--4--3----|-------------------------------------------------|


D|-------------------------------------------------|-------------------------------------------------|
A|-------------------------------------------------|-------------------------------------------------|
E|-7--7--7--7--7--7--7--7--7--7--7--7--7--7--7--7--|-------------------------------------------------|
B|-------------------------------------------------|-3--3--3--3--3--3--3--3--3--3--3--3--3--3--3--3--|


D|-------------------------------------------------|-------------------------------------------------|
A|-------------------------------------------------|-------------------------------------------------|
E|-------------------------------------------------|-7--7--7--7--7--7--7--7--7--7--7--7--7--7--7--7--|
B|-5--5--5--5--5--5--5--5--5--5--5--5--5--5--5--5--|-------------------------------------------------|


D|-------------------------------------------------|-----------------------------------------------|
A|-------------------------------------------------|-----------------------------------------------|
E|-7--7--7--7--7--7--7--7--7--7--7--7--7--7--7--7--|-----------------------------------------------|
B|-------------------------------------------------|-3--3--3--3--3--3--3--3--3--3--3--3--3--3--5---|


D|------------------|---------------------------------------|----------------------------------7--9---|
A|------------------|------------5-------------5------------|------------5------------5--7--9---------|
E|------------------|-----5--7------7---5--7------7---5--7--|-----5--7------7---5--7------------------|
B|-5-----13---13----|-0-------------------------------------|-0---------------------------------------|


D|---------------------------------------|-------------------------------------------|
A|------------5-------------5------------|-------------------------------------------|
E|-----5--7------7---5--7------7---5--7--|-------------------------------------------|
B|-0-------------------------------------|-6--0--0--6--0--0--0--0--0--3---3--0--5----|


D|---------------------------------------|----------------------------------7--9---|
A|------------5-------------5------------|------------5------------5--7--9---------|
E|-----5--7------7---5--7------7---5--7--|-----5--7------7---5--7------------------|
B|-0-------------------------------------|-0---------------------------------------|


D|---------------------------------------|-----------------------------------------|
A|------------5-------------5------------|-----------------------------------------|
E|-----5--7------7---5--7------7---5--7--|-----------------------------------------|
B|-0-------------------------------------|-6--0--0--6--0--0--0--0--0--3----0--2----|


D|--------------------|----------------------|--------------------|--------------------|
A|--------------------|----------------------|--------------------|--------------------|
E|--------------------|----------------------|--------------------|--------------------|
B|-0------------------|------------0--0---0--|-0------------------|------------0--3----|


D|--------------------|----------------------|--------------------|--------------------|
A|--------------------|----------------------|--------------------|--------------------|
E|--------------------|----------------------|--------------------|--------------------|
B|-0------------------|------------0--0---0--|-0------------------|------------0--3----|


D|------------------------------------------|-------------------------------------------------|
A|------------------------------------------|-------------------------------------------------|
E|------------------------------------------|-7--7--7--7--7--7--7--7--7--7--7--7--7--7--7--7--|
B|-15-14-13-12-11-10-9--8--7--6--5--4--3----|-------------------------------------------------|


D|-------------------------------------------------|-------------------------------------------------|
A|-------------------------------------------------|-------------------------------------------------|
E|-7--7--7--7--7--7--7--7--7--7--7--7--7--7--7--7--|-------------------------------------------------|
B|-------------------------------------------------|-3--3--3--3--3--3--3--3--3--3--3--3--3--3--3--3--|


D|-------------------------------------------------|-------------------------------------------------|
A|-------------------------------------------------|-------------------------------------------------|
E|-------------------------------------------------|-7--7--7--7--7--7--7--7--7--7--7--7--7--7--7--7--|
B|-5--5--5--5--5--5--5--5--5--5--5--5--5--5--5--5--|-------------------------------------------------|


D|-------------------------------------------------|-----------------------------------------------|
A|-------------------------------------------------|-----------------------------------------------|
E|-7--7--7--7--7--7--7--7--7--7--7--7--7--7--7--7--|-----------------------------------------------|
B|-------------------------------------------------|-3--3--3--3--3--3--3--3--3--3--3--3--3--3--5---|


D|------------------|---------------------------------------|-----------------------------------------|
A|------------------|---------------------------------------|-----------------------------------------|
E|------------------|---------------------------------------|-----------------------------------------|
B|-5-----13---13----|-3--0---0---0--3--0---0---0--3--0------|-3--0---0---0--3--0---0---0--3--5--5--5--|


D|---------------------------------------|------------------------------|---------------------------------------|
A|---------------------------------------|------------------------------|---------------------------------------|
E|---------------------------------------|-------------------------5----|---------------------------------------|
B|-3--0---0---0--3--0---0---0--3--0------|-3--0---0---0--3----5---------|-3--0---0---0--3--0---0---0--3--0------|


D|-----------------------------------------|---------------------------------------|
A|-----------------------------------------|---------------------------------------|
E|-----------------------------------------|---------------------------------------|
B|-3--0---0---0--3--0---0---0--3--0--5--0--|-3--0---0---0--3--0---0---0--3--0------|


D|------------------------------|---------------------------------------|-----------------------------------------|
A|------------------------------|---------------------------------------|-----------------------------------------|
E|-------------------------5----|---------------------------------------|-----------------------------------------|
B|-3--0---0---0--3----5---------|-3--0---0---0--3--0---0---0--3--0------|-3--0---0---0--3--0---0---0--3--0--5--0--|


D|---------------------------------------|------------------------------|---------------------------------|
A|---------------------------------------|------------------------------|---------------------------------|
E|---------------------------------------|-------------------------5----|-3----3--3--3----3--3--3---3--3--|
B|-3--0---0---0--3--0---0---0--3--0------|-3--0---0---0--3----5---------|---------------------------------|


D|---------------------------------|---------------------------------|---------------------------------|
A|---------------------------------|---------------------------------|---------------------------------|
E|-3----3--3--3----3--3--3---3--3--|-3----3--3--3----3--3--3---3--3--|-3----3--3--3----3--3--3---3--3--|
B|---------------------------------|---------------------------------|---------------------------------|


D|---------------------------------|---------------------------------|---------------------------------|
A|---------------------------------|---------------------------------|---------------------------------|
E|-5----5--5--5----5--5--5---5--5--|-5----5--5--5----5--5--5---5--5--|-5---7---7-------7---7-------7---|
B|---------------------------------|---------------------------------|---------------------------------|


D|---------------------|--------------------|--------|--------|-------------------------------------------|
A|---------------------|--------------------|--------|--------|-------------------------------------------|
E|-3----3----5---5-----|-7------------------|--------|--------|-------------------------------------------|
B|---------------------|--------------------|--------|--------|-6--0--0--6--0--0--0--0--0--3---3--0--5----|


D|-------------------------------------------------|-------------------------------------------------|
A|-------------------------------------------------|-------------------------------------------------|
E|-7--7--7--7--7--7--7--7--7--7--7--7--7--7--7--7--|-7--7--7--7--7--7--7--7--7--7--7--7--7--7--7--7--|
B|-------------------------------------------------|-------------------------------------------------|


D|-------------------------------------------------|-------------------------------------------------|
A|-------------------------------------------------|-------------------------------------------------|
E|-------------------------------------------------|-------------------------------------------------|
B|-3--3--3--3--3--3--3--3--3--3--3--3--3--3--3--3--|-5--5--5--5--5--5--5--5--5--5--5--5--5--5--5--5--|


D|-------------------------------------------------|-------------------------------------------------|
A|-------------------------------------------------|-------------------------------------------------|
E|-7--7--7--7--7--7--7--7--7--7--7--7--7--7--7--7--|-7--7--7--7--7--7--7--7--7--7--7--7--7--7--7--7--|
B|-------------------------------------------------|-------------------------------------------------|


D|-----------------------------------------------|-----------------|-------------------------------------------------|
A|-----------------------------------------------|-----------------|-------------------------------------------------|
E|-----------------------------------------------|-----------------|-------------------------------------------------|
B|-3--3--3--3--3--3--3--3--3--3--3--3--3--3--5---|-5-----13--13----|-12-12-12-12-12-12-12-12-12-12-12-12-12-12-12-12-|


D|-------------------------------------------------|-------------------------------------------------|
A|-------------------------------------------------|-------------------------------------------------|
E|-------------------------------------------------|-------------------------------------------------|
B|-12-12-12-12-12-12-12-12-12-12-12-12-12-12-12-12-|-3--3--3--3--3--3--3--3--3--3--3--3--3--3--3--3--|


D|-------------------------------------------------|-------------------------------------------------|
A|-------------------------------------------------|-------------------------------------------------|
E|-------------------------------------------------|-7--7--7--7--7--7--7--7--7--7--7--7--7--7--7--7--|
B|-5--5--5--5--5--5--5--5--5--5--5--5--5--5--5--5--|-------------------------------------------------|


D|-------------------------------------------------|---------------------------------------------|
A|-------------------------------------------------|---------------------------------------------|
E|-7--7--7--7--7--7--7--7--7--7--7--7--7--7--7--7--|---------------------------------------------|
B|-------------------------------------------------|-3--3--3--3--3--3--3--3--3--3--3--3--3---5---|


D|------------------|
A|------------------|
E|------------------|
B|-5-----13---13----|