Menu:

 

Search:

 

soilwork - like the average stalker:

 



Title: Like The Average Stalker
Artist: 
Album: A Predator's Portrait
Author: Frenning, Strid & Wichers


Track 1: Wichers - Lead Guitar

 B|---------------------------------|---------------------------------|---------------------------------|
F#|---------------------------------|---------------------------------|---------------------------------|
 D|---------------------------------|---------------------------------|---------------------------------|
 A|---------------------------------|---------------------4---2-------|---------------------------------|
 E|---------------------------------|-----2-----------2-----------4---|---------------------------------|
 B|-2---0---2---2---2---0---2---4---|-5-------5---4-------------------|-2---0---2---2---2---0---2---4---|


 B|------------------------------|---------------------------------|---------------------------------|
F#|------------------------------|---------------------------------|---------------------------------|
 D|------------------------------|---------------------------------|---------------------------------|
 A|------------------------------|---------------------------------|---------------------4---2-------|
 E|-----2-----------2------------|---------------------------------|-----2-----------2-----------4---|
 B|-5-------5---4-------5---5----|-2---0---2---2---2---0---2---4---|-5-------5---4-------------------|


 B|---------------------------------|--------|---------------------------------|---------------------------------|
F#|---------------------------------|--------|---------------------------------|---------------------------------|
 D|---------------------------------|--------|---------------------------------|---------------------------------|
 A|---------------------------------|--------|---------------------------------|---------------------4---2-------|
 E|---------------------------------|--------|---------------------------------|-----2-----------2-----------4---|
 B|-2---0---2---2---2---0---2---4---|--------|-2---0---2---2---2---0---2---4---|-5-------5---4-------------------|


 B|---------------------------------|------------------------------|---------------------------------|
F#|---------------------------------|------------------------------|---------------------------------|
 D|---------------------------------|------------------------------|---------------------------------|
 A|---------------------------------|------------------------------|---------------------------------|
 E|---------------------------------|-----2-----------2------------|---------------------------------|
 B|-2---0---2---2---2---0---2---4---|-5-------5---4-------5---5----|-2---0---2---2---2---0---2---4---|


 B|---------------------------------|---------------------------------|------------------------------|
F#|---------------------------------|---------------------------------|------------------------------|
 D|---------------------------------|---------------------------------|------------------------------|
 A|---------------------4---2-------|---------------------------------|------------------------------|
 E|-----2-----------2-----------4---|---------------------------------|-----2-----------2------------|
 B|-5-------5---4-------------------|-2---0---2---2---2---0---2---4---|-5-------5---4-------5---5----|


 B|---------------------------------|---------4---5-------------------|---------------------------------|
F#|-----10------9-------------------|-------------------------5---9---|-----10------9-------------------|
 D|---------------------9-----------|-----6---------------4-----------|---------------------9-----------|
 A|-7-------7-------7-------7---7---|-4-------------------------------|-7-------7-------7-------7---9---|
 E|---------------------------------|-----------------7---------------|---------------------------------|
 B|---------------------------------|---------------------------------|---------------------------------|


 B|---------------------------------------|---------------------------------|---------4---5-------------------|
F#|---------------------------------------|-----10------9-------------------|-------------------------5---9---|
 D|-7--9--7---7---------------------------|---------------------9-----------|-----6---------------4-----------|
 A|---------------11-12-11--11--9--11-9---|-7-------7-------7-------7---7---|-4-------------------------------|
 E|---------------------------------------|---------------------------------|-----------------7---------------|
 B|---------------------------------------|---------------------------------|---------------------------------|


 B|---------------------------------|--------|--------|--------|--------|--------|
F#|-----10------9-------------------|--------|--------|--------|--------|--------|
 D|---------------------9-----------|--------|--------|--------|--------|--------|
 A|-7-------7-------7-------7---9---|--------|--------|--------|--------|--------|
 E|---------------------------------|--------|--------|--------|--------|--------|
 B|---------------------------------|--------|--------|--------|--------|--------|


 B|--------|--------|--------|--------|---------------------------------|---------------------------------|
F#|--------|--------|--------|--------|---------------------------------|---------------------------------|
 D|--------|--------|--------|--------|-------------9---9---9-----------|-------------9---9---9-----------|
 A|--------|--------|--------|--------|-------------------------9-------|-------------------------9-------|
 E|--------|--------|--------|--------|-7-------7-------------------10--|-7-------7-------------------10--|
 B|--------|--------|--------|--------|-----7---------------------------|-----7---------------------------|


 B|---------------------------------|------------------------------|---------------------------------|
F#|---------------------------------|---------10-------------------|---------------------------------|
 D|---------9---12--12--12--9-------|-----11------9---9----8---8---|-------------9---9---9-----------|
 A|-----10----------------------10--|-12---------------------------|-------------------------9-------|
 E|-10------------------------------|------------------------------|-7-------7-------------------10--|
 B|---------------------------------|------------------------------|-----7---------------------------|


 B|---------------------------------|---------------------------------|---------------------------------|
F#|---------------------------------|-------------10--10--10----------|-------------12--12--12----------|
 D|-------------9---9---9-----------|---------9---------------9-------|---------11--------------11------|
 A|-------------------------9-------|-----11----------------------11--|-----13----------------------13--|
 E|-7-------7-------------------10--|-12------------------------------|-14------------------------------|
 B|-----7---------------------------|---------------------------------|---------------------------------|


 B|---------------------------------|---------4---5-------------------|---------------------------------|
F#|-----10------9-------------------|-------------------------5---9---|-----10------9-------------------|
 D|---------------------9-----------|-----6---------------4-----------|---------------------9-----------|
 A|-7-------7-------7-------7---7---|-4-------------------------------|-7-------7-------7-------7---9---|
 E|---------------------------------|-----------------7---------------|---------------------------------|
 B|---------------------------------|---------------------------------|---------------------------------|


 B|---------------------------------------|---------------------------------|---------4---5-------------------|
F#|---------------------------------------|-----10------9-------------------|-------------------------5---9---|
 D|-7--9--7---7---------------------------|---------------------9-----------|-----6---------------4-----------|
 A|---------------11-12-11--11--9--11-9---|-7-------7-------7-------7---7---|-4-------------------------------|
 E|---------------------------------------|---------------------------------|-----------------7---------------|
 B|---------------------------------------|---------------------------------|---------------------------------|


 B|---------------------------------|--------|--------|--------|--------|--------|
F#|-----10------9-------------------|--------|--------|--------|--------|--------|
 D|---------------------9-----------|--------|--------|--------|--------|--------|
 A|-7-------7-------7-------7---9---|--------|--------|--------|--------|--------|
 E|---------------------------------|--------|--------|--------|--------|--------|
 B|---------------------------------|--------|--------|--------|--------|--------|


 B|--------|--------|--------|--------|---------------------------------|---------------------------------|
F#|--------|--------|--------|--------|---------------------------------|---------------------------------|
 D|--------|--------|--------|--------|-------------9---9---9-----------|-------------9---9---9-----------|
 A|--------|--------|--------|--------|-------------------------9-------|-------------------------9-------|
 E|--------|--------|--------|--------|-7-------7-------------------10--|-7-------7-------------------10--|
 B|--------|--------|--------|--------|-----7---------------------------|-----7---------------------------|


 B|---------------------------------|------------------------------|---------------------------------|
F#|---------------------------------|---------10-------------------|---------------------------------|
 D|---------9---12--12--12--9-------|-----11------9---9----8---8---|-------------9---9---9-----------|
 A|-----10----------------------10--|-12---------------------------|-------------------------9-------|
 E|-10------------------------------|------------------------------|-7-------7-------------------10--|
 B|---------------------------------|------------------------------|-----7---------------------------|


 B|---------------------------------|---------------------------------|---------------------------------|
F#|---------------------------------|-------------10--10--10----------|-------------12--12--12----------|
 D|-------------9---9---9-----------|---------9---------------9-------|---------11--------------11------|
 A|-------------------------9-------|-----11----------------------11--|-----13----------------------13--|
 E|-7-------7-------------------10--|-12------------------------------|-14------------------------------|
 B|-----7---------------------------|---------------------------------|---------------------------------|


 B|--------|--------|--------|--------|--------|--------|--------|--------|--------|
F#|--------|--------|--------|--------|--------|--------|--------|--------|--------|
 D|--------|--------|--------|--------|--------|--------|--------|--------|--------|
 A|--------|--------|--------|--------|--------|--------|--------|--------|--------|
 E|--------|--------|--------|--------|--------|--------|--------|--------|--------|
 B|--------|--------|--------|--------|--------|--------|--------|--------|--------|


 B|--------|--------|--------|--------|--------|--------|--------|---------------------------------|
F#|--------|--------|--------|--------|--------|--------|--------|-----10------9-------------------|
 D|--------|--------|--------|--------|--------|--------|--------|---------------------9-----------|
 A|--------|--------|--------|--------|--------|--------|--------|-7-------7-------7-------7---7---|
 E|--------|--------|--------|--------|--------|--------|--------|---------------------------------|
 B|--------|--------|--------|--------|--------|--------|--------|---------------------------------|


 B|---------4---5-------------------|---------------------------------|---------------------------------------|
F#|-------------------------5---9---|-----10------9-------------------|---------------------------------------|
 D|-----6---------------4-----------|---------------------9-----------|-7--9--7---7---------------------------|
 A|-4-------------------------------|-7-------7-------7-------7---9---|---------------11-12-11--11--9--11-9---|
 E|-----------------7---------------|---------------------------------|---------------------------------------|
 B|---------------------------------|---------------------------------|---------------------------------------|


 B|---------------------------------|---------4---5-------------------|---------------------------------|
F#|-----10------9-------------------|-------------------------5---9---|-----10------9-------------------|
 D|---------------------9-----------|-----6---------------4-----------|---------------------9-----------|
 A|-7-------7-------7-------7---7---|-4-------------------------------|-7-------7-------7-------7---9---|
 E|---------------------------------|-----------------7---------------|---------------------------------|
 B|---------------------------------|---------------------------------|---------------------------------|


 B|--------|--------|--------|--------|--------|--------|--------|--------|--------|
F#|--------|--------|--------|--------|--------|--------|--------|--------|--------|
 D|--------|--------|--------|--------|--------|--------|--------|--------|--------|
 A|--------|--------|--------|--------|--------|--------|--------|--------|--------|
 E|--------|--------|--------|--------|--------|--------|--------|--------|--------|
 B|--------|--------|--------|--------|--------|--------|--------|--------|--------|


 B|---------------------------------|---------------------------------|---------------------------------|
F#|---------------------------------|---------------------------------|---------------------------------|
 D|-------------9---9---9-----------|-------------9---9---9-----------|---------9---12--12--12--9-------|
 A|-------------------------9-------|-------------------------9-------|-----10----------------------10--|
 E|-7-------7-------------------10--|-7-------7-------------------10--|-10------------------------------|
 B|-----7---------------------------|-----7---------------------------|---------------------------------|


 B|------------------------------|---------------------------------|---------------------------------|
F#|---------10-------------------|---------------------------------|---------------------------------|
 D|-----11------9---9----8---8---|-------------9---9---9-----------|-------------9---9---9-----------|
 A|-12---------------------------|-------------------------9-------|-------------------------9-------|
 E|------------------------------|-7-------7-------------------10--|-7-------7-------------------10--|
 B|------------------------------|-----7---------------------------|-----7---------------------------|


 B|---------------------------------|---------------------------------|--------|--------|
F#|-------------10--10--10----------|-------------12--12--12----------|--------|--------|
 D|---------9---------------9-------|---------11--------------11------|--------|--------|
 A|-----11----------------------11--|-----13----------------------13--|--------|--------|
 E|-12------------------------------|-14------------------------------|--------|--------|
 B|---------------------------------|---------------------------------|--------|--------|


 B|--------|--------|--------|--------|--------|--------|--------|--------|--------|
F#|--------|--------|--------|--------|--------|--------|--------|--------|--------|
 D|--------|--------|--------|--------|--------|--------|--------|--------|--------|
 A|--------|--------|--------|--------|--------|--------|--------|--------|--------|
 E|--------|--------|--------|--------|--------|--------|--------|--------|--------|
 B|--------|--------|--------|--------|--------|--------|--------|--------|--------|


 B|--------|--------|--------|--------|--------|---------------------------------|
F#|--------|--------|--------|--------|--------|---------------------------------|
 D|--------|--------|--------|--------|--------|---------------------------------|
 A|--------|--------|--------|--------|--------|---------------------------------|
 E|--------|--------|--------|--------|--------|---------------------------------|
 B|--------|--------|--------|--------|--------|-2---0---2---2---2---0---2---4---|


 B|---------------------------------|---------------------------------|------------------------------|
F#|---------------------------------|---------------------------------|------------------------------|
 D|---------------------------------|---------------------------------|------------------------------|
 A|---------------------4---2-------|---------------------------------|------------------------------|
 E|-----2-----------2-----------4---|---------------------------------|-----2-----------2------------|
 B|-5-------5---4-------------------|-2---0---2---2---2---0---2---4---|-5-------5---4-------5---5----|


 B|---------------------------------|---------------------------------|---------------------------------|
F#|---------------------------------|---------------------------------|---------------------------------|
 D|---------------------------------|---------------------------------|---------------------------------|
 A|---------------------------------|---------------------4---2-------|---------------------------------|
 E|---------------------------------|-----2-----------2-----------4---|---------------------------------|
 B|-2---0---2---2---2---0---2---4---|-5-------5---4-------------------|-2---0---2---2---2---0---2---4---|


 B|------------------------------|---------------------------------|---------------------------------|
F#|------------------------------|---------------------------------|---------------------------------|
 D|------------------------------|---------------------------------|---------------------------------|
 A|------------------------------|---------------------------------|---------------------4---2-------|
 E|-----2-----------2------------|---------------------------------|-----2-----------2-----------4---|
 B|-5-------5---4-------5---5----|-2---0---2---2---2---0---2---4---|-5-------5---4-------------------|


 B|---------------------------------|------------------------------|-15--15--15---15--15--15--15-12-|
F#|---------------------------------|------------------------------|--------------------------------|
 D|---------------------------------|------------------------------|--------------------------------|
 A|---------------------------------|------------------------------|--------------------------------|
 E|---------------------------------|-----2-----------2------------|--------------------------------|
 B|-2---0---2---2---2---0---2---4---|-5-------5---4-------5---5----|--------------------------------|


 B|-15--15--15----12---|-17-15-0--12-------17-15-0--12-------17-15-0--12-|-------17--17--17-15-17--17--17--17--|
F#|--------------------|-------------15-13-------------15-13-------------|-15-13-------------------------------|
 D|--------------------|-------------------------------------------------|-------------------------------------|
 A|--------------------|-------------------------------------------------|-------------------------------------|
 E|--------------------|-------------------------------------------------|-------------------------------------|
 B|--------------------|-------------------------------------------------|-------------------------------------|


 B|---------------------------------|---------------------------------|-17----------------------------|
F#|---------------------------------|---------------------------------|-----------15------------------|
 D|---------------------------------|---------------------------------|------17--------14---12--------|
 A|---------------------------------|---------------------------------|--------------------------14---|
 E|-----15--17--17--17------15--15--|-----------------15------15--14--|-------------------------------|
 B|-17------------------17----------|-17--15--17--17------17----------|-------------------------------|


 B|-------------------------------|-22--17--------------------------|---------------------------------|
F#|-------------------------------|---------18----------------------|-------------18--------------18--|
 D|-------------------------------|-------------19------------------|---------19------19------19------|
 A|-13---12-----------------------|-----------------19--------------|-----19--------------19----------|
 E|-----------15---12---15---12---|---------------------20--17------|-17------------------------------|
 B|-------------------------------|-----------------------------20--|---------------------------------|


 B|-20--16--------------------------|-------------16--------------16--|--------|--------|
F#|---------18----------------------|---------18------18------18------|--------|--------|
 D|-------------19------------------|-----19--------------19----------|--------|--------|
 A|-----------------21--18----------|-15------------------------------|--------|--------|
 E|-------------------------20--17--|---------------------------------|--------|--------|
 B|---------------------------------|---------------------------------|--------|--------|


 B|--------|--------|---------------------------------|---------------------------------|
F#|--------|--------|-----10------8-------7-------8---|-8---7---------------------------|
 D|--------|--------|-9-------9-------9-------9-------|---------9---7---9---9---9---7---|
 A|--------|--------|---------------------------------|---------------------------------|
 E|--------|--------|---------------------------------|---------------------------------|
 B|--------|--------|---------------------------------|---------------------------------|


 B|---------------------------------|-----------------8---7-----------|---------------------------------|
F#|-----10------8-------7-------8---|-8---7-------------------10--8---|-----10------8-------7-------8---|
 D|-9-------9-------9-------9-------|---------9---7-------------------|-9-------9-------9-------9-------|
 A|---------------------------------|---------------------------------|---------------------------------|
 E|---------------------------------|---------------------------------|---------------------------------|
 B|---------------------------------|---------------------------------|---------------------------------|


 B|---------------------------------|-8---7-------------------------------------------|
F#|-8---7---------------------------|---------10--8---7-------8---7-------------------|
 D|---------9---7---9---9---9---7---|---------------------9-----------9---7-----------|
 A|---------------------------------|-----------------------------------------10--9---|
 E|---------------------------------|-------------------------------------------------|
 B|---------------------------------|-------------------------------------------------|


 B|-------------|---------------------------------|---------4---5-------------------|
F#|-------------|-----10------9-------------------|-------------------------5---9---|
 D|-9-----8-----|---------------------9-----------|-----6---------------4-----------|
 A|-------------|-7-------7-------7-------7---7---|-4-------------------------------|
 E|-------------|---------------------------------|-----------------7---------------|
 B|-------------|---------------------------------|---------------------------------|


 B|---------------------------------|---------------------------------------|---------------------------------|
F#|-----10------9-------------------|---------------------------------------|-----10------9-------------------|
 D|---------------------9-----------|-7--9--7---7---------------------------|---------------------9-----------|
 A|-7-------7-------7-------7---9---|---------------11-12-11--11--9--11-9---|-7-------7-------7-------7---7---|
 E|---------------------------------|---------------------------------------|---------------------------------|
 B|---------------------------------|---------------------------------------|---------------------------------|


 B|---------4---5-------------------|---------------------------------|---------------------------------------|
F#|-------------------------5---9---|-----10------9-------------------|---------------------------------------|
 D|-----6---------------4-----------|---------------------9-----------|-7--9--7---7---6--7--6---6---9--11-9---|
 A|-4-------------------------------|-7-------7-------7-------7---9---|---------------------------------------|
 E|-----------------7---------------|---------------------------------|---------------------------------------|
 B|---------------------------------|---------------------------------|---------------------------------------|


 B|---------------------------------|---------4---5-------------------|---------------------------------|
F#|-----10------9-------------------|-------------------------5---9---|-----10------9-------------------|
 D|---------------------9-----------|-----6---------------4-----------|---------------------9-----------|
 A|-7-------7-------7-------7---7---|-4-------------------------------|-7-------7-------7-------7---9---|
 E|---------------------------------|-----------------7---------------|---------------------------------|
 B|---------------------------------|---------------------------------|---------------------------------|


 B|---------------------------------------|---------------------------------|---------4---5-------------------|
F#|---------------------------------------|-----10------9-------------------|-------------------------5---9---|
 D|-7--9--7---7---------------------------|---------------------9-----------|-----6---------------4-----------|
 A|---------------11-12-11--11--9--11-9---|-7-------7-------7-------7---7---|-4-------------------------------|
 E|---------------------------------------|---------------------------------|-----------------7---------------|
 B|---------------------------------------|---------------------------------|---------------------------------|


 B|---------------------------------|-------------|---------------------------------|
F#|-----10------9-------------------|-------------|---------------------------------|
 D|---------------------9-----------|-6-----------|---------------------------------|
 A|-7-------7-------7-------7---9---|-6-----7-----|---------------------------------|
 E|---------------------------------|-4-----7-----|---------------------------------|
 B|---------------------------------|-------5-----|-2---0---2---2---2---0---2---4---|


 B|---------------------------------|---------------------------------|------------------------------|
F#|---------------------------------|---------------------------------|------------------------------|
 D|---------------------------------|---------------------------------|------------------------------|
 A|---------------------4---2-------|---------------------------------|------------------------------|
 E|-----2-----------2-----------4---|---------------------------------|-----2-----------2------------|
 B|-5-------5---4-------------------|-2---0---2---2---2---0---2---4---|-5-------5---4-------5---5----|


 B|---------------------------------|---------------------------------|---------------------------------|
F#|---------------------------------|---------------------------------|---------------------------------|
 D|---------------------------------|---------------------------------|---------------------------------|
 A|---------------------------------|---------------------4---2-------|---------------------------------|
 E|---------------------------------|-----2-----------2-----------4---|---------------------------------|
 B|-2---0---2---2---2---0---2---4---|-5-------5---4-------------------|-2---0---2---2---2---0---2---4---|


 B|------------------------------|---------------------------------|---------------------------------|
F#|------------------------------|---------------------------------|---------------------------------|
 D|------------------------------|---------------------------------|---------------------------------|
 A|------------------------------|---------------------------------|---------------------4---2-------|
 E|-----2-----------2------------|---------------------------------|-----2-----------2-----------4---|
 B|-5-------5---4-------5---5----|-2---0---2---2---2---0---2---4---|-5-------5---4-------------------|


 B|---------------------------------|------------------------------|---------------------------------|
F#|---------------------------------|------------------------------|---------------------------------|
 D|---------------------------------|------------------------------|---------------------------------|
 A|---------------------------------|------------------------------|---------------------------------|
 E|---------------------------------|-----2-----------2------------|---------------------------------|
 B|-2---0---2---2---2---0---2---4---|-5-------5---4-------5---5----|-2---0---2---2---2---0---2---4---|


 B|---------------------------------|---------------------------------|------------------------------|
F#|---------------------------------|---------------------------------|------------------------------|
 D|---------------------------------|---------------------------------|------------------------------|
 A|---------------------4---2-------|---------------------------------|------------------------------|
 E|-----2-----------2-----------4---|---------------------------------|-----2-----------2------------|
 B|-5-------5---4-------------------|-2---0---2---2---2---0---2---4---|-5-------5---4-------5---5----|


 B|---------------------------------|---------------------------------|---------------------------------|
F#|---------------------------------|---------------------------------|---------------------------------|
 D|---------------------------------|---------------------------------|---------------------------------|
 A|---------------------------------|---------------------4---2-------|---------------------------------|
 E|---------------------------------|-----2-----------2-----------4---|---------------------------------|
 B|-2---0---2---2---2---0---2---4---|-5-------5---4-------------------|-2---0---2---2---2---0---2---4---|


 B|------------------------------|---------------------------------|---------------------------------|
F#|------------------------------|---------------------------------|---------------------------------|
 D|------------------------------|---------------------------------|---------------------------------|
 A|------------------------------|---------------------------------|---------------------4---2-------|
 E|-----2-----------2------------|---------------------------------|-----2-----------2-----------4---|
 B|-5-------5---4-------5---5----|-2---0---2---2---2---0---2---4---|-5-------5---4-------------------|


 B|---------------------------------|------------------------------|---------------------------------|
F#|---------------------------------|------------------------------|---------------------------------|
 D|---------------------------------|------------------------------|---------------------------------|
 A|---------------------------------|------------------------------|---------------------------------|
 E|---------------------------------|-----2-----------2------------|---------------------------------|
 B|-2---0---2---2---2---0---2---4---|-5-------5---4-------5---5----|-2---0---2---2---2---0---2---4---|


 B|---------------------------------|---------------------------------|------------------------------|
F#|---------------------------------|---------------------------------|------------------------------|
 D|---------------------------------|---------------------------------|------------------------------|
 A|---------------------4---2-------|---------------------------------|------------------------------|
 E|-----2-----------2-----------4---|---------------------------------|-----2-----------2------------|
 B|-5-------5---4-------------------|-2---0---2---2---2---0---2---4---|-5-------5---4-------5---5----|


 B|---------------------------------|---------------------------------|---------------------------------|
F#|---------------------------------|---------------------------------|---------------------------------|
 D|---------------------------------|---------------------------------|---------------------------------|
 A|---------------------------------|---------------------4---2-------|---------------------------------|
 E|---------------------------------|-----2-----------2-----------4---|---------------------------------|
 B|-2---0---2---2---2---0---2---4---|-5-------5---4-------------------|-2---0---2---2---2---0---2---4---|


 B|------------------------------|---------------------------------|---------------------------------|
F#|------------------------------|---------------------------------|---------------------------------|
 D|------------------------------|---------------------------------|---------------------------------|
 A|------------------------------|---------------------------------|---------------------4---2-------|
 E|-----2-----------2------------|---------------------------------|-----2-----------2-----------4---|
 B|-5-------5---4-------5---5----|-2---0---2---2---2---0---2---4---|-5-------5---4-------------------|


 B|---------------------------------|------------------------------|---------------------------------|
F#|---------------------------------|------------------------------|---------------------------------|
 D|---------------------------------|------------------------------|---------------------------------|
 A|---------------------------------|------------------------------|---------------------------------|
 E|---------------------------------|-----2-----------2------------|---------------------------------|
 B|-2---0---2---2---2---0---2---4---|-5-------5---4-------5---5----|-2---0---2---2---2---0---2---4---|


 B|---------------------------------|---------------------------------|------------------------------|
F#|---------------------------------|---------------------------------|------------------------------|
 D|---------------------------------|---------------------------------|------------------------------|
 A|---------------------4---2-------|---------------------------------|------------------------------|
 E|-----2-----------2-----------4---|---------------------------------|-----2-----------2------------|
 B|-5-------5---4-------------------|-2---0---2---2---2---0---2---4---|-5-------5---4-------5---5----|





Track 2: Frenning - Lead Guitar

 B|-----------------------|--------|-----------------------|--------------------|-----------------------|
F#|-----------------------|--------|-----------------------|--------------------|-----------------------|
 D|-----------------------|--------|-----------------------|--------------------|-----------------------|
 A|-----------------------|--------|-----------------------|--------------------|-----------------------|
 E|-----------------------|--------|-----------------------|--------------------|-----------------------|
 B|-2---0---2---2---2-----|-2------|-2---0---2---2---2-----|-2-----2---5---5----|-2---0---2---2---2-----|


 B|--------|-----------------------|--------|--------|--------|--------|--------|--------|
F#|--------|-----------------------|--------|--------|--------|--------|--------|--------|
 D|--------|-----------------------|--------|--------|--------|--------|--------|--------|
 A|--------|-----------------------|--------|--------|--------|--------|--------|--------|
 E|--------|-----------------------|--------|--------|--------|--------|--------|--------|
 B|-2------|-2---0---2---2---2-----|--------|--------|--------|--------|--------|--------|


 B|--------|--------|--------|---------------------------------|---------------------------------|
F#|--------|--------|--------|---------------------------------|---------5---7-------------------|
 D|--------|--------|--------|-----11------9-------------------|-------------------------6---9---|
 A|--------|--------|--------|---------------------11----------|-----7---------------------------|
 E|--------|--------|--------|-9-------9-------9-------9---9---|-4---------------4---4-----------|
 B|--------|--------|--------|---------------------------------|---------------------------------|


 B|---------------------------------|---------------------------------------|---------------------------------|
F#|---------------------------------|---------------------------------------|---------------------------------|
 D|-----11------9-------------------|---------------------------------------|-----11------9-------------------|
 A|---------------------11----------|-9--11-9---9---------------------------|---------------------11----------|
 E|-9-------9-------9-------9---11--|---------------12-14-12--12--11-12-11--|-9-------9-------9-------9---9---|
 B|---------------------------------|---------------------------------------|---------------------------------|


 B|---------------------------------|---------------------------------|--------|--------|
F#|---------5---7-------------------|---------------------------------|--------|--------|
 D|-------------------------6---9---|-----11------9-------------------|--------|--------|
 A|-----7---------------------------|---------------------11----------|--------|--------|
 E|-4---------------4---4-----------|-9-------9-------9-------9---11--|--------|--------|
 B|---------------------------------|---------------------------------|--------|--------|


 B|--------|--------|--------|--------|--------|--------|--------|---------------------------------|
F#|--------|--------|--------|--------|--------|--------|--------|-------------8---8---8-----------|
 D|--------|--------|--------|--------|--------|--------|--------|---------9---------------9-------|
 A|--------|--------|--------|--------|--------|--------|--------|-----------------------------9---|
 E|--------|--------|--------|--------|--------|--------|--------|-10--7---------------------------|
 B|--------|--------|--------|--------|--------|--------|--------|---------------------------------|


 B|---------------------------------|-------------7---0---7-----------|---------10----------------------|
F#|-------------8---8---8-----------|---------8---------------8-------|---------------------------------|
 D|---------9---------------9-------|-----9-----------------------9---|-----11------12--12------11--11--|
 A|-----------------------------9---|-10------------------------------|-12------------------12----------|
 E|-10--7---------------------------|---------------------------------|---------------------------------|
 B|---------------------------------|---------------------------------|---------------------------------|


 B|---------------------------------|---------------------------------|-------------8---8---8-----------|
F#|-------------8---8---8-----------|-------------8---8---8-----------|---------10--------------10------|
 D|---------9---------------9-------|---------9---------------9-------|-----9-----------------------9---|
 A|-----------------------------9---|-----------------------------9---|-7-------------------------------|
 E|-10--7---------------------------|-10--7---------------------------|---------------------------------|
 B|---------------------------------|---------------------------------|---------------------------------|


 B|-------------11--11--11----------|---------------------------------|---------------------------------|
F#|---------12--------------12------|---------------------------------|---------5---7-------------------|
 D|-----11----------------------11--|-----11------9-------------------|-------------------------6---9---|
 A|-9-------------------------------|---------------------11----------|-----7---------------------------|
 E|---------------------------------|-9-------9-------9-------9---9---|-4---------------4---4-----------|
 B|---------------------------------|---------------------------------|---------------------------------|


 B|---------------------------------|---------------------------------------|---------------------------------|
F#|---------------------------------|---------------------------------------|---------------------------------|
 D|-----11------9-------------------|---------------------------------------|-----11------9-------------------|
 A|---------------------11----------|-9--11-9---9---------------------------|---------------------11----------|
 E|-9-------9-------9-------9---11--|---------------12-14-12--12--11-12-11--|-9-------9-------9-------9---9---|
 B|---------------------------------|---------------------------------------|---------------------------------|


 B|---------------------------------|---------------------------------|--------|--------|
F#|---------5---7-------------------|---------------------------------|--------|--------|
 D|-------------------------6---9---|-----11------9-------------------|--------|--------|
 A|-----7---------------------------|---------------------11----------|--------|--------|
 E|-4---------------4---4-----------|-9-------9-------9-------9---11--|--------|--------|
 B|---------------------------------|---------------------------------|--------|--------|


 B|--------|--------|--------|--------|--------|--------|--------|---------------------------------|
F#|--------|--------|--------|--------|--------|--------|--------|-------------8---8---8-----------|
 D|--------|--------|--------|--------|--------|--------|--------|---------9---------------9-------|
 A|--------|--------|--------|--------|--------|--------|--------|-----------------------------9---|
 E|--------|--------|--------|--------|--------|--------|--------|-10--7---------------------------|
 B|--------|--------|--------|--------|--------|--------|--------|---------------------------------|


 B|---------------------------------|-------------7---0---7-----------|---------10----------------------|
F#|-------------8---8---8-----------|---------8---------------8-------|---------------------------------|
 D|---------9---------------9-------|-----9-----------------------9---|-----11------12--12------11--11--|
 A|-----------------------------9---|-10------------------------------|-12------------------12----------|
 E|-10--7---------------------------|---------------------------------|---------------------------------|
 B|---------------------------------|---------------------------------|---------------------------------|


 B|---------------------------------|---------------------------------|-------------8---8---8-----------|
F#|-------------8---8---8-----------|-------------8---8---8-----------|---------10--------------10------|
 D|---------9---------------9-------|---------9---------------9-------|-----9-----------------------9---|
 A|-----------------------------9---|-----------------------------9---|-7-------------------------------|
 E|-10--7---------------------------|-10--7---------------------------|---------------------------------|
 B|---------------------------------|---------------------------------|---------------------------------|


 B|-------------11--11--11----------|--------|--------|--------|--------|--------|
F#|---------12--------------12------|--------|--------|--------|--------|--------|
 D|-----11----------------------11--|--------|--------|--------|--------|--------|
 A|-9-------------------------------|--------|--------|--------|--------|--------|
 E|---------------------------------|--------|--------|--------|--------|--------|
 B|---------------------------------|--------|--------|--------|--------|--------|


 B|--------|--------|--------|--------|--------|--------|--------|--------|--------|
F#|--------|--------|--------|--------|--------|--------|--------|--------|--------|
 D|--------|--------|--------|--------|--------|--------|--------|--------|--------|
 A|--------|--------|--------|--------|--------|--------|--------|--------|--------|
 E|--------|--------|--------|--------|--------|--------|--------|--------|--------|
 B|--------|--------|--------|--------|--------|--------|--------|--------|--------|


 B|--------|--------|---------------------------------|---------------------------------|
F#|--------|--------|---------------------------------|---------5---7-------------------|
 D|--------|--------|-----11------9-------------------|-------------------------6---9---|
 A|--------|--------|---------------------11----------|-----7---------------------------|
 E|--------|--------|-9-------9-------9-------9---9---|-4---------------4---4-----------|
 B|--------|--------|---------------------------------|---------------------------------|


 B|---------------------------------|---------------------------------------|---------------------------------|
F#|---------------------------------|---------------------------------------|---------------------------------|
 D|-----11------9-------------------|---------------------------------------|-----11------9-------------------|
 A|---------------------11----------|-9--11-9---9---------------------------|---------------------11----------|
 E|-9-------9-------9-------9---11--|---------------12-14-12--12--11-12-11--|-9-------9-------9-------9---9---|
 B|---------------------------------|---------------------------------------|---------------------------------|


 B|---------------------------------|---------------------------------|--------|--------|
F#|---------5---7-------------------|---------------------------------|--------|--------|
 D|-------------------------6---9---|-----11------9-------------------|--------|--------|
 A|-----7---------------------------|---------------------11----------|--------|--------|
 E|-4---------------4---4-----------|-9-------9-------9-------9---11--|--------|--------|
 B|---------------------------------|---------------------------------|--------|--------|


 B|--------|--------|--------|--------|--------|--------|--------|---------------------------------|
F#|--------|--------|--------|--------|--------|--------|--------|-------------8---8---8-----------|
 D|--------|--------|--------|--------|--------|--------|--------|---------9---------------9-------|
 A|--------|--------|--------|--------|--------|--------|--------|-----------------------------9---|
 E|--------|--------|--------|--------|--------|--------|--------|-10--7---------------------------|
 B|--------|--------|--------|--------|--------|--------|--------|---------------------------------|


 B|---------------------------------|-------------7---0---7-----------|---------10----------------------|
F#|-------------8---8---8-----------|---------8---------------8-------|---------------------------------|
 D|---------9---------------9-------|-----9-----------------------9---|-----11------12--12------11--11--|
 A|-----------------------------9---|-10------------------------------|-12------------------12----------|
 E|-10--7---------------------------|---------------------------------|---------------------------------|
 B|---------------------------------|---------------------------------|---------------------------------|


 B|---------------------------------|---------------------------------|-------------8---8---8-----------|
F#|-------------8---8---8-----------|-------------8---8---8-----------|---------10--------------10------|
 D|---------9---------------9-------|---------9---------------9-------|-----9-----------------------9---|
 A|-----------------------------9---|-----------------------------9---|-7-------------------------------|
 E|-10--7---------------------------|-10--7---------------------------|---------------------------------|
 B|---------------------------------|---------------------------------|---------------------------------|


 B|-------------11--11--11----------|--------|--------|--------|--------|--------|
F#|---------12--------------12------|--------|--------|--------|--------|--------|
 D|-----11----------------------11--|--------|--------|--------|--------|--------|
 A|-9-------------------------------|--------|--------|--------|--------|--------|
 E|---------------------------------|--------|--------|--------|--------|--------|
 B|---------------------------------|--------|--------|--------|--------|--------|


 B|--------|--------|--------|--------|--------|--------|--------|--------|--------|
F#|--------|--------|--------|--------|--------|--------|--------|--------|--------|
 D|--------|--------|--------|--------|--------|--------|--------|--------|--------|
 A|--------|--------|--------|--------|--------|--------|--------|--------|--------|
 E|--------|--------|--------|--------|--------|--------|--------|--------|--------|
 B|--------|--------|--------|--------|--------|--------|--------|--------|--------|


 B|--------|--------|--------|--------|--------|-----------------------|--------|--------|
F#|--------|--------|--------|--------|--------|-----------------------|--------|--------|
 D|--------|--------|--------|--------|--------|-----------------------|--------|--------|
 A|--------|--------|-4------|-4------|-6------|-6---7----7--7---7-----|--------|--------|
 E|--------|--------|-4------|-4------|-7------|-7---7----7--7---7-----|--------|--------|
 B|--------|--------|-2------|-2------|-4------|-4---5----5--5---5-----|--------|--------|


 B|--------|--------|--------|--------|--------|--------|---------------------------------|
F#|--------|--------|--------|--------|--------|--------|---------------------------------|
 D|--------|--------|--------|--------|--------|--------|---------------------------------|
 A|--------|--------|--------|--------|--------|--------|---------------------------------|
 E|--------|--------|--------|--------|--------|--------|-----------------------------2---|
 B|--------|--------|--------|--------|--------|--------|-5---3---5---5---5---3---5-------|


 B|---------------------------------|---------------------------------|-----------------------|
F#|---------------------------------|---------------------------------|-----------------------|
 D|---------------------------------|---------------------------------|-----------------------|
 A|---------------------7---5-------|---------------------------------|-----------------------|
 E|-3---5---3---2---5-----------7---|-----------------------------2---|-3---5---3---2---3-----|
 B|---------------------------------|-5---3---5---5---5---3---5-------|-----------------------|


 B|---------------------------------|---------------------------------|---------------------------------|
F#|---------------------------------|---------------------------------|---------------------------------|
 D|---------------------------------|---------------------------------|---------------------------------|
 A|---------------------------------|---------------------7---5-------|---------------------------------|
 E|-----------------------------2---|-3---5---3---2---5-----------7---|-----------------------------2---|
 B|-5---3---5---5---5---3---5-------|---------------------------------|-5---3---5---5---5---3---5-------|


 B|-----------------------|-17--13--------------------------|---------------------------------|
F#|-----------------------|---------15----------------------|-------------15--------------15--|
 D|-----------------------|-------------14------------------|---------14------14------14------|
 A|-----------------------|-----------------15--------------|-----15--------------15----------|
 E|-3---5---3---2---3-----|---------------------17--17--15--|-17------------------------------|
 B|-----------------------|---------------------------------|---------------------------------|


 B|-16------------------------------|---------------------------------|-15--13--10--13--15--13--15--13--10--13--15--13--|
F#|-----18--------------------------|-------------18--------------18--|-------------------------------------------------|
 D|---------19----------------------|---------------------------------|-------------------------------------------------|
 A|-------------21--18--------------|---------18------18------18------|-------------------------------------------------|
 E|---------------------20--17------|-17--20--------------20----------|-------------------------------------------------|
 B|-----------------------------19--|---------------------------------|-------------------------------------------------|


 B|-15--13--9---13--15--13--15--13--9---13--15--13--|-15--15--15--15--15--15--15--13--|
F#|-------------------------------------------------|---------------------------------|
 D|-------------------------------------------------|---------------------------------|
 A|-------------------------------------------------|---------------------------------|
 E|-------------------------------------------------|---------------------------------|
 B|-------------------------------------------------|---------------------------------|


 B|-15--15-15-15--13--15-13-------------|-----8-------7---------------7---|-7-------------------------------|
F#|-------------------------15--15--15--|-8-------8-------8---10--8-------|-----10--8---7---8---8---8---7---|
 D|-------------------------------------|---------------------------------|---------------------------------|
 A|-------------------------------------|---------------------------------|---------------------------------|
 E|-------------------------------------|---------------------------------|---------------------------------|
 B|-------------------------------------|---------------------------------|---------------------------------|


 B|-----8-------7---------------7---|-7---------------12--10--8-------|-----8-------7---------------7---|
F#|-8-------8-------8---10--8-------|-----10--8---7---------------12--|-8-------8-------8---10--8-------|
 D|---------------------------------|---------------------------------|---------------------------------|
 A|---------------------------------|---------------------------------|---------------------------------|
 E|---------------------------------|---------------------------------|---------------------------------|
 B|---------------------------------|---------------------------------|---------------------------------|


 B|-7-------------------------------|-12--10------------------------------------------|
F#|-----10--8---7---8---8---8---7---|---------13--12--10------12--10------------------|
 D|---------------------------------|---------------------12----------12--11--9---8---|
 A|---------------------------------|-------------------------------------------------|
 E|---------------------------------|-------------------------------------------------|
 B|---------------------------------|-------------------------------------------------|


 B|-------------|---------------------------------|---------------------------------|
F#|-------------|---------------------------------|---------5---7-------------------|
 D|-12----11----|-----11------9-------------------|-------------------------6---9---|
 A|-------------|---------------------11----------|-----7---------------------------|
 E|-------------|-9-------9-------9-------9---9---|-4---------------4---4-----------|
 B|-------------|---------------------------------|---------------------------------|


 B|---------------------------------|---------------------------------------|---------------------------------|
F#|---------------------------------|---------------------------------------|---------------------------------|
 D|-----11------9-------------------|---------------------------------------|-----11------9-------------------|
 A|---------------------11----------|-9--11-9---9---------------------------|---------------------11----------|
 E|-9-------9-------9-------9---11--|---------------12-14-12--12--11-12-11--|-9-------9-------9-------9---9---|
 B|---------------------------------|---------------------------------------|---------------------------------|


 B|---------------------------------|---------------------------------|---------------------------------------|
F#|---------5---7-------------------|---------------------------------|---------------------------------------|
 D|-------------------------6---9---|-----11------9-------------------|---------------------------------------|
 A|-----7---------------------------|---------------------11----------|-9--11-9---9---7--9--7---7---11-12-11--|
 E|-4---------------4---4-----------|-9-------9-------9-------9---11--|---------------------------------------|
 B|---------------------------------|---------------------------------|---------------------------------------|


 B|---------------------------------|---------------------------------|---------------------------------|
F#|---------------------------------|---------5---7-------------------|---------------------------------|
 D|-----11------9-------------------|-------------------------6---9---|-----11------9-------------------|
 A|---------------------11----------|-----7---------------------------|---------------------11----------|
 E|-9-------9-------9-------9---9---|-4---------------4---4-----------|-9-------9-------9-------9---11--|
 B|---------------------------------|---------------------------------|---------------------------------|


 B|---------------------------------------|---------------------------------|---------------------------------|
F#|---------------------------------------|---------------------------------|---------5---7-------------------|
 D|---------------------------------------|-----11------9-------------------|-------------------------6---9---|
 A|-9--11-9---9---------------------------|---------------------11----------|-----7---------------------------|
 E|---------------12-14-12--12--11-12-11--|-9-------9-------9-------9---9---|-4---------------4---4-----------|
 B|---------------------------------------|---------------------------------|---------------------------------|


 B|---------------------------------|-------------|--------------------------------------|
F#|---------------------------------|-------------|--------------------------------------|
 D|-----11------9-------------------|-6-----------|--------------------------------------|
 A|---------------------11----------|-6-----7-----|--------------------------------------|
 E|-9-------9-------9-------9---11--|-4-----7-----|-5---5---5---5---5---5---5------------|
 B|---------------------------------|-------5-----|--------------------------------------|


 B|--------|--------------------------------------|--------|--------------------------------------|
F#|--------|--------------------------------------|--------|--------------------------------------|
 D|--------|--------------------------------------|--------|-7---7---7---7---7---7---7------------|
 A|--------|--------------------------------------|--------|--------------------------------------|
 E|--------|--------------------------------------|--------|-5---5---5---5---5---5---5------------|
 B|--------|-2---2---2---2---2---2---2------------|--------|--------------------------------------|


 B|--------|--------------------------------------|----------------------------------------|
F#|--------|--------------------------------------|----------------------------------------|
 D|--------|--------------------------------------|----------------------------------------|
 A|--------|--------------------------------------|----------------------------------------|
 E|--------|--------------------------------------|----------------------------------------|
 B|--------|-2---2---2---2---2---2---2------------|-5---5---5---5---5---5---5----4----5----|


 B|--------|--------|--------|--------|--------|--------|--------|--------|--------|
F#|--------|--------|--------|--------|--------|--------|--------|--------|--------|
 D|--------|--------|--------|--------|--------|--------|--------|--------|--------|
 A|--------|--------|--------|--------|--------|--------|--------|--------|--------|
 E|--------|--------|--------|--------|--------|--------|--------|--------|--------|
 B|--------|--------|--------|--------|--------|--------|--------|--------|--------|


 B|--------|--------|--------|--------|--------|--------|--------|--------|--------|
F#|--------|--------|--------|--------|--------|--------|--------|--------|--------|
 D|--------|--------|--------|--------|--------|--------|--------|--------|--------|
 A|--------|--------|--------|--------|--------|--------|--------|--------|--------|
 E|--------|--------|--------|--------|--------|--------|--------|--------|--------|
 B|--------|--------|--------|--------|--------|--------|--------|--------|--------|


 B|--------|--------|--------|--------|--------|--------|--------|--------|--------|
F#|--------|--------|--------|--------|--------|--------|--------|--------|--------|
 D|--------|--------|--------|--------|--------|--------|--------|--------|--------|
 A|--------|--------|--------|--------|--------|--------|--------|--------|--------|
 E|--------|--------|--------|--------|--------|--------|--------|--------|--------|
 B|--------|--------|--------|--------|--------|--------|--------|--------|--------|


 B|--------|--------|--------|--------|--------|
F#|--------|--------|--------|--------|--------|
 D|--------|--------|--------|--------|--------|
 A|--------|--------|--------|--------|--------|
 E|--------|--------|--------|--------|--------|
 B|--------|--------|--------|--------|--------|





Track 3: Wichers & Frenning - Rhythm Guitars

 B|--------|--------|--------|--------|--------|--------|--------|--------|--------|
F#|--------|--------|--------|--------|--------|--------|--------|--------|--------|
 D|--------|--------|--------|--------|--------|--------|--------|--------|--------|
 A|--------|--------|--------|--------|--------|--------|--------|--------|--------|
 E|--------|--------|--------|--------|--------|--------|--------|--------|--------|
 B|--------|--------|--------|--------|--------|--------|--------|--------|--------|


 B|--------|--------|--------|--------|--------|--------|--------|---------------------------|
F#|--------|--------|--------|--------|--------|--------|--------|---------------------------|
 D|--------|--------|--------|--------|--------|--------|--------|---------------------------|
 A|--------|--------|--------|--------|--------|--------|--------|---------------------------|
 E|--------|--------|--------|--------|--------|--------|--------|-4---4---4---4---4---------|
 B|--------|--------|--------|--------|--------|--------|--------|-2---2---2---2---2---------|


 B|-----------------------|------------------------|---------------------------------|
F#|-----------------------|------------------------|---------------------------------|
 D|-----------------------|------------------------|---------------------4---4---4---|
 A|-------6---6---6---6---|------------------------|-----6---6---6-------------------|
 E|-------4---4---4---4---|------4---4---4---------|---------------------2---2---2---|
 B|-----------------------|------2---2---2---------|-----4---4---4-------------------|


 B|---------------------------|-----------------------|------------------------|-------------|
F#|---------------------------|-----------------------|------------------------|-------------|
 D|---------------------------|-----------------------|------------------------|-6-----------|
 A|---------------------------|-------6---6---6---6---|------------------------|-6-----7-----|
 E|-4---4---4---4---4---------|-------4---4---4---4---|------4---4---4---------|-4-----7-----|
 B|-2---2---2---2---2---------|-----------------------|------2---2---2---------|-------5-----|


 B|---------------------------|------------------------------------|--------|-------------|
F#|---------------------------|------------------------------------|--------|-------------|
 D|---------------------------|--------------------------------5---|-5------|-7-----4-----|
 A|-------------2-------------|-----------------------2--------5---|-5------|-7-----4-----|
 E|-------------2-------------|-----------------------2--------3---|-3------|-5-----2-----|
 B|-0--0--0--0--0-------------|-----0--0--0--0--0--0--0------------|--------|-------------|


 B|---------------------------|------------------------------------|--------|--------|
F#|---------------------------|------------------------------------|--------|--------|
 D|---------------------------|--------------------------------2---|-2------|-4------|
 A|-------------2-------------|-----------------------2--------2---|-2------|-4------|
 E|-------------2-------------|-----------------------2--------0---|-0------|-2------|
 B|-0--0--0--0--0-------------|-----0--0--0--0--0--0--0------------|--------|--------|


 B|---------------------------|--------------------------------------|--------|-------------|
F#|---------------------------|--------------------------------------|--------|-------------|
 D|---------------------------|----------------------------------5---|-5------|-7-----4-----|
 A|---------------------------|----------------------------------5---|-5------|-7-----4-----|
 E|---------------------------|----------------------------------3---|-3------|-5-----2-----|
 B|-0--0--0--0--0-------------|-----0--0--0--0--0--0--0--------------|--------|-------------|


 B|---------------------------|--------------------------------------|--------|--------|
F#|---------------------------|--------------------------------------|--------|--------|
 D|---------------------------|----------------------------------2---|-2------|-4------|
 A|---------------------------|----------------------------------2---|-2------|-4------|
 E|---------------------------|----------------------------------0---|-0------|-2------|
 B|-0--0--0--0--0-------------|-----0--0--0--0--0--0--0--------------|--------|--------|


 B|---------------------------|-----------------------|------------------------|---------------------------------|
F#|---------------------------|-----------------------|------------------------|---------------------------------|
 D|---------------------------|-----------------------|------------------------|---------------------4---4---4---|
 A|---------------------------|-------6---6---6---6---|------------------------|-----6---6---6-------------------|
 E|-4---4---4---4---4---------|-------4---4---4---4---|------4---4---4---------|---------------------2---2---2---|
 B|-2---2---2---2---2---------|-----------------------|------2---2---2---------|-----4---4---4-------------------|


 B|---------------------------|-----------------------|------------------------|-------------|
F#|---------------------------|-----------------------|------------------------|-------------|
 D|---------------------------|-----------------------|------------------------|-6-----------|
 A|---------------------------|-------6---6---6---6---|------------------------|-6-----7-----|
 E|-4---4---4---4---4---------|-------4---4---4---4---|------4---4---4---------|-4-----7-----|
 B|-2---2---2---2---2---------|-----------------------|------2---2---2---------|-------5-----|


 B|---------------------------|------------------------------------|--------|-------------|
F#|---------------------------|------------------------------------|--------|-------------|
 D|---------------------------|--------------------------------5---|-5------|-7-----4-----|
 A|-------------2-------------|-----------------------2--------5---|-5------|-7-----4-----|
 E|-------------2-------------|-----------------------2--------3---|-3------|-5-----2-----|
 B|-0--0--0--0--0-------------|-----0--0--0--0--0--0--0------------|--------|-------------|


 B|---------------------------|------------------------------------|--------|--------|
F#|---------------------------|------------------------------------|--------|--------|
 D|---------------------------|--------------------------------2---|-2------|-4------|
 A|-------------2-------------|-----------------------2--------2---|-2------|-4------|
 E|-------------2-------------|-----------------------2--------0---|-0------|-2------|
 B|-0--0--0--0--0-------------|-----0--0--0--0--0--0--0------------|--------|--------|


 B|---------------------------|--------------------------------------|--------|-------------|
F#|---------------------------|--------------------------------------|--------|-------------|
 D|---------------------------|----------------------------------5---|-5------|-7-----4-----|
 A|---------------------------|----------------------------------5---|-5------|-7-----4-----|
 E|---------------------------|----------------------------------3---|-3------|-5-----2-----|
 B|-0--0--0--0--0-------------|-----0--0--0--0--0--0--0--------------|--------|-------------|


 B|---------------------------|--------------------------------------|--------|--------|
F#|---------------------------|--------------------------------------|--------|--------|
 D|---------------------------|----------------------------------2---|-2------|-4------|
 A|---------------------------|----------------------------------2---|-2------|-4------|
 E|---------------------------|----------------------------------0---|-0------|-2------|
 B|-0--0--0--0--0-------------|-----0--0--0--0--0--0--0--------------|--------|--------|


 B|-------------------------------------------------|-------------------------------------------------|
F#|-------------------------------------------------|-------------------------------------------------|
 D|-7---7---7---7---7---7---7---7---7---7---7---7---|-7---7---7---7---7---7---7---7---7---7---7---7---|
 A|-7---7---7---7---7---7---7---7---7---7---7---7---|-7---7---7---7---7---7---7---7---7---7---7---7---|
 E|-5---5---5---5---5---5---5---5---5---5---5---5---|-5---5---5---5---5---5---5---5---5---5---5---5---|
 B|-------------------------------------------------|-------------------------------------------------|


 B|-------------------------------------------------|-------------------------------------------------|
F#|-------------------------------------------------|-------------------------------------------------|
 D|-------------------------------------------------|-------------------------2---2---2---6---6---6---|
 A|-4---4---4---4---4---4---4---4---4---4---4---4---|-4---4---4---4---4---4---2---2---2---6---6---6---|
 E|-4---4---4---4---4---4---4---4---4---4---4---4---|-4---4---4---4---4---4---0---0---0---4---4---4---|
 B|-2---2---2---2---2---2---2---2---2---2---2---2---|-2---2---2---2---2---2---------------------------|


 B|-------------------------------------------------|-------------------------------------------------|
F#|-------------------------------------------------|-------------------------------------------------|
 D|-7---7---7---7---7---7---7---7---7---7---7---7---|-7---7---7---7---7---7---7---7---7---7---7---7---|
 A|-7---7---7---7---7---7---7---7---7---7---7---7---|-7---7---7---7---7---7---7---7---7---7---7---7---|
 E|-5---5---5---5---5---5---5---5---5---5---5---5---|-5---5---5---5---5---5---5---5---5---5---5---5---|
 B|-------------------------------------------------|-------------------------------------------------|


 B|-------------------------------------------------|-------------------------------------------------|
F#|-------------------------------------------------|-------------------------------------------------|
 D|-------------------------7---7---7---7---7---7---|-------------------------9---9---9---9---9---9---|
 A|-4---4---4---4---4---4---7---7---7---7---7---7---|-4---4---4---4---4---4---9---9---9---9---9---9---|
 E|-4---4---4---4---4---4---5---5---5---5---5---5---|-4---4---4---4---4---4---7---7---7---7---7---7---|
 B|-2---2---2---2---2---2---------------------------|-2---2---2---2---2---2---------------------------|


 B|-------------------------------------------------|-------------------------------------------------|
F#|-------------------------------------------------|-------------------------------------------------|
 D|-7---7---7---7---7---7---7---7---7---7---7---7---|-7---7---7---7---7---7---7---7---7---7---7---7---|
 A|-7---7---7---7---7---7---7---7---7---7---7---7---|-7---7---7---7---7---7---7---7---7---7---7---7---|
 E|-5---5---5---5---5---5---5---5---5---5---5---5---|-5---5---5---5---5---5---5---5---5---5---5---5---|
 B|-------------------------------------------------|-------------------------------------------------|


 B|-------------------------------------------------|-------------------------------------------------|
F#|-------------------------------------------------|-------------------------------------------------|
 D|-------------------------------------------------|-------------------------2---2---2---6---6---6---|
 A|-4---4---4---4---4---4---4---4---4---4---4---4---|-4---4---4---4---4---4---2---2---2---6---6---6---|
 E|-4---4---4---4---4---4---4---4---4---4---4---4---|-4---4---4---4---4---4---0---0---0---4---4---4---|
 B|-2---2---2---2---2---2---2---2---2---2---2---2---|-2---2---2---2---2---2---------------------------|


 B|-------------------------------------------------|-------------------------------------------------|
F#|-------------------------------------------------|-------------------------------------------------|
 D|-7---7---7---7---7---7---7---7---7---7---7---7---|-7---7---7---7---7---7---7---7---7---7---7---7---|
 A|-7---7---7---7---7---7---7---7---7---7---7---7---|-7---7---7---7---7---7---7---7---7---7---7---7---|
 E|-5---5---5---5---5---5---5---5---5---5---5---5---|-5---5---5---5---5---5---5---5---5---5---5---5---|
 B|-------------------------------------------------|-------------------------------------------------|


 B|-------------------------------------------------|-------------------------------------------------|
F#|-------------------------------------------------|-------------------------------------------------|
 D|-------------------------------------------------|-------------------------------------------------|
 A|-4---4---4---4---4---4---4---4---4---4---4---4---|-7---7---7---7---7---7---7---7---7---7---7---7---|
 E|-4---4---4---4---4---4---4---4---4---4---4---4---|-7---7---7---7---7---7---7---7---7---7---7---7---|
 B|-2---2---2---2---2---2---2---2---2---2---2---2---|-5---5---5---5---5---5---5---5---5---5---5---5---|


 B|---------------------------|-----------------------|------------------------|---------------------------------|
F#|---------------------------|-----------------------|------------------------|---------------------------------|
 D|---------------------------|-----------------------|------------------------|---------------------4---4---4---|
 A|---------------------------|-------6---6---6---6---|------------------------|-----6---6---6-------------------|
 E|-4---4---4---4---4---------|-------4---4---4---4---|------4---4---4---------|---------------------2---2---2---|
 B|-2---2---2---2---2---------|-----------------------|------2---2---2---------|-----4---4---4-------------------|


 B|---------------------------|-----------------------|------------------------|-------------|
F#|---------------------------|-----------------------|------------------------|-------------|
 D|---------------------------|-----------------------|------------------------|-6-----------|
 A|---------------------------|-------6---6---6---6---|------------------------|-6-----7-----|
 E|-4---4---4---4---4---------|-------4---4---4---4---|------4---4---4---------|-4-----7-----|
 B|-2---2---2---2---2---------|-----------------------|------2---2---2---------|-------5-----|


 B|---------------------------|------------------------------------|--------|-------------|
F#|---------------------------|------------------------------------|--------|-------------|
 D|---------------------------|--------------------------------5---|-5------|-7-----4-----|
 A|-------------2-------------|-----------------------2--------5---|-5------|-7-----4-----|
 E|-------------2-------------|-----------------------2--------3---|-3------|-5-----2-----|
 B|-0--0--0--0--0-------------|-----0--0--0--0--0--0--0------------|--------|-------------|


 B|---------------------------|------------------------------------|--------|--------|
F#|---------------------------|------------------------------------|--------|--------|
 D|---------------------------|--------------------------------2---|-2------|-4------|
 A|-------------2-------------|-----------------------2--------2---|-2------|-4------|
 E|-------------2-------------|-----------------------2--------0---|-0------|-2------|
 B|-0--0--0--0--0-------------|-----0--0--0--0--0--0--0------------|--------|--------|


 B|---------------------------|--------------------------------------|--------|-------------|
F#|---------------------------|--------------------------------------|--------|-------------|
 D|---------------------------|----------------------------------5---|-5------|-7-----4-----|
 A|---------------------------|----------------------------------5---|-5------|-7-----4-----|
 E|---------------------------|----------------------------------3---|-3------|-5-----2-----|
 B|-0--0--0--0--0-------------|-----0--0--0--0--0--0--0--------------|--------|-------------|


 B|---------------------------|--------------------------------------|--------|--------|
F#|---------------------------|--------------------------------------|--------|--------|
 D|---------------------------|----------------------------------2---|-2------|-4------|
 A|---------------------------|----------------------------------2---|-2------|-4------|
 E|---------------------------|----------------------------------0---|-0------|-2------|
 B|-0--0--0--0--0-------------|-----0--0--0--0--0--0--0--------------|--------|--------|


 B|-------------------------------------------------|-------------------------------------------------|
F#|-------------------------------------------------|-------------------------------------------------|
 D|-7---7---7---7---7---7---7---7---7---7---7---7---|-7---7---7---7---7---7---7---7---7---7---7---7---|
 A|-7---7---7---7---7---7---7---7---7---7---7---7---|-7---7---7---7---7---7---7---7---7---7---7---7---|
 E|-5---5---5---5---5---5---5---5---5---5---5---5---|-5---5---5---5---5---5---5---5---5---5---5---5---|
 B|-------------------------------------------------|-------------------------------------------------|


 B|-------------------------------------------------|-------------------------------------------------|
F#|-------------------------------------------------|-------------------------------------------------|
 D|-------------------------------------------------|-------------------------2---2---2---6---6---6---|
 A|-4---4---4---4---4---4---4---4---4---4---4---4---|-4---4---4---4---4---4---2---2---2---6---6---6---|
 E|-4---4---4---4---4---4---4---4---4---4---4---4---|-4---4---4---4---4---4---0---0---0---4---4---4---|
 B|-2---2---2---2---2---2---2---2---2---2---2---2---|-2---2---2---2---2---2---------------------------|


 B|-------------------------------------------------|-------------------------------------------------|
F#|-------------------------------------------------|-------------------------------------------------|
 D|-7---7---7---7---7---7---7---7---7---7---7---7---|-7---7---7---7---7---7---7---7---7---7---7---7---|
 A|-7---7---7---7---7---7---7---7---7---7---7---7---|-7---7---7---7---7---7---7---7---7---7---7---7---|
 E|-5---5---5---5---5---5---5---5---5---5---5---5---|-5---5---5---5---5---5---5---5---5---5---5---5---|
 B|-------------------------------------------------|-------------------------------------------------|


 B|-------------------------------------------------|-------------------------------------------------|
F#|-------------------------------------------------|-------------------------------------------------|
 D|-------------------------7---7---7---7---7---7---|-------------------------9---9---9---9---9---9---|
 A|-4---4---4---4---4---4---7---7---7---7---7---7---|-4---4---4---4---4---4---9---9---9---9---9---9---|
 E|-4---4---4---4---4---4---5---5---5---5---5---5---|-4---4---4---4---4---4---7---7---7---7---7---7---|
 B|-2---2---2---2---2---2---------------------------|-2---2---2---2---2---2---------------------------|


 B|-------------------------------------------------|-------------------------------------------------|
F#|-------------------------------------------------|-------------------------------------------------|
 D|-7---7---7---7---7---7---7---7---7---7---7---7---|-7---7---7---7---7---7---7---7---7---7---7---7---|
 A|-7---7---7---7---7---7---7---7---7---7---7---7---|-7---7---7---7---7---7---7---7---7---7---7---7---|
 E|-5---5---5---5---5---5---5---5---5---5---5---5---|-5---5---5---5---5---5---5---5---5---5---5---5---|
 B|-------------------------------------------------|-------------------------------------------------|


 B|-------------------------------------------------|-------------------------------------------------|
F#|-------------------------------------------------|-------------------------------------------------|
 D|-------------------------------------------------|-------------------------2---2---2---6---6---6---|
 A|-4---4---4---4---4---4---4---4---4---4---4---4---|-4---4---4---4---4---4---2---2---2---6---6---6---|
 E|-4---4---4---4---4---4---4---4---4---4---4---4---|-4---4---4---4---4---4---0---0---0---4---4---4---|
 B|-2---2---2---2---2---2---2---2---2---2---2---2---|-2---2---2---2---2---2---------------------------|


 B|-------------------------------------------------|-------------------------------------------------|
F#|-------------------------------------------------|-------------------------------------------------|
 D|-7---7---7---7---7---7---7---7---7---7---7---7---|-7---7---7---7---7---7---7---7---7---7---7---7---|
 A|-7---7---7---7---7---7---7---7---7---7---7---7---|-7---7---7---7---7---7---7---7---7---7---7---7---|
 E|-5---5---5---5---5---5---5---5---5---5---5---5---|-5---5---5---5---5---5---5---5---5---5---5---5---|
 B|-------------------------------------------------|-------------------------------------------------|


 B|-------------------------------------------------|-------------------------------------------------|
F#|-------------------------------------------------|-------------------------------------------------|
 D|-------------------------------------------------|-------------------------------------------------|
 A|-4---4---4---4---4---4---4---4---4---4---4---4---|-7---7---7---7---7---7---7---7---7---7---7---7---|
 E|-4---4---4---4---4---4---4---4---4---4---4---4---|-7---7---7---7---7---7---7---7---7---7---7---7---|
 B|-2---2---2---2---2---2---2---2---2---2---2---2---|-5---5---5---5---5---5---5---5---5---5---5---5---|


 B|--------|--------|--------|--------|--------|--------|--------|--------|--------|
F#|--------|--------|--------|--------|--------|--------|--------|--------|--------|
 D|--------|--------|--------|--------|--------|--------|--------|--------|--------|
 A|--------|--------|--------|--------|--------|--------|--------|--------|--------|
 E|--------|--------|--------|--------|--------|--------|--------|--------|--------|
 B|--------|--------|--------|--------|--------|--------|--------|--------|--------|


 B|--------|--------|--------|--------|--------|--------|--------|--------|--------|
F#|--------|--------|--------|--------|--------|--------|--------|--------|--------|
 D|--------|--------|--------|--------|--------|--------|--------|--------|--------|
 A|--------|--------|--------|--------|--------|--------|--------|--------|--------|
 E|--------|--------|--------|--------|--------|--------|--------|--------|--------|
 B|--------|--------|--------|--------|--------|--------|--------|--------|--------|


 B|--------|--------|---------------------------------|---------------------------------|
F#|--------|--------|---------------------------------|---------------------------------|
 D|--------|--------|---------------------------------|---------------------------------|
 A|--------|--------|---------------------------------|-2---3---2-----------------------|
 E|--------|--------|-5---3---5---5---5---0---3---5---|-------------5-------------------|
 B|--------|--------|---------------------------------|-----------------3---0---1---3---|


 B|---------------------------------|---------------------------------|---------------------------------|
F#|---------------------------------|---------------------------------|---------------------------------|
 D|---------------------------------|---------------------------------|---------------------------------|
 A|---------------------------------|-2---3---2-----------------------|---------------------------------|
 E|-5---3---5---5---5---0---3---5---|-------------5-------------------|-5---3---5---5---5---0---3---5---|
 B|---------------------------------|-----------------3---0---1---3---|---------------------------------|


 B|---------------------------------|---------------------------------|---------------------------------|
F#|---------------------------------|---------------------------------|---------------------------------|
 D|---------------------------------|---------------------------------|---------------------------------|
 A|-2---3---2-----------------------|---------------------------------|-2---3---2-----------------------|
 E|-------------5-------------------|-5---3---5---5---5---0---3---5---|-------------5-------------------|
 B|-----------------3---0---1---3---|---------------------------------|-----------------3---0---1---3---|


 B|---------------------------------|------------------------------|---------------------------------|
F#|---------------------------------|------------------------------|---------------------------------|
 D|---------------------------------|------------------------------|---------------------------------|
 A|---------------------------------|------------------------------|---------------------------------|
 E|-----5-------7-------5-------7---|-7---5---7------------7---7---|-----5-------7-------5-------7---|
 B|-0-------0-------0-------0-------|--------------0---3---5---5---|-0-------0-------0-------0-------|


 B|------------------------------|---------------------------------|------------------------------|
F#|------------------------------|---------------------------------|------------------------------|
 D|------------------------------|---------------------------------|------------------------------|
 A|------------------5---5---5---|---------------------------------|------------------------------|
 E|-7---5---7--------------------|-----5-------7-------5-------7---|-7---5---7------------7---7---|
 B|------------------------------|-0-------0-------0-------0-------|--------------0---3---5---5---|


 B|---------------------------------|-------------|---------------------------|-----------------------|
F#|---------------------------------|-------------|---------------------------|-----------------------|
 D|---------------------------------|-------4-----|---------------------------|-----------------------|
 A|---------------------------------|-2-----4-----|---------------------------|-------6---6---6---6---|
 E|-----5-------7-----------5---7---|-2-----2-----|-4---4---4---4---4---------|-------4---4---4---4---|
 B|-0-------0-------0---0-----------|-0-----------|-2---2---2---2---2---------|-----------------------|


 B|------------------------|---------------------------------|---------------------------|
F#|------------------------|---------------------------------|---------------------------|
 D|------------------------|---------------------4---4---4---|---------------------------|
 A|------------------------|-----6---6---6-------------------|---------------------------|
 E|------4---4---4---------|---------------------2---2---2---|-4---4---4---4---4---------|
 B|------2---2---2---------|-----4---4---4-------------------|-2---2---2---2---2---------|


 B|-----------------------|------------------------|-------------|---------------------------|
F#|-----------------------|------------------------|-------------|---------------------------|
 D|-----------------------|------------------------|-------------|---------------------------|
 A|-------6---6---6---6---|------------------------|-6-----------|---------------------------|
 E|-------4---4---4---4---|------4---4---4---------|-4-----7-----|-4---4---4---4---4---------|
 B|-----------------------|------2---2---2---------|-------5-----|-2---2---2---2---2---------|


 B|-----------------------|------------------------|---------------------------------|
F#|-----------------------|------------------------|---------------------------------|
 D|-----------------------|------------------------|---------------------4---4---4---|
 A|-------6---6---6---6---|------------------------|-----6---6---6-------------------|
 E|-------4---4---4---4---|------4---4---4---------|---------------------2---2---2---|
 B|-----------------------|------2---2---2---------|-----4---4---4-------------------|


 B|---------------------------|-----------------------|------------------------|--------|
F#|---------------------------|-----------------------|------------------------|--------|
 D|---------------------------|-----------------------|------------------------|--------|
 A|---------------------------|-------6---6---6---6---|------------------------|--------|
 E|-4---4---4---4---4---------|-------4---4---4---4---|------4---4---4---------|--------|
 B|-2---2---2---2---2---------|-----------------------|------2---2---2---------|--------|


 B|--------|--------|--------|--------|--------|--------|--------|--------|--------|
F#|--------|--------|--------|--------|--------|--------|--------|--------|--------|
 D|--------|--------|--------|--------|--------|--------|--------|--------|--------|
 A|--------|--------|--------|--------|--------|--------|--------|--------|--------|
 E|--------|--------|--------|--------|--------|--------|--------|--------|--------|
 B|--------|--------|--------|--------|--------|--------|--------|--------|--------|


 B|--------|--------|--------|--------|--------|--------|--------|--------|--------|
F#|--------|--------|--------|--------|--------|--------|--------|--------|--------|
 D|--------|--------|--------|--------|--------|--------|--------|--------|--------|
 A|--------|--------|--------|--------|--------|--------|--------|--------|--------|
 E|--------|--------|--------|--------|--------|--------|--------|--------|--------|
 B|--------|--------|--------|--------|--------|--------|--------|--------|--------|


 B|--------|--------|--------|--------|--------|--------|--------|--------|--------|
F#|--------|--------|--------|--------|--------|--------|--------|--------|--------|
 D|--------|--------|--------|--------|--------|--------|--------|--------|--------|
 A|--------|--------|--------|--------|--------|--------|--------|--------|--------|
 E|--------|--------|--------|--------|--------|--------|--------|--------|--------|
 B|--------|--------|--------|--------|--------|--------|--------|--------|--------|


 B|--------|--------|--------|--------|--------|--------|--------|--------|--------|
F#|--------|--------|--------|--------|--------|--------|--------|--------|--------|
 D|--------|--------|--------|--------|--------|--------|--------|--------|--------|
 A|--------|--------|--------|--------|--------|--------|--------|--------|--------|
 E|--------|--------|--------|--------|--------|--------|--------|--------|--------|
 B|--------|--------|--------|--------|--------|--------|--------|--------|--------|


 B|--------|--------|--------|--------|
F#|--------|--------|--------|--------|
 D|--------|--------|--------|--------|
 A|--------|--------|--------|--------|
 E|--------|--------|--------|--------|
 B|--------|--------|--------|--------|





Track 4: Carlos Del Olmo Holmberg - Background Keyboards

 B|--------|--------|--------|--------|--------|--------|--------|--------|--------|
F#|--------|--------|--------|--------|--------|--------|--------|--------|--------|
 D|--------|--------|--------|--------|--------|--------|--------|--------|--------|
 A|--------|--------|--------|--------|--------|--------|--------|--------|--------|
 E|--------|--------|--------|--------|--------|--------|--------|--------|--------|
 B|--------|--------|--------|--------|--------|--------|--------|--------|--------|


 B|--------|--------|--------|--------|--------|--------|--------|--------|--------|
F#|--------|--------|--------|--------|--------|--------|--------|--------|--------|
 D|--------|--------|--------|--------|--------|--------|--------|--------|--------|
 A|--------|--------|--------|--------|--------|--------|--------|--------|--------|
 E|--------|--------|--------|--------|--------|--------|--------|--------|--------|
 B|--------|--------|--------|--------|--------|--------|--------|--------|--------|


 B|--------|--------|--------|--------|--------|-9-----------|--------|--------|-12-----|
F#|--------|--------|--------|--------|--------|-9-----10----|-12-----|-12-----|-12-----|
 D|--------|--------|--------|--------|--------|-------------|-12-----|-12-----|-12-----|
 A|--------|--------|--------|--------|--------|-------------|-14-----|-14-----|-14-----|
 E|--------|--------|--------|--------|--------|-------------|--------|--------|--------|
 B|--------|--------|--------|--------|--------|-------------|--------|--------|--------|


 B|-10----11----|--------|--------12--|-12-----|-14-----|--------|--------|--------|
F#|-10----10----|-12-----|-12-----10--|-10-----|-12-----|--------|--------|--------|
 D|-11----11----|-12-----|-12-----9---|-9------|-11-----|--------|--------|--------|
 A|-12----9-----|-14-----|-14-----7---|-7------|-9------|--------|--------|--------|
 E|-------------|--------|------------|--------|--------|--------|--------|--------|
 B|-------------|--------|------------|--------|--------|--------|--------|--------|


 B|--------|--------|--------|--------|--------|--------|--------|--------|--------|
F#|--------|--------|--------|--------|--------|--------|--------|--------|--------|
 D|--------|--------|--------|--------|--------|--------|--------|--------|--------|
 A|--------|--------|--------|--------|--------|--------|--------|--------|--------|
 E|--------|--------|--------|--------|--------|--------|--------|--------|--------|
 B|--------|--------|--------|--------|--------|--------|--------|--------|--------|


 B|--------|--------|--------|-9-----------|--------|--------|-12-----|-10----11----|
F#|--------|--------|--------|-9-----10----|-12-----|-12-----|-12-----|-10----10----|
 D|--------|--------|--------|-------------|-12-----|-12-----|-12-----|-11----11----|
 A|--------|--------|--------|-------------|-14-----|-14-----|-14-----|-12----9-----|
 E|--------|--------|--------|-------------|--------|--------|--------|-------------|
 B|--------|--------|--------|-------------|--------|--------|--------|-------------|


 B|--------|--------12--|-12-----|-14-----|--------|--------|--------|--------|--------|
F#|-12-----|-12-----10--|-10-----|-12-----|--------|--------|--------|--------|--------|
 D|-12-----|-12-----9---|-9------|-11-----|--------|--------|--------|--------|--------|
 A|-14-----|-14-----7---|-7------|-9------|--------|--------|--------|--------|--------|
 E|--------|------------|--------|--------|--------|--------|--------|--------|--------|
 B|--------|------------|--------|--------|--------|--------|--------|--------|--------|


 B|--------|--------|--------|-14-----|-14-----|--------|--------|-14-----|-14-----|
F#|--------|--------|--------|-15-----|-15-----|-14-----|-14-----|-15-----|-15-----|
 D|--------|--------|--------|-14-----|-14-----|-13-----|-13-----|-14-----|-14-----|
 A|--------|--------|--------|-16-----|-16-----|-16-----|-16-----|-16-----|-16-----|
 E|--------|--------|--------|--------|--------|--------|--------|--------|--------|
 B|--------|--------|--------|--------|--------|--------|--------|--------|--------|


 B|----------------------|-------------|-14-----|-14----16----|-17-----|-16--------14---16---|
F#|-14----15---17---15---|-14----17----|-15-----|-15----15----|-14-----|-14---17-------------|
 D|-13----14---14---14---|-14----14----|-14-----|-14----14----|-14-----|-14------------------|
 A|-16----16---16---16---|-16----16----|-16-----|-16----16----|-16-----|-16------------------|
 E|----------------------|-------------|--------|-------------|--------|---------------------|
 B|----------------------|-------------|--------|-------------|--------|---------------------|


 B|-14-----|-14----16----|-17-----|-19-----|--------|--------|--------|--------|--------|
F#|-15-----|-15----15----|-14-----|--------|--------|--------|--------|--------|--------|
 D|-14-----|-14----14----|-14-----|-16-----|--------|--------|--------|--------|--------|
 A|-16-----|-16----16----|-16-----|-16-----|--------|--------|--------|--------|--------|
 E|--------|-------------|--------|--------|--------|--------|--------|--------|--------|
 B|--------|-------------|--------|--------|--------|--------|--------|--------|--------|


 B|--------|--------|-9-----------|--------|--------|-12-----|-10----11----|--------|
F#|--------|--------|-9-----10----|-12-----|-12-----|-12-----|-10----10----|-12-----|
 D|--------|--------|-------------|-12-----|-12-----|-12-----|-11----11----|-12-----|
 A|--------|--------|-------------|-14-----|-14-----|-14-----|-12----9-----|-14-----|
 E|--------|--------|-------------|--------|--------|--------|-------------|--------|
 B|--------|--------|-------------|--------|--------|--------|-------------|--------|


 B|--------12--|-12-----|-14-----|--------|--------|--------|--------|--------|--------|
F#|-12-----10--|-10-----|-12-----|--------|--------|--------|--------|--------|--------|
 D|-12-----9---|-9------|-11-----|--------|--------|--------|--------|--------|--------|
 A|-14-----7---|-7------|-9------|--------|--------|--------|--------|--------|--------|
 E|------------|--------|--------|--------|--------|--------|--------|--------|--------|
 B|------------|--------|--------|--------|--------|--------|--------|--------|--------|


 B|--------|--------|-14-----|-14-----|--------|--------|-14-----|-14-----|----------------------|
F#|--------|--------|-15-----|-15-----|-14-----|-14-----|-15-----|-15-----|-14----15---17---15---|
 D|--------|--------|-14-----|-14-----|-13-----|-13-----|-14-----|-14-----|-13----14---14---14---|
 A|--------|--------|-16-----|-16-----|-16-----|-16-----|-16-----|-16-----|-16----16---16---16---|
 E|--------|--------|--------|--------|--------|--------|--------|--------|----------------------|
 B|--------|--------|--------|--------|--------|--------|--------|--------|----------------------|


 B|-------------|-14-----|-14----16----|-17-----|-16--------14---16---|-14-----|-14----16----|
F#|-14----17----|-15-----|-15----15----|-14-----|-14---17-------------|-15-----|-15----15----|
 D|-14----14----|-14-----|-14----14----|-14-----|-14------------------|-14-----|-14----14----|
 A|-16----16----|-16-----|-16----16----|-16-----|-16------------------|-16-----|-16----16----|
 E|-------------|--------|-------------|--------|---------------------|--------|-------------|
 B|-------------|--------|-------------|--------|---------------------|--------|-------------|


 B|-17-----|-19-----|--------|--------|--------|--------|-9------|-9------|-8------|
F#|-14-----|--------|--------|--------|--------|--------|-10-----|-10-----|-10-----|
 D|-14-----|-16-----|--------|--------|--------|--------|-11-----|-11-----|-11-----|
 A|-16-----|-16-----|--------|--------|--------|--------|--------|--------|--------|
 E|--------|--------|--------|--------|--------|--------|--------|--------|--------|
 B|--------|--------|--------|--------|--------|--------|--------|--------|--------|


 B|-8------|-7------|-7------|-5------|-5------|-12-----|-12-----|-13-----|-13-----|
F#|-10-----|-7------|-7------|-7------|-7------|-13-----|-13-----|-13-----|-13-----|
 D|-11-----|-9------|-9------|-9------|-9------|-14-----|-14-----|-14-----|-14-----|
 A|--------|--------|--------|--------|--------|--------|--------|--------|--------|
 E|--------|--------|--------|--------|--------|--------|--------|--------|--------|
 B|--------|--------|--------|--------|--------|--------|--------|--------|--------|


 B|-15-----|-15-----|-19-----|-19-----|--------|--------|--------|--------|--------|
F#|-15-----|-15-----|-15-----|-15-----|--------|--------|--------|--------|--------|
 D|-16-----|-16-----|-16-----|-16-----|--------|--------|--------|--------|--------|
 A|--------|--------|--------|--------|--------|--------|--------|--------|--------|
 E|--------|--------|--------|--------|--------|--------|--------|--------|--------|
 B|--------|--------|--------|--------|--------|--------|--------|--------|--------|


 B|--------|--------|--------|--------|--------|--------|--------|--------|--------|
F#|--------|--------|--------|--------|--------|--------|--------|--------|--------|
 D|--------|--------|--------|--------|--------|--------|--------|--------|--------|
 A|--------|--------|--------|--------|--------|--------|--------|--------|--------|
 E|--------|--------|--------|--------|--------|--------|--------|--------|--------|
 B|--------|--------|--------|--------|--------|--------|--------|--------|--------|


 B|--------|--------|--------|--------|--------|--------|--------|--------|--------|
F#|--------|--------|--------|--------|--------|--------|--------|--------|--------|
 D|--------|--------|--------|--------|--------|--------|--------|--------|--------|
 A|--------|--------|--------|--------|--------|--------|--------|--------|--------|
 E|--------|--------|--------|--------|--------|--------|--------|--------|--------|
 B|--------|--------|--------|--------|--------|--------|--------|--------|--------|


 B|--------|--------|--------|--------|--------|--------|--------|--------|-9-----------|
F#|--------|--------|--------|--------|--------|--------|--------|--------|-9-----10----|
 D|--------|--------|--------|--------|--------|--------|--------|--------|-------------|
 A|--------|--------|--------|--------|--------|--------|--------|--------|-------------|
 E|--------|--------|--------|--------|--------|--------|--------|--------|-------------|
 B|--------|--------|--------|--------|--------|--------|--------|--------|-------------|


 B|-9------|-9------|-9------|-9------|-9------|-9------|-9------|-9------|-9------|
F#|-10-----|-10-----|-9------|-9------|-10-----|-10-----|-9------|-12-----|-10-----|
 D|-11-----|-11-----|-11-----|-11-----|-11-----|-11-----|-11-----|-11-----|-11-----|
 A|--------|--------|--------|--------|--------|--------|--------|--------|--------|
 E|--------|--------|--------|--------|--------|--------|--------|--------|--------|
 B|--------|--------|--------|--------|--------|--------|--------|--------|--------|


 B|-9------|-9------|-9------|-9------|-9------|-9------|-9------|-9------|-9------|
F#|-10-----|-9------|-9------|-10-----|-10-----|-9------|-12-----|-10-----|-10-----|
 D|-11-----|-11-----|-11-----|-11-----|-11-----|-11-----|-11-----|-11-----|-11-----|
 A|--------|--------|--------|--------|--------|--------|--------|--------|--------|
 E|--------|--------|--------|--------|--------|--------|--------|--------|--------|
 B|--------|--------|--------|--------|--------|--------|--------|--------|--------|


 B|-9------|-9------|-9------|-9------|-9------|-9------|-9------|-9------|-9------|
F#|-9------|-9------|-10-----|-10-----|-9------|-12-----|-10-----|-10-----|-9------|
 D|-11-----|-11-----|-11-----|-11-----|-11-----|-11-----|-11-----|-11-----|-11-----|
 A|--------|--------|--------|--------|--------|--------|--------|--------|--------|
 E|--------|--------|--------|--------|--------|--------|--------|--------|--------|
 B|--------|--------|--------|--------|--------|--------|--------|--------|--------|


 B|-9------|-9------|-9------|-9------|-9------|-9------|-9------|-9------|-9------|
F#|-9------|-10-----|-10-----|-9------|-12-----|-10-----|-10-----|-9------|-9------|
 D|-11-----|-11-----|-11-----|-11-----|-11-----|-11-----|-11-----|-11-----|-11-----|
 A|--------|--------|--------|--------|--------|--------|--------|--------|--------|
 E|--------|--------|--------|--------|--------|--------|--------|--------|--------|
 B|--------|--------|--------|--------|--------|--------|--------|--------|--------|


 B|-9------|-9------|-9------|-9------|
F#|-10-----|-10-----|-9------|-12-----|
 D|-11-----|-11-----|-11-----|-11-----|
 A|--------|--------|--------|--------|
 E|--------|--------|--------|--------|
 B|--------|--------|--------|--------|





Track 5: Ola Flink - El. Bass

D|-----------------------|--------|-----------------------|--------------------|-----------------------|
A|-----------------------|--------|-----------------------|--------------------|-----------------------|
E|-----------------------|--------|-----------------------|--------------------|-----------------------|
B|-2---0---2---2---2-----|-2------|-2---0---2---2---2-----|-2-----7---5---5----|-2---0---2---2---2-----|


D|--------|-----------------------|--------|---------------------------------|---------------------------------|
A|--------|-----------------------|--------|---------------------------------|---------------------4---2-------|
E|--------|-----------------------|--------|---------------------------------|-----2-----------2-----------4---|
B|-2------|-2---0---2---2---2-----|--------|-2---0---2---2---2---0---2---4---|-5-------5---4-------------------|


D|---------------------------------|------------------------------|---------------------------------|
A|---------------------------------|------------------------------|---------------------------------|
E|---------------------------------|-----2-----------2------------|---------------------------------|
B|-2---0---2---2---2---0---2---4---|-5-------5---4-------5---5----|-2---0---2---2---2---0---2---4---|


D|---------------------------------|---------------------------------|------------------------------|
A|---------------------4---2-------|---------------------------------|------------------------------|
E|-----2-----------2-----------4---|---------------------------------|-----2-----------2------------|
B|-5-------5---4-------------------|-2---0---2---2---2---0---2---4---|-5-------5---4-------5---5----|


D|---------------------------|-----------------------|------------------------|---------------------------------|
A|---------------------------|-----------------------|------------------------|---------------------------------|
E|---------------------------|-------4---4---4---4---|------------------------|---------------------2---2---2---|
B|-2---2---2---2---2---------|-----------------------|------2---2---2---------|-----4---4---4-------------------|


D|---------------------------|-----------------------|------------------------|-------------|
A|---------------------------|-----------------------|------------------------|-------------|
E|---------------------------|-------4---4---4---4---|------------------------|-4-----0-----|
B|-2---2---2---2---2---------|-----------------------|------2---2---2---------|-------------|


D|---------------------------|---------------------------------------|--------|-------------|
A|---------------------------|---------------------------------------|--------|-------------|
E|---------------------------|-----------------------------------3---|-3------|-5-----2-----|
B|-0--0--0--0--0-------------|-----0--0--0--0--0--0--0---------------|--------|-------------|


D|---------------------------|---------------------------------------|--------|--------|
A|---------------------------|---------------------------------------|--------|--------|
E|---------------------------|-----------------------------------0---|-0------|-2------|
B|-0--0--0--0--0-------------|-----0--0--0--0--0--0--0---------------|--------|--------|


D|---------------------------|---------------------------------------|--------|-------------|
A|---------------------------|---------------------------------------|--------|-------------|
E|---------------------------|-----------------------------------3---|-3------|-5-----2-----|
B|-0--0--0--0--0-------------|-----0--0--0--0--0--0--0---------------|--------|-------------|


D|---------------------------|---------------------------------------|--------|--------|
A|---------------------------|---------------------------------------|--------|--------|
E|---------------------------|-----------------------------------0---|-0------|-2------|
B|-0--0--0--0--0-------------|-----0--0--0--0--0--0--0---------------|--------|--------|


D|---------------------------|-----------------------|------------------------|---------------------------------|
A|---------------------------|-----------------------|------------------------|---------------------------------|
E|---------------------------|-------4---4---4---4---|------------------------|---------------------2---2---2---|
B|-2---2---2---2---2---------|-----------------------|------2---2---2---------|-----4---4---4-------------------|


D|---------------------------|-----------------------|------------------------|-------------|
A|---------------------------|-----------------------|------------------------|-------------|
E|---------------------------|-------4---4---4---4---|------------------------|-4-----0-----|
B|-2---2---2---2---2---------|-----------------------|------2---2---2---------|-------------|


D|---------------------------|---------------------------------------|--------|-------------|
A|---------------------------|---------------------------------------|--------|-------------|
E|---------------------------|-----------------------------------3---|-3------|-5-----2-----|
B|-0--0--0--0--0-------------|-----0--0--0--0--0--0--0---------------|--------|-------------|


D|---------------------------|---------------------------------------|--------|--------|
A|---------------------------|---------------------------------------|--------|--------|
E|---------------------------|-----------------------------------0---|-0------|-2------|
B|-0--0--0--0--0-------------|-----0--0--0--0--0--0--0---------------|--------|--------|


D|---------------------------|---------------------------------------|--------|-------------|
A|---------------------------|---------------------------------------|--------|-------------|
E|---------------------------|-----------------------------------3---|-3------|-5-----2-----|
B|-0--0--0--0--0-------------|-----0--0--0--0--0--0--0---------------|--------|-------------|


D|---------------------------|---------------------------------------|--------|--------|
A|---------------------------|---------------------------------------|--------|--------|
E|---------------------------|-----------------------------------0---|-0------|-2------|
B|-0--0--0--0--0-------------|-----0--0--0--0--0--0--0---------------|--------|--------|


D|-------------------------------------------------|-------------------------------------------------|
A|-------------------------------------------------|-------------------------------------------------|
E|-5---5---5---5---5---5---5---5---5---5---5---5---|-5---5---5---5---5---5---5---5---5---5---5---5---|
B|-------------------------------------------------|-------------------------------------------------|


D|-------------------------------------------------|-------------------------------------------------|
A|-------------------------------------------------|-------------------------------------------------|
E|-------------------------------------------------|-------------------------0---0---0---4---4---4---|
B|-2---2---2---2---2---2---2---2---2---2---2---2---|-2---2---2---2---2---2---------------------------|


D|-------------------------------------------------|-------------------------------------------------|
A|-------------------------------------------------|-------------------------------------------------|
E|-5---5---5---5---5---5---5---5---5---5---5---5---|-5---5---5---5---5---5---5---5---5---5---5---5---|
B|-------------------------------------------------|-------------------------------------------------|


D|-------------------------------------------------|-------------------------------------------------|
A|-------------------------------------------------|-------------------------------------------------|
E|-------------------------5---5---5---5---5---5---|-------------------------7---7---7---7---7---7---|
B|-2---2---2---2---2---2---------------------------|-2---2---2---2---2---2---------------------------|


D|-------------------------------------------------|-------------------------------------------------|
A|-------------------------------------------------|-------------------------------------------------|
E|-5---5---5---5---5---5---5---5---5---5---5---5---|-5---5---5---5---5---5---5---5---5---5---5---5---|
B|-------------------------------------------------|-------------------------------------------------|


D|-------------------------------------------------|-------------------------------------------------|
A|-------------------------------------------------|-------------------------------------------------|
E|-------------------------------------------------|-------------------------0---0---0---4---4---4---|
B|-2---2---2---2---2---2---2---2---2---2---2---2---|-2---2---2---2---2---2---------------------------|


D|-------------------------------------------------|-------------------------------------------------|
A|-------------------------------------------------|-------------------------------------------------|
E|-5---5---5---5---5---5---5---5---5---5---5---5---|-5---5---5---5---5---5---5---5---5---5---5---5---|
B|-------------------------------------------------|-------------------------------------------------|


D|-------------------------------------------------|-------------------------------------------------|
A|-------------------------------------------------|-------------------------------------------------|
E|-------------------------------------------------|-------------------------------------------------|
B|-2---2---2---2---2---2---2---2---2---2---2---2---|-5---5---5---5---5---5---5---5---5---5---5---5---|


D|---------------------------|-----------------------|------------------------|---------------------------------|
A|---------------------------|-----------------------|------------------------|---------------------------------|
E|---------------------------|-------4---4---4---4---|------------------------|---------------------2---2---2---|
B|-2---2---2---2---2---------|-----------------------|------2---2---2---------|-----4---4---4-------------------|


D|---------------------------|-----------------------|------------------------|-------------|
A|---------------------------|-----------------------|------------------------|-------------|
E|---------------------------|-------4---4---4---4---|------------------------|-4-----0-----|
B|-2---2---2---2---2---------|-----------------------|------2---2---2---------|-------------|


D|---------------------------|---------------------------------------|--------|-------------|
A|---------------------------|---------------------------------------|--------|-------------|
E|---------------------------|-----------------------------------3---|-3------|-5-----2-----|
B|-0--0--0--0--0-------------|-----0--0--0--0--0--0--0---------------|--------|-------------|


D|---------------------------|---------------------------------------|--------|--------|
A|---------------------------|---------------------------------------|--------|--------|
E|---------------------------|-----------------------------------0---|-0------|-2------|
B|-0--0--0--0--0-------------|-----0--0--0--0--0--0--0---------------|--------|--------|


D|---------------------------|---------------------------------------|--------|-------------|
A|---------------------------|---------------------------------------|--------|-------------|
E|---------------------------|-----------------------------------3---|-3------|-5-----2-----|
B|-0--0--0--0--0-------------|-----0--0--0--0--0--0--0---------------|--------|-------------|


D|---------------------------|---------------------------------------|--------|--------|
A|---------------------------|---------------------------------------|--------|--------|
E|---------------------------|-----------------------------------0---|-0------|-2------|
B|-0--0--0--0--0-------------|-----0--0--0--0--0--0--0---------------|--------|--------|


D|-------------------------------------------------|-------------------------------------------------|
A|-------------------------------------------------|-------------------------------------------------|
E|-5---5---5---5---5---5---5---5---5---5---5---5---|-5---5---5---5---5---5---5---5---5---5---5---5---|
B|-------------------------------------------------|-------------------------------------------------|


D|-------------------------------------------------|-------------------------------------------------|
A|-------------------------------------------------|-------------------------------------------------|
E|-------------------------------------------------|-------------------------0---0---0---4---4---4---|
B|-2---2---2---2---2---2---2---2---2---2---2---2---|-2---2---2---2---2---2---------------------------|


D|-------------------------------------------------|-------------------------------------------------|
A|-------------------------------------------------|-------------------------------------------------|
E|-5---5---5---5---5---5---5---5---5---5---5---5---|-5---5---5---5---5---5---5---5---5---5---5---5---|
B|-------------------------------------------------|-------------------------------------------------|


D|-------------------------------------------------|-------------------------------------------------|
A|-------------------------------------------------|-------------------------------------------------|
E|-------------------------5---5---5---5---5---5---|-------------------------7---7---7---7---7---7---|
B|-2---2---2---2---2---2---------------------------|-2---2---2---2---2---2---------------------------|


D|-------------------------------------------------|-------------------------------------------------|
A|-------------------------------------------------|-------------------------------------------------|
E|-5---5---5---5---5---5---5---5---5---5---5---5---|-5---5---5---5---5---5---5---5---5---5---5---5---|
B|-------------------------------------------------|-------------------------------------------------|


D|-------------------------------------------------|-------------------------------------------------|
A|-------------------------------------------------|-------------------------------------------------|
E|-------------------------------------------------|-------------------------0---0---0---4---4---4---|
B|-2---2---2---2---2---2---2---2---2---2---2---2---|-2---2---2---2---2---2---------------------------|


D|-------------------------------------------------|-------------------------------------------------|
A|-------------------------------------------------|-------------------------------------------------|
E|-5---5---5---5---5---5---5---5---5---5---5---5---|-5---5---5---5---5---5---5---5---5---5---5---5---|
B|-------------------------------------------------|-------------------------------------------------|


D|-------------------------------------------------|-------------------------------------------------|
A|-------------------------------------------------|-------------------------------------------------|
E|-------------------------------------------------|-------------------------------------------------|
B|-2---2---2---2---2---2---2---2---2---2---2---2---|-5---5---5---5---5---5---5---5---5---5---5---5---|


D|--------|--------|--------|-----------------------|---------------------------------|
A|--------|--------|--------|-----------------------|---------------------------------|
E|--------|--------|--------|-----------------------|---------------------------------|
B|-2------|-2------|-4------|-4---5----5--5---5-----|-2---0---2---2---2---0---2---4---|


D|---------------------------------|---------------------------------|------------------------------|
A|---------------------4---2-------|---------------------------------|------------------------------|
E|-----2-----------2-----------4---|---------------------------------|-----2-----------2------------|
B|-5-------5---4-------------------|-2---0---2---2---2---0---2---4---|-5-------5---4-------5---5----|


D|---------------------------------|---------------------------------|---------------------------------|
A|---------------------------------|---------------------4---2-------|---------------------------------|
E|---------------------------------|-----2-----------2-----------4---|---------------------------------|
B|-2---0---2---2---2---0---2---4---|-5-------5---4-------------------|-2---0---2---2---2---0---2---4---|


D|------------------------------|---------------------------------|---------------------------------|
A|------------------------------|---------------------------------|---------------------7---5-------|
E|-----2-----------2------------|---------------------------------|-----5-----------5-----------7---|
B|-5-------5---4-------5---5----|-5---3---5---5---5---3---5---7---|-8-------8---7-------------------|


D|---------------------------------|-----------------------|---------------------------------|
A|---------------------------------|-----------------------|---------------------------------|
E|---------------------------------|-----5-----------------|---------------------------------|
B|-5---3---5---5---5---3---5---7---|-8-------8---7---8-----|-5---3---5---5---5---3---5---7---|


D|---------------------------------|---------------------------------|-----------------------|
A|---------------------7---5-------|---------------------------------|-----------------------|
E|-----5-----------5-----------7---|---------------------------------|-----5-----------------|
B|-8-------8---7-------------------|-5---3---5---5---5---3---5---7---|-8-------8---7---8-----|


D|---------------------------------|---------------------------------|---------------------------------|
A|---------------------------------|-2---3---2-----------------------|---------------------------------|
E|-5---3---5---5---5---0---3---5---|-------------5-------------------|-5---3---5---5---5---0---3---5---|
B|---------------------------------|-----------------3---0---1---3---|---------------------------------|


D|---------------------------------|---------------------------------|---------------------------------|
A|-2---3---2-----------------------|---------------------------------|-2---3---2-----------------------|
E|-------------5-------------------|-5---3---5---5---5---0---3---5---|-------------5-------------------|
B|-----------------3---0---1---3---|---------------------------------|-----------------3---0---1---3---|


D|---------------------------------|---------------------------------|---------------------------------|
A|---------------------------------|-2---3---2-----------------------|---------------------------------|
E|-5---3---5---5---5---0---3---5---|-------------5-------------------|---------------------------------|
B|---------------------------------|-----------------3---0---1---3---|-0---0---0---0---0---0---0---0---|


D|---------------------------------|---------------------------------|---------------------------------|
A|---------------------------------|---------------------------------|---------------------------------|
E|---------------------------------|---------------------------------|---------------------------------|
B|-0---0---0---0---0---3---5---5---|-0---0---0---0---0---0---0---0---|-0---0---0---0---0---3---3---3---|


D|---------------------------------|---------------------------------|---------------------------------|
A|---------------------------------|---------------------------------|---------------------------------|
E|---------------------------------|---------------------------------|---------------------------------|
B|-0---0---0---0---0---0---0---0---|-0---0---0---0---0---3---5---5---|-0---0---0---0---0---0---0---0---|


D|-------------|---------------------------|-----------------------|------------------------|
A|-------------|---------------------------|-----------------------|------------------------|
E|-------2-----|---------------------------|-------4---4---4---4---|------------------------|
B|-0-----------|-2---2---2---2---2---------|-----------------------|------2---2---2---------|


D|---------------------------------|---------------------------|-----------------------|
A|---------------------------------|---------------------------|-----------------------|
E|---------------------2---2---2---|---------------------------|-------4---4---4---4---|
B|-----4---4---4-------------------|-2---2---2---2---2---------|-----------------------|


D|------------------------|-------------|---------------------------|-----------------------|
A|------------------------|-------------|---------------------------|-----------------------|
E|------------------------|-4-----0-----|---------------------------|-------4---4---4---4---|
B|------2---2---2---------|-------------|-2---2---2---2---2---------|-----------------------|


D|------------------------|---------------------------------|---------------------------|
A|------------------------|---------------------------------|---------------------------|
E|------------------------|---------------------2---2---2---|---------------------------|
B|------2---2---2---------|-----4---4---4-------------------|-2---2---2---2---2---------|


D|-----------------------|------------------------|-------------|--------------------------------------|
A|-----------------------|------------------------|-------------|--------------------------------------|
E|-------4---4---4---4---|------------------------|-4-----0-----|-5---5---5---5---5---5---5------------|
B|-----------------------|------2---2---2---------|-------------|--------------------------------------|


D|--------|--------------------------------------|--------|--------------------------------------|
A|--------|--------------------------------------|--------|--------------------------------------|
E|--------|--------------------------------------|--------|-5---5---5---5---5---5---5------------|
B|--------|-2---2---2---2---2---2---2------------|--------|--------------------------------------|


D|--------|--------------------------------------|----------------------------------------|
A|--------|--------------------------------------|----------------------------------------|
E|--------|--------------------------------------|----------------------------------------|
B|--------|-2---2---2---2---2---2---2------------|-5---5---5---5---5---5---5----4----5----|


D|---------------------|------------------------------|---------------------|------------------------------|
A|---------------------|------------------------------|---------------------|------------------------------|
E|-5-----5---5-----5---|-5---5---5---5---5----5---5---|---------------------|------------------------------|
B|---------------------|------------------------------|-2-----2---2-----2---|-2---2---2---2---2----2---2---|


D|---------------------|------------------------------|---------------------|------------------------|
A|---------------------|------------------------------|---------------------|------------------------|
E|-5-----5---5-----5---|-5---5---5---5---5----5---5---|---------------------|-0-----0---0----0---0---|
B|---------------------|------------------------------|-2-----2---2-----2---|------------------------|


D|---------------------|------------------------------|---------------------|------------------------------|
A|---------------------|------------------------------|---------------------|------------------------------|
E|-5-----5---5-----5---|-5---5---5---5---5----5---5---|---------------------|------------------------------|
B|---------------------|------------------------------|-2-----2---2-----2---|-2---2---2---2---2----2---2---|


D|---------------------|------------------------------|---------------------|------------------------|
A|---------------------|------------------------------|---------------------|------------------------|
E|-5-----5---5-----5---|-5---5---5---5---5----5---5---|---------------------|-0-----0---0----0---0---|
B|---------------------|------------------------------|-2-----2---2-----2---|------------------------|


D|---------------------|------------------------------|---------------------|------------------------------|
A|---------------------|------------------------------|---------------------|------------------------------|
E|-5-----5---5-----5---|-5---5---5---5---5----5---5---|---------------------|------------------------------|
B|---------------------|------------------------------|-2-----2---2-----2---|-2---2---2---2---2----2---2---|


D|---------------------|------------------------------|---------------------|------------------------|
A|---------------------|------------------------------|---------------------|------------------------|
E|-5-----5---5-----5---|-5---5---5---5---5----5---5---|---------------------|-0-----0---0----0---0---|
B|---------------------|------------------------------|-2-----2---2-----2---|------------------------|


D|---------------------|------------------------------|---------------------|------------------------------|
A|---------------------|------------------------------|---------------------|------------------------------|
E|-5-----5---5-----5---|-5---5---5---5---5----5---5---|---------------------|------------------------------|
B|---------------------|------------------------------|-2-----2---2-----2---|-2---2---2---2---2----2---2---|


D|---------------------|------------------------------|---------------------|------------------------|
A|---------------------|------------------------------|---------------------|------------------------|
E|-5-----5---5-----5---|-5---5---5---5---5----5---5---|---------------------|-0-----0---0----0---0---|
B|---------------------|------------------------------|-2-----2---2-----2---|------------------------|