Menu:

 

Search:

 

soilwork - light the torch:

 



Title: Light The Torch
Artist: 
Album: Figure Number Five
Author: Soilwork


Track 1: Dist 1

 B|--------|--------|---------------------------------|---------------------------------|
F#|--------|--------|---------------------------------|---------------------------------|
 D|--------|--------|---------------------------------|---------------------------------|
 A|--------|--------|---------------------------------|---------------------------------|
 E|--------|--------|---------------------------------|---------------------3-----------|
 B|--------|--------|-5---4---0---0---1---0---0---5---|-4---0---0---0---1-------1---5---|


 B|---------------------------------|---------------------------------|---------------------------------|
F#|---------------------------------|---------------------------------|---------------------------------|
 D|---------------------------------|---------------------------------|---------------------------------|
 A|---------------------------------|---------------------------------|---------------------------------|
 E|---------------------------------|---------------------3-----------|---------------------------------|
 B|-5---4---0---0---1---0---0---5---|-4---0---0---0---1-------1---5---|-5---4---0---0---1---0---0---5---|


 B|---------------------------------|---------------------------------|---------------------------------|
F#|---------------------------------|---------------------------------|---------------------------------|
 D|---------------------------------|---------------------------------|---------------------------------|
 A|---------------------------------|---------------------------------|---------------------------------|
 E|---------------------3-----------|---------------------------------|---------------------3-----------|
 B|-4---0---0---0---1-------1---5---|-5---4---0---0---1---0---0---5---|-4---0---0---0---1-------1---0---|


 B|------------------------------|------------------------------|-------------4----------------|
F#|------------------------------|------------------------------|------------------5-----------|
 D|-----6-------4----6-------4---|-4---6-------4----6-----------|-----6--------------------6---|
 A|-7-------7------------7-------|---------7------------7---6---|-4-------4------------4-------|
 E|------------------------------|------------------------------|------------------------------|
 B|------------------------------|------------------------------|------------------------------|


 B|-------------4----------------|---------------------------------|---------------------------------|
F#|------------------5-----------|---------------------------------|---------------------------------|
 D|-----6------------------------|---------------------------------|---------------------------------|
 A|-4-------4------------4-------|---------------------------------|---------------------------------|
 E|------------------------------|---------------------------------|---------------------3-----------|
 B|--------------------------5---|-5---4---0---0---1---0---0---5---|-4---0---0---0---1-------1---5---|


 B|---------------------------------|---------------------------------|------------------------------|
F#|---------------------------------|---------------------------------|------------------------------|
 D|---------------------------------|---------------------------------|-----6-------4----6-------4---|
 A|---------------------------------|---------------------------------|-7-------7------------7-------|
 E|---------------------------------|---------------------3-----------|------------------------------|
 B|-5---4---0---0---1---0---0---5---|-4---0---0---0---1-------1---0---|------------------------------|


 B|------------------------------|-------------4----------------|-------------4----------------|
F#|------------------------------|------------------5-----------|------------------5-----------|
 D|-4---6-------4----6-----------|-----6--------------------6---|-----6------------------------|
 A|---------7------------7---6---|-4-------4------------4-------|-4-------4------------4-------|
 E|------------------------------|------------------------------|------------------------------|
 B|------------------------------|------------------------------|--------------------------5---|


 B|---------------------------------|---------------------------------|---------------------------------|
F#|---------------------------------|---------------------------------|---------------------------------|
 D|---------------------------------|---------------------------------|---------------------------------|
 A|---------------------------------|---------------------------------|---------------------------------|
 E|---------------------------------|---------------------3-----------|---------------------------------|
 B|-5---4---0---0---1---0---0---5---|-4---0---0---0---1-------1---5---|-5---4---0---0---1---0---0---5---|


 B|---------------------------------|--------|--------|--------|--------|--------|
F#|---------------------------------|--------|--------|--------|--------|--------|
 D|---------------------------------|--------|--------|--------|--------|--------|
 A|---------------------------------|--------|--------|--------|--------|--------|
 E|---------------------3-----------|--------|--------|--------|--------|--------|
 B|-4---0---0---0---1-------1---0---|--------|--------|--------|--------|--------|


 B|--------|--------|--------|---------------------------------|---------------------------------|
F#|--------|--------|--------|---------------------------------|---------------------------------|
 D|--------|--------|--------|---------------------------------|-------------------------2-------|
 A|--------|--------|--------|-2---4---4---4---5---4---2---4---|-4---4---5---4---4---4-------4---|
 E|--------|--------|--------|---------------------------------|---------------------------------|
 B|--------|--------|--------|---------------------------------|---------------------------------|


 B|---------------------------------|---------------------------------|---------------------------------|
F#|---------------------------------|---------------------------------|---------------------------------|
 D|---------------------------------|---------------------------------|---------------------------------|
 A|-2---4---4---4---5---4---2---4---|-4---2---2---2---2---0---0---0---|-2---4---4---4---5---4---2---4---|
 E|---------------------------------|---------------------------------|---------------------------------|
 B|---------------------------------|---------------------------------|---------------------------------|


 B|---------------------------------|---------------------------------|---------------------------|
F#|---------------------------------|---------------------------------|---------------------------|
 D|-------------------------2-------|---------------------------------|---------------------------|
 A|-4---4---5---4---4---4-------4---|-2---4---4---4---5---4---2---4---|-4---2---2---2-------------|
 E|---------------------------------|---------------------------------|----------------------9----|
 B|---------------------------------|---------------------------------|---------------------------|


 B|---------------------------------|---------------------------------|---------------------------------|
F#|---------------------------------|---------------------------------|---------------------------------|
 D|---------------------------------|---------------------------------|---------------------------------|
 A|---------------------------------|-----------------2---4---4---4---|---------------------------------|
 E|---------------------------------|---------------------------------|---------------------------------|
 B|-0---2---2---2---3---2---0---2---|-2---2---3---2-------------------|-0---2---2---2---3---2---0---2---|


 B|---------------------------------|---------------------------------|---------------------------------|
F#|---------------------5---5---5---|---------------------------------|---------------------------------|
 D|---------------------7---7---7---|---------------------------------|---------------------------------|
 A|---------------------7---7---7---|---------------------------------|-----------------2---4---4---4---|
 E|---------------------------------|---------------------------------|---------------------------------|
 B|-2---0---0---0---0---------------|-0---2---2---2---3---2---0---2---|-2---2---3---2-------------------|


 B|---------------------------------|---------------------------------|------------------------------|
F#|---------------------------------|---------------------------------|------------------------------|
 D|---------------------------------|---------------------7---7---7---|-----6-------4----6-------4---|
 A|---------------------------------|---------------------7---7---7---|-7-------7------------7-------|
 E|---------------------------------|---------------------5---5---5---|------------------------------|
 B|-0---2---2---2---3---2---0---2---|-2---0---0---0---0---------------|------------------------------|


 B|------------------------------|-------------4----------------|-------------4----------------|
F#|------------------------------|------------------5-----------|------------------5-----------|
 D|-4---6-------4----6-----------|-----6--------------------6---|-----6------------------------|
 A|---------7------------7---6---|-4-------4------------4-------|-4-------4------------4-------|
 E|------------------------------|------------------------------|------------------------------|
 B|------------------------------|------------------------------|--------------------------5---|


 B|---------------------------------|---------------------------------|---------------------------------|
F#|---------------------------------|---------------------------------|---------------------------------|
 D|---------------------------------|---------------------------------|---------------------------------|
 A|---------------------------------|---------------------------------|---------------------------------|
 E|---------------------------------|---------------------3-----------|---------------------------------|
 B|-5---4---0---0---1---0---0---5---|-4---0---0---0---1-------1---5---|-5---4---0---0---1---0---0---5---|


 B|---------------------------------|------------------------------|------------------------------|
F#|---------------------------------|------------------------------|------------------------------|
 D|---------------------------------|-----6-------4----6-------4---|-4---6-------4----6-----------|
 A|---------------------------------|-7-------7------------7-------|---------7------------7---6---|
 E|---------------------3-----------|------------------------------|------------------------------|
 B|-4---0---0---0---1-------1---0---|------------------------------|------------------------------|


 B|-------------4----------------|-------------4----------------|---------------------------------|
F#|------------------5-----------|------------------5-----------|---------------------------------|
 D|-----6--------------------6---|-----6------------------------|---------------------------------|
 A|-4-------4------------4-------|-4-------4------------4-------|---------------------------------|
 E|------------------------------|------------------------------|---------------------------------|
 B|------------------------------|--------------------------5---|-5---4---0---0---1---0---0---5---|


 B|---------------------------------|---------------------------------|---------------------------------|
F#|---------------------------------|---------------------------------|---------------------------------|
 D|---------------------------------|---------------------------------|---------------------------------|
 A|---------------------------------|---------------------------------|---------------------------------|
 E|---------------------3-----------|---------------------------------|---------------------3-----------|
 B|-4---0---0---0---1-------1---5---|-5---4---0---0---1---0---0---5---|-4---0---0---0---1-------1---0---|


 B|-0---2-----------3---2---0---2---|---------3---2-----------5---2---|-0---2-----------3---2---0---2---|
F#|---------------------------------|---------------------------------|---------------------------------|
 D|---------------------------------|---------------------------------|---------------------------------|
 A|---------4---4-------------------|-4---4-----------4---4-----------|---------4---4-------------------|
 E|---------------------------------|---------------------------------|---------------------------------|
 B|---------------------------------|---------------------------------|---------------------------------|


 B|---------5---2-------------------|-0---2-----------3---2---0---2---|---------3---2-----------5---2---|
F#|-------------------------5---3---|---------------------------------|---------------------------------|
 D|---------------------------------|---------------------------------|---------------------------------|
 A|-4---4-----------4---4-----------|---------4---4-------------------|-4---4-----------4---4-----------|
 E|---------------------------------|---------------------------------|---------------------------------|
 B|---------------------------------|---------------------------------|---------------------------------|


 B|-0---2-----------3---2---0---2---|---------5---2---------|---------------------------------|
F#|---------------------------------|-----------------------|---------------------------------|
 D|---------------------------------|-----------------------|---------------------------------|
 A|---------4---4-------------------|-4---4-----------------|---------------------------------|
 E|---------------------------------|-----------------------|---------------------------------|
 B|---------------------------------|-----------------------|-0---2---2---2---3---2---0---2---|


 B|---------------------------------|---------------------------------|---------------------------------|
F#|---------------------------------|---------------------------------|---------------------5---5---5---|
 D|---------------------------------|---------------------------------|---------------------7---7---7---|
 A|-----------------2---4---4---4---|---------------------------------|---------------------7---7---7---|
 E|---------------------------------|---------------------------------|---------------------------------|
 B|-2---2---3---2-------------------|-0---2---2---2---3---2---0---2---|-2---0---0---0---0---------------|


 B|---------------------------------|---------------------------------|---------------------------------|
F#|---------------------------------|---------------------------------|---------------------------------|
 D|---------------------------------|---------------------------------|---------------------------------|
 A|---------------------------------|-----------------2---4---4---4---|---------------------------------|
 E|---------------------------------|---------------------------------|---------------------------------|
 B|-0---2---2---2---3---2---0---2---|-2---2---3---2-------------------|-0---2---2---2---3---2---0---2---|


 B|---------------------------------|------------------------------|------------------------------|
F#|---------------------------------|------------------------------|------------------------------|
 D|---------------------7---7---7---|-----6-------4----6-------4---|-4---6-------4----6-----------|
 A|---------------------7---7---7---|-7-------7------------7-------|---------7------------7---6---|
 E|---------------------5---5---5---|------------------------------|------------------------------|
 B|-2---0---0---0---0---------------|------------------------------|------------------------------|


 B|-------------4----------------|-------------4----------------|---------------------------------|
F#|------------------5-----------|------------------5-----------|---------------------------------|
 D|-----6--------------------6---|-----6------------------------|---------------------------------|
 A|-4-------4------------4-------|-4-------4------------4-------|---------------------------------|
 E|------------------------------|------------------------------|---------------------------------|
 B|------------------------------|--------------------------5---|-5---4---0---0---1---0---0---5---|


 B|---------------------------------|---------------------------------|---------------------------------|
F#|---------------------------------|---------------------------------|---------------------------------|
 D|---------------------------------|---------------------------------|---------------------------------|
 A|---------------------------------|---------------------------------|---------------------------------|
 E|---------------------3-----------|---------------------------------|---------------------3-----------|
 B|-4---0---0---0---1-------1---5---|-5---4---0---0---1---0---0---5---|-4---0---0---0---1-------1---0---|


 B|------------------------------|------------------------------|-------------4----------------|
F#|------------------------------|------------------------------|------------------5-----------|
 D|-----6-------4----6-------4---|-4---6-------4----6-----------|-----6--------------------6---|
 A|-7-------7------------7-------|---------7------------7---6---|-4-------4------------4-------|
 E|------------------------------|------------------------------|------------------------------|
 B|------------------------------|------------------------------|------------------------------|


 B|-------------4----------------|---------------------------------|---------------------------------|
F#|------------------5-----------|---------------------------------|---------------------------------|
 D|-----6------------------------|---------------------------------|---------------------------------|
 A|-4-------4------------4-------|---------------------------------|---------------------------------|
 E|------------------------------|---------------------------------|---------------------3-----------|
 B|--------------------------5---|-5---4---0---0---1---0---0---5---|-4---0---0---0---1-------1---5---|


 B|---------------------------------|---------------------------------|---------------------------------|
F#|---------------------------------|---------------------------------|---------------------------------|
 D|---------------------------------|---------------------------------|---------------------------------|
 A|---------------------------------|---------------------------------|---------6-------6---6-------6---|
 E|---------------------------------|---------------------3-----------|---------6-------6---6-------6---|
 B|-5---4---0---0---1---0---0---5---|-4---0---0---0---1-------1---0---|-4---4-------4-----------4-------|


 B|---------------------------------|---------------------------------|---------------------------------|
F#|---------------------------------|---------------------------------|---------------------------------|
 D|---------------------------------|---------------------------------|---------------------------------|
 A|---------6-------6---6-------6---|---------6-------6---6-------6---|---------6-------6---6-------6---|
 E|---------6-------6---6-------6---|---------6-------6---6-------6---|---------6-------6---6-------6---|
 B|-4---4-------4-----------4-------|-4---4-------4-----------4-------|-4---4-------4-----------4-------|


 B|---------------------------------|---------------------------------|---------------------------------|
F#|---------------------------------|---------------------------------|---------------------------------|
 D|---------------------------------|---------------------------------|---------------------------------|
 A|---------6-------6---6-------6---|---------6-------6---6-------6---|---------6-------6---6-------6---|
 E|---------------------------------|---------------------------------|---------------------------------|
 B|-0---0-------0-----------0-------|-0---0-------0-----------0-------|-0---0-------0-----------0-------|


 B|---------------------------------|---------------------------------|---------------------------------|
F#|---------------------------------|---------------------------------|---------------------------------|
 D|---------4-------4---------------|---------------------------------|---------------------------------|
 A|---------------------6-------6---|---------6-------6---6-------6---|---------6-------6---6-------6---|
 E|---------------------------------|---------6-------6---6-------6---|---------6-------6---6-------6---|
 B|-0---0-------0-----------0-------|-4---4-------4-----------4-------|-4---4-------4-----------4-------|


 B|---------------------------------|---------------------------------|---------------------------------|
F#|---------------------------------|---------------------------------|---------------------------------|
 D|---------------------------------|---------------------------------|---------------------------------|
 A|---------6-------6---6-------6---|---------6-------6---6-------6---|---------6-------6---6-------6---|
 E|---------6-------6---6-------6---|---------6-------6---6-------6---|---------------------------------|
 B|-4---4-------4-----------4-------|-4---4-------4-----------4-------|-0---0-------0-----------0-------|


 B|---------------------------------|---------------------------------|---------------------------------|
F#|---------------------------------|---------------------------------|---------------------------------|
 D|---------------------------------|---------------------------------|---------------------------------|
 A|---------6-------6---6-------6---|---------6-------6---6-------6---|---------6-------6---------------|
 E|---------------------------------|---------------------------------|---------------------7-------7---|
 B|-0---0-------0-----------0-------|-0---0-------0-----------0-------|-0---0-------0-----------0-------|


 B|---------------------------------|---------------------------------|---------------------------------|
F#|---------------------------------|---------------------------------|---------------------------------|
 D|---------------------------------|---------------------------------|---------------------------------|
 A|---------6-------6---6-------6---|---------6-------6---6-------6---|---------6-------6---6-------6---|
 E|---------6-------6---6-------6---|---------6-------6---6-------6---|---------6-------6---6-------6---|
 B|-4---4-------4-----------4-------|-4---4-------4-----------4-------|-4---4-------4-----------4-------|


 B|---------------------------------|---------------------------------|---------------------------------|
F#|---------------------------------|---------------------------------|---------------------------------|
 D|---------------------------------|---------------------------------|---------------------------------|
 A|---------6-------6---6-------6---|---------6-------6---6-------6---|---------6-------6---6-------6---|
 E|---------6-------6---6-------6---|---------------------------------|---------------------------------|
 B|-4---4-------4-----------4-------|-0---0-------0-----------0-------|-0---0-------0-----------0-------|


 B|---------------------------------|---------------------------------|---------------------------------|
F#|---------------------------------|---------------------------------|---------------------------------|
 D|---------------------------------|---------4-------4---------------|---------------------------------|
 A|---------6-------6---6-------6---|---------------------6-------6---|---------6-------6---6-------6---|
 E|---------------------------------|---------------------------------|---------6-------6---6-------6---|
 B|-0---0-------0-----------0-------|-0---0-------0-----------0-------|-4---4-------4-----------4-------|


 B|---------------------------------|---------------------------------|---------------------------------|
F#|---------------------------------|---------------------------------|---------------------------------|
 D|---------------------------------|---------------------------------|---------------------------------|
 A|---------6-------6---6-------6---|---------6-------6---6-------6---|---------6-------6---6-------6---|
 E|---------6-------6---6-------6---|---------6-------6---6-------6---|---------6-------6---6-------6---|
 B|-4---4-------4-----------4-------|-4---4-------4-----------4-------|-4---4-------4-----------4-------|


 B|---------------------------------|---------------------------------|---------------------------------|
F#|---------------------------------|---------------------------------|---------------------------------|
 D|---------------------------------|---------------------------------|---------------------------------|
 A|---------6-------6---6-------6---|---------6-------6---6-------6---|---------6-------6---6-------6---|
 E|---------------------------------|---------------------------------|---------------------------------|
 B|-0---0-------0-----------0-------|-0---0-------0-----------0-------|-0---0-------0-----------0-------|


 B|---------------------------------|---------------------------------|---------------------------------|
F#|---------------------------------|---------------------------------|---------------------------------|
 D|---------4-------4---------------|---------------------------------|---------------------------------|
 A|---------------------6-------6---|---------------------------------|-----------------2---4---4---4---|
 E|---------------------------------|---------------------------------|---------------------------------|
 B|-0---0-------0-----------0-------|-0---2---2---2---3---2---0---2---|-2---2---3---2-------------------|


 B|---------------------------------|---------------------------------|---------------------------------|
F#|---------------------------------|---------------------5---5---5---|---------------------------------|
 D|---------------------------------|---------------------7---7---7---|---------------------------------|
 A|---------------------------------|---------------------7---7---7---|---------------------------------|
 E|---------------------------------|---------------------------------|---------------------------------|
 B|-0---2---2---2---3---2---0---2---|-2---0---0---0---0---------------|-0---2---2---2---3---2---0---2---|


 B|---------------------------------|---------------------------------|---------------------------------|
F#|---------------------------------|---------------------------------|---------------------------------|
 D|---------------------------------|---------------------------------|---------------------7---7---7---|
 A|-----------------2---4---4---4---|---------------------------------|---------------------7---7---7---|
 E|---------------------------------|---------------------------------|---------------------5---5---5---|
 B|-2---2---3---2-------------------|-0---2---2---2---3---2---0---2---|-2---0---0---0---0---------------|


 B|---------------------------------|---------------------------------|---------------------------------|
F#|---------------------------------|---------------------------------|---------------------------------|
 D|---------------------------------|---------------------------------|---------------------------------|
 A|---------------------------------|-----------------2---4---4---4---|---------------------------------|
 E|---------------------------------|---------------------------------|---------------------------------|
 B|-0---2---2---2---3---2---0---2---|-2---2---3---2-------------------|-0---2---2---2---3---2---0---2---|


 B|---------------------------------|---------------------------------|---------------------------------|
F#|---------------------5---5---5---|---------------------------------|---------------------------------|
 D|---------------------7---7---7---|---------------------------------|---------------------------------|
 A|---------------------7---7---7---|---------------------------------|-----------------2---4---4---4---|
 E|---------------------------------|---------------------------------|---------------------------------|
 B|-2---0---0---0---0---------------|-0---2---2---2---3---2---0---2---|-2---2---3---2-------------------|


 B|---------------------------------|---------------------------------|------------------------------|
F#|---------------------------------|---------------------------------|------------------------------|
 D|---------------------------------|---------------------7---7---7---|-----6-------4----6-------4---|
 A|---------------------------------|---------------------7---7---7---|-7-------7------------7-------|
 E|---------------------------------|---------------------5---5---5---|------------------------------|
 B|-0---2---2---2---3---2---0---2---|-2---0---0---0---0---------------|------------------------------|


 B|------------------------------|-------------4----------------|-------------4----------------|
F#|------------------------------|------------------5-----------|------------------5-----------|
 D|-4---6-------4----6-----------|-----6--------------------6---|-----6------------------------|
 A|---------7------------7---6---|-4-------4------------4-------|-4-------4------------4-------|
 E|------------------------------|------------------------------|------------------------------|
 B|------------------------------|------------------------------|--------------------------5---|


 B|---------------------------------|---------------------------------|---------------------------------|
F#|---------------------------------|---------------------------------|---------------------------------|
 D|---------------------------------|---------------------------------|---------------------------------|
 A|---------------------------------|---------------------------------|---------------------------------|
 E|---------------------------------|---------------------3-----------|---------------------------------|
 B|-5---4---0---0---1---0---0---5---|-4---0---0---0---1-------1---5---|-5---4---0---0---1---0---0---5---|


 B|---------------------------------|------------------------------|------------------------------|
F#|---------------------------------|------------------------------|------------------------------|
 D|---------------------------------|-----6-------4----6-------4---|-4---6-------4----6-----------|
 A|---------------------------------|-7-------7------------7-------|---------7------------7---6---|
 E|---------------------3-----------|------------------------------|------------------------------|
 B|-4---0---0---0---1-------1---0---|------------------------------|------------------------------|


 B|-------------4----------------|-------------4----------------|---------------------------------|
F#|------------------5-----------|------------------5-----------|---------------------------------|
 D|-----6--------------------6---|-----6------------------------|---------------------------------|
 A|-4-------4------------4-------|-4-------4------------4-------|---------------------------------|
 E|------------------------------|------------------------------|---------------------------------|
 B|------------------------------|--------------------------5---|-5---4---0---0---1---0---0---5---|


 B|---------------------------------|---------------------------------|---------------------------------|
F#|---------------------------------|---------------------------------|---------------------------------|
 D|---------------------------------|---------------------------------|---------------------------------|
 A|---------------------------------|---------------------------------|---------------------------------|
 E|---------------------3-----------|---------------------------------|---------------------3-----------|
 B|-4---0---0---0---1-------1---5---|-5---4---0---0---1---0---0---5---|-4---0---0---0---1-------1---0---|





Track 2: Dist 2

 B|--------|--------|--------|--------|--------|--------|--------|--------|--------|
F#|--------|--------|--------|--------|--------|--------|--------|--------|--------|
 D|--------|--------|--------|--------|--------|--------|--------|--------|--------|
 A|--------|--------|--------|--------|--------|--------|--------|--------|--------|
 E|--------|--------|--------|--------|--------|--------|--------|--------|--------|
 B|--------|--------|--------|--------|--------|--------|--------|--------|--------|


 B|--------|---------------------------------|---------------------------------|---------------------------------|
F#|--------|---------------------------------|---------------------------------|---------------------------------|
 D|--------|---------------------------------|---------------------------------|---------------------------------|
 A|--------|-7---7---7---7---7---7---7---7---|-7---7---7---7---7---7---7---7---|-4---4---4---4---4---4---4---4---|
 E|--------|-7---7---7---7---7---7---7---7---|-7---7---7---7---7---7---7---7---|-4---4---4---4---4---4---4---4---|
 B|--------|-5---5---5---5---5---5---5---5---|-5---5---5---5---5---5---5---5---|-2---2---2---2---2---2---2---2---|


 B|---------------------------------|--------|--------|--------|--------|--------|
F#|---------------------------------|--------|--------|--------|--------|--------|
 D|---------------------------------|--------|--------|--------|--------|--------|
 A|-4---4---4---4---4---4---4-------|--------|--------|--------|--------|--------|
 E|-4---4---4---4---4---4---4-------|--------|--------|--------|--------|--------|
 B|-2---2---2---2---2---2---2---5---|--------|--------|--------|--------|--------|


 B|--------|--------|--------|--------|--------|--------|--------|--------|--------|
F#|--------|--------|--------|--------|--------|--------|--------|--------|--------|
 D|--------|--------|--------|--------|--------|--------|--------|--------|--------|
 A|--------|--------|--------|--------|--------|--------|--------|--------|--------|
 E|--------|--------|--------|--------|--------|--------|--------|--------|--------|
 B|--------|--------|--------|--------|--------|--------|--------|--------|--------|


 B|--------|--------|--------|--------|--------|--------|--------|--------|--------|
F#|--------|--------|--------|--------|--------|--------|--------|--------|--------|
 D|--------|--------|--------|--------|--------|--------|--------|--------|--------|
 A|--------|--------|--------|--------|--------|--------|--------|--------|--------|
 E|--------|--------|--------|--------|--------|--------|--------|--------|--------|
 B|--------|--------|--------|--------|--------|--------|--------|--------|--------|


 B|--------|--------|--------|--------|--------|--------|--------|--------|--------|
F#|--------|--------|--------|--------|--------|--------|--------|--------|--------|
 D|--------|--------|--------|--------|--------|--------|--------|--------|--------|
 A|--------|--------|--------|--------|--------|--------|--------|--------|--------|
 E|--------|--------|--------|--------|--------|--------|--------|--------|--------|
 B|--------|--------|--------|--------|--------|--------|--------|--------|--------|


 B|--------|--------|--------|--------|---------------------------------|---------------------------------|
F#|--------|--------|--------|--------|---------------------------------|---------------------------------|
 D|--------|--------|--------|--------|---------------------------------|---------------------------------|
 A|--------|--------|--------|--------|-7---7---7---7---7---7---7---7---|-7---7---7---7---7---7---7---7---|
 E|--------|--------|--------|--------|-7---7---7---7---7---7---7---7---|-7---7---7---7---7---7---7---7---|
 B|--------|--------|--------|--------|-5---5---5---5---5---5---5---5---|-5---5---5---5---5---5---5---5---|


 B|---------------------------------|---------------------------------|--------|--------|
F#|---------------------------------|---------------------------------|--------|--------|
 D|---------------------------------|---------------------------------|--------|--------|
 A|-4---4---4---4---4---4---4---4---|-4---4---4---4---4---4---4-------|--------|--------|
 E|-4---4---4---4---4---4---4---4---|-4---4---4---4---4---4---4-------|--------|--------|
 B|-2---2---2---2---2---2---2---2---|-2---2---2---2---2---2---2---5---|--------|--------|


 B|--------|--------|--------|--------|--------|--------|--------|--------|--------|
F#|--------|--------|--------|--------|--------|--------|--------|--------|--------|
 D|--------|--------|--------|--------|--------|--------|--------|--------|--------|
 A|--------|--------|--------|--------|--------|--------|--------|--------|--------|
 E|--------|--------|--------|--------|--------|--------|--------|--------|--------|
 B|--------|--------|--------|--------|--------|--------|--------|--------|--------|


 B|--------|--------|--------|--------|--------|--------|--------|--------|--------|
F#|--------|--------|--------|--------|--------|--------|--------|--------|--------|
 D|--------|--------|--------|--------|--------|--------|--------|--------|--------|
 A|--------|--------|--------|--------|--------|--------|--------|--------|--------|
 E|--------|--------|--------|--------|--------|--------|--------|--------|--------|
 B|--------|--------|--------|--------|--------|--------|--------|--------|--------|


 B|--------|--------|--------|--------|--------|--------|--------|--------|---------------------------------|
F#|--------|--------|--------|--------|--------|--------|--------|--------|---------------------------------|
 D|--------|--------|--------|--------|--------|--------|--------|--------|---------------------------------|
 A|--------|--------|--------|--------|--------|--------|--------|--------|-7---7---7---7---7---7---7---7---|
 E|--------|--------|--------|--------|--------|--------|--------|--------|-7---7---7---7---7---7---7---7---|
 B|--------|--------|--------|--------|--------|--------|--------|--------|-5---5---5---5---5---5---5---5---|


 B|---------------------------------|---------------------------------|---------------------------------|
F#|---------------------------------|---------------------------------|---------------------------------|
 D|---------------------------------|---------------------------------|---------------------------------|
 A|-7---7---7---7---7---7---7---7---|-4---4---4---4---4---4---4---4---|-4---4---4---4---4---4---4-------|
 E|-7---7---7---7---7---7---7---7---|-4---4---4---4---4---4---4---4---|-4---4---4---4---4---4---4-------|
 B|-5---5---5---5---5---5---5---5---|-2---2---2---2---2---2---2---2---|-2---2---2---2---2---2---2---5---|


 B|--------|--------|--------|--------|--------|--------|--------|--------|--------|
F#|--------|--------|--------|--------|--------|--------|--------|--------|--------|
 D|--------|--------|--------|--------|--------|--------|--------|--------|--------|
 A|--------|--------|--------|--------|--------|--------|--------|--------|--------|
 E|--------|--------|--------|--------|--------|--------|--------|--------|--------|
 B|--------|--------|--------|--------|--------|--------|--------|--------|--------|


 B|--------|--------|--------|--------|--------|--------|--------|--------|--------|
F#|--------|--------|--------|--------|--------|--------|--------|--------|--------|
 D|--------|--------|--------|--------|--------|--------|--------|--------|--------|
 A|--------|--------|--------|--------|--------|--------|--------|--------|--------|
 E|--------|--------|--------|--------|--------|--------|--------|--------|--------|
 B|--------|--------|--------|--------|--------|--------|--------|--------|--------|


 B|--------|--------|--------|--------|--------|--------|--------|--------|--------|
F#|--------|--------|--------|--------|--------|--------|--------|--------|--------|
 D|--------|--------|--------|--------|--------|--------|--------|--------|--------|
 A|--------|--------|--------|--------|--------|--------|--------|--------|--------|
 E|--------|--------|--------|--------|--------|--------|--------|--------|--------|
 B|--------|--------|--------|--------|--------|--------|--------|--------|--------|


 B|--------|--------|--------|--------|--------|--------|--------|--------|--------|
F#|--------|--------|--------|--------|--------|--------|--------|--------|--------|
 D|--------|--------|--------|--------|--------|--------|--------|--------|--------|
 A|--------|--------|--------|--------|--------|--------|--------|--------|--------|
 E|--------|--------|--------|--------|--------|--------|--------|--------|--------|
 B|--------|--------|--------|--------|--------|--------|--------|--------|--------|


 B|--------|--------|--------|--------|--------|--------|--------|--------|--------|
F#|--------|--------|--------|--------|--------|--------|--------|--------|--------|
 D|--------|--------|--------|--------|--------|--------|--------|--------|--------|
 A|--------|--------|--------|--------|--------|--------|--------|--------|--------|
 E|--------|--------|--------|--------|--------|--------|--------|--------|--------|
 B|--------|--------|--------|--------|--------|--------|--------|--------|--------|


 B|--------|--------|--------|--------|--------|--------|--------|--------|--------|
F#|--------|--------|--------|--------|--------|--------|--------|--------|--------|
 D|--------|--------|--------|--------|--------|--------|--------|--------|--------|
 A|--------|--------|--------|--------|--------|--------|--------|--------|--------|
 E|--------|--------|--------|--------|--------|--------|--------|--------|--------|
 B|--------|--------|--------|--------|--------|--------|--------|--------|--------|


 B|--------|--------|--------|--------|--------|--------|---------------------------------|
F#|--------|--------|--------|--------|--------|--------|---------------------------------|
 D|--------|--------|--------|--------|--------|--------|---------------------------------|
 A|--------|--------|--------|--------|--------|--------|-7---7---7---7---7---7---7---7---|
 E|--------|--------|--------|--------|--------|--------|-7---7---7---7---7---7---7---7---|
 B|--------|--------|--------|--------|--------|--------|-5---5---5---5---5---5---5---5---|


 B|---------------------------------|---------------------------------|---------------------------------|
F#|---------------------------------|---------------------------------|---------------------------------|
 D|---------------------------------|---------------------------------|---------------------------------|
 A|-7---7---7---7---7---7---7---7---|-4---4---4---4---4---4---4---4---|-4---4---4---4---4---4---4-------|
 E|-7---7---7---7---7---7---7---7---|-4---4---4---4---4---4---4---4---|-4---4---4---4---4---4---4-------|
 B|-5---5---5---5---5---5---5---5---|-2---2---2---2---2---2---2---2---|-2---2---2---2---2---2---2---5---|


 B|--------|--------|--------|--------|--------|--------|--------|--------|--------|
F#|--------|--------|--------|--------|--------|--------|--------|--------|--------|
 D|--------|--------|--------|--------|--------|--------|--------|--------|--------|
 A|--------|--------|--------|--------|--------|--------|--------|--------|--------|
 E|--------|--------|--------|--------|--------|--------|--------|--------|--------|
 B|--------|--------|--------|--------|--------|--------|--------|--------|--------|


 B|--------|--------|--------|
F#|--------|--------|--------|
 D|--------|--------|--------|
 A|--------|--------|--------|
 E|--------|--------|--------|
 B|--------|--------|--------|





Track 3: Synth

 B|--------|--------|--------|--------|--------|--------|--------|--------|--------|
F#|--------|--------|--------|--------|--------|--------|--------|--------|--------|
 D|--------|--------|--------|--------|--------|--------|--------|--------|--------|
 A|--------|--------|--------|--------|--------|--------|--------|--------|--------|
 E|--------|--------|--------|--------|--------|--------|--------|--------|--------|
 B|--------|--------|--------|--------|--------|--------|--------|--------|--------|


 B|--------|--------|--------|--------|--------8---|-8------|-8------|-8------|-8------|
F#|--------|-5------|-5------|-2------|-2------10--|-10-----|-10-----|-10-----|-10-----|
 D|--------|-6------|-6------|-2------|-2------9---|-9------|-9------|-9------|-9------|
 A|--------|-7------|-7------|-4------|-4----------|--------|--------|--------|--------|
 E|--------|--------|--------|--------|------------|--------|--------|--------|--------|
 B|--------|-5------|-5------|-2------|-2----------|--------|--------|--------|--------|


 B|---------------------------------|---------------------------------|---------------------------------|
F#|---------------------------------|---------------------------------|---------------------------------|
 D|---------------------------------|---------------------------------|---------------------------------|
 A|-7---7---7---7---7---7---7---7---|-7---7---7---7---7---7---7---7---|-4---4---4---4---4---4---4---4---|
 E|-7---7---7---7---7---7---7---7---|-7---7---7---7---7---7---7---7---|-4---4---4---4---4---4---4---4---|
 B|-5---5---5---5---5---5---5---5---|-5---5---5---5---5---5---5---5---|-2---2---2---2---2---2---2---2---|


 B|---------------------------------|-8------|-8------|-8------|-8------|--------|
F#|---------------------------------|-10-----|-10-----|-10-----|-10-----|--------|
 D|---------------------------------|-9------|-9------|-9------|-9------|--------|
 A|-4---4---4---4---4---4---4-------|--------|--------|--------|--------|--------|
 E|-4---4---4---4---4---4---4-------|--------|--------|--------|--------|--------|
 B|-2---2---2---2---2---2---2---5---|--------|--------|--------|--------|--------|


 B|--------|--------|--------|--------|--------|--------|--------|--------|--------|
F#|--------|--------|--------|--------|--------|--------|--------|--------|--------|
 D|--------|--------|--------|--------|--------|--------|--------|--------|--------|
 A|--------|--------|--------|--------|--------|--------|--------|--------|--------|
 E|--------|--------|--------|--------|--------|--------|--------|--------|--------|
 B|--------|--------|--------|--------|--------|--------|--------|--------|--------|


 B|--------|--------|--------|--------|--------|--------|--------|--------|--------|
F#|--------|--------|--------|--------|--------|--------|--------|--------|--------|
 D|--------|--------|--------|--------|--------|--------|--------|--------|--------|
 A|--------|--------|--------|--------|--------|--------|--------|--------|--------|
 E|--------|--------|--------|--------|--------|--------|--------|--------|--------|
 B|--------|--------|--------|--------|--------|--------|--------|--------|--------|


 B|--------|--------|--------|--------|--------|--------|--------|--------|--------8---|
F#|--------|--------|--------|--------|--------|-5------|-5------|-2------|-2------10--|
 D|--------|--------|--------|--------|--------|-6------|-6------|-2------|-2------9---|
 A|--------|--------|--------|--------|--------|-7------|-7------|-4------|-4----------|
 E|--------|--------|--------|--------|--------|--------|--------|--------|------------|
 B|--------|--------|--------|--------|--------|-5------|-5------|-2------|-2----------|


 B|-8------|-8------|-8------|-8------|---------------------------------|---------------------------------|
F#|-10-----|-10-----|-10-----|-10-----|---------------------------------|---------------------------------|
 D|-9------|-9------|-9------|-9------|---------------------------------|---------------------------------|
 A|--------|--------|--------|--------|-7---7---7---7---7---7---7---7---|-7---7---7---7---7---7---7---7---|
 E|--------|--------|--------|--------|-7---7---7---7---7---7---7---7---|-7---7---7---7---7---7---7---7---|
 B|--------|--------|--------|--------|-5---5---5---5---5---5---5---5---|-5---5---5---5---5---5---5---5---|


 B|---------------------------------|---------------------------------|-8------|-8------|
F#|---------------------------------|---------------------------------|-10-----|-10-----|
 D|---------------------------------|---------------------------------|-9------|-9------|
 A|-4---4---4---4---4---4---4---4---|-4---4---4---4---4---4---4-------|--------|--------|
 E|-4---4---4---4---4---4---4---4---|-4---4---4---4---4---4---4-------|--------|--------|
 B|-2---2---2---2---2---2---2---2---|-2---2---2---2---2---2---2---5---|--------|--------|


 B|-8------|-8------|--------|--------|--------|--------|--------|--------|--------|
F#|-10-----|-10-----|--------|--------|--------|--------|--------|--------|--------|
 D|-9------|-9------|--------|--------|--------|--------|--------|--------|--------|
 A|--------|--------|--------|--------|--------|--------|--------|--------|--------|
 E|--------|--------|--------|--------|--------|--------|--------|--------|--------|
 B|--------|--------|--------|--------|--------|--------|--------|--------|--------|


 B|--------|--------|--------|--------|--------|--------|--------|--------|--------|
F#|--------|--------|--------|--------|--------|--------|--------|--------|--------|
 D|--------|--------|--------|--------|--------|--------|--------|--------|--------|
 A|--------|--------|--------|--------|--------|--------|--------|--------|--------|
 E|--------|--------|--------|--------|--------|--------|--------|--------|--------|
 B|--------|--------|--------|--------|--------|--------|--------|--------|--------|


 B|--------|--------|--------|--------8---|-8------|-8------|-8------|-8------|---------------------------------|
F#|-5------|-5------|-2------|-2------10--|-10-----|-10-----|-10-----|-10-----|---------------------------------|
 D|-6------|-6------|-2------|-2------9---|-9------|-9------|-9------|-9------|---------------------------------|
 A|-7------|-7------|-4------|-4----------|--------|--------|--------|--------|-7---7---7---7---7---7---7---7---|
 E|--------|--------|--------|------------|--------|--------|--------|--------|-7---7---7---7---7---7---7---7---|
 B|-5------|-5------|-2------|-2----------|--------|--------|--------|--------|-5---5---5---5---5---5---5---5---|


 B|---------------------------------|---------------------------------|---------------------------------|
F#|---------------------------------|---------------------------------|---------------------------------|
 D|---------------------------------|---------------------------------|---------------------------------|
 A|-7---7---7---7---7---7---7---7---|-4---4---4---4---4---4---4---4---|-4---4---4---4---4---4---4-------|
 E|-7---7---7---7---7---7---7---7---|-4---4---4---4---4---4---4---4---|-4---4---4---4---4---4---4-------|
 B|-5---5---5---5---5---5---5---5---|-2---2---2---2---2---2---2---2---|-2---2---2---2---2---2---2---5---|


 B|-8------|-8------|-8------|-8------|--------|--------|--------|--------|--------|
F#|-10-----|-10-----|-10-----|-10-----|--------|--------|--------|--------|--------|
 D|-9------|-9------|-9------|-9------|--------|--------|--------|--------|--------|
 A|--------|--------|--------|--------|--------|--------|--------|--------|--------|
 E|--------|--------|--------|--------|--------|--------|--------|--------|--------|
 B|--------|--------|--------|--------|--------|--------|--------|--------|--------|


 B|--------|--------|--------|--------|--------|--------|--------|--------|--------|
F#|--------|--------|--------|--------|--------|--------|--------|--------|--------|
 D|--------|--------|--------|--------|--------|--------|--------|--------|--------|
 A|--------|--------|--------|--------|--------|--------|--------|--------|--------|
 E|--------|--------|--------|--------|--------|--------|--------|--------|--------|
 B|--------|--------|--------|--------|--------|--------|--------|--------|--------|


 B|--------|--------|-4------|-4------|-4------|-4------|-0------|-0------|-0------|
F#|--------|--------|-4------|-4------|-4------|-4------|-0------|-0------|-0------|
 D|--------|--------|-1------|-1------|-1------|-1------|--------|--------|--------|
 A|--------|--------|--------|--------|--------|--------|-2------|-2------|-2------|
 E|--------|--------|--------|--------|--------|--------|--------|--------|--------|
 B|--------|--------|--------|--------|--------|--------|--------|--------|--------|


 B|-0------|-4------|-4------|-4------|-4------|-0------|-0------|-0------|-0------|
F#|-0------|-4------|-4------|-4------|-4------|-0------|-0------|-0------|-0------|
 D|--------|-1------|-1------|-1------|-1------|--------|--------|--------|--------|
 A|-2------|--------|--------|--------|--------|-2------|-2------|-2------|-2------|
 E|--------|--------|--------|--------|--------|--------|--------|--------|--------|
 B|--------|--------|--------|--------|--------|--------|--------|--------|--------|


 B|--------|--------|--------|--------|--------|--------|--------|--------|--------|
F#|--------|--------|--------|--------|--------|--------|--------|--------|--------|
 D|--------|--------|--------|--------|--------|--------|--------|--------|--------|
 A|--------|--------|--------|--------|--------|--------|--------|--------|--------|
 E|--------|--------|--------|--------|--------|--------|--------|--------|--------|
 B|--------|--------|--------|--------|--------|--------|--------|--------|--------|


 B|--------|--------|--------|--------|--------|--------|--------|--------|--------|
F#|--------|--------|--------|--------|--------|--------|--------|-5------|-5------|
 D|--------|--------|--------|--------|--------|--------|--------|-6------|-6------|
 A|--------|--------|--------|--------|--------|--------|--------|-7------|-7------|
 E|--------|--------|--------|--------|--------|--------|--------|--------|--------|
 B|--------|--------|--------|--------|--------|--------|--------|-5------|-5------|


 B|--------|--------8---|-8------|-8------|-8------|-8------|---------------------------------|
F#|-2------|-2------10--|-10-----|-10-----|-10-----|-10-----|---------------------------------|
 D|-2------|-2------9---|-9------|-9------|-9------|-9------|---------------------------------|
 A|-4------|-4----------|--------|--------|--------|--------|-7---7---7---7---7---7---7---7---|
 E|--------|------------|--------|--------|--------|--------|-7---7---7---7---7---7---7---7---|
 B|-2------|-2----------|--------|--------|--------|--------|-5---5---5---5---5---5---5---5---|


 B|---------------------------------|---------------------------------|---------------------------------|
F#|---------------------------------|---------------------------------|---------------------------------|
 D|---------------------------------|---------------------------------|---------------------------------|
 A|-7---7---7---7---7---7---7---7---|-4---4---4---4---4---4---4---4---|-4---4---4---4---4---4---4-------|
 E|-7---7---7---7---7---7---7---7---|-4---4---4---4---4---4---4---4---|-4---4---4---4---4---4---4-------|
 B|-5---5---5---5---5---5---5---5---|-2---2---2---2---2---2---2---2---|-2---2---2---2---2---2---2---5---|


 B|-8------|-8------|-8------|-8------|
F#|-10-----|-10-----|-10-----|-10-----|
 D|-9------|-9------|-9------|-9------|
 A|--------|--------|--------|--------|
 E|--------|--------|--------|--------|
 B|--------|--------|--------|--------|





Track 4: Dist 1

 B|--------|--------|--------|--------|--------|--------|--------|--------|--------|
F#|--------|--------|--------|--------|--------|--------|--------|--------|--------|
 D|--------|--------|--------|--------|--------|--------|--------|--------|--------|
 A|--------|--------|--------|--------|--------|--------|--------|--------|--------|
 E|--------|--------|--------|--------|--------|--------|--------|--------|--------|
 B|--------|--------|--------|--------|--------|--------|--------|--------|--------|


 B|--------|--------|--------|--------|--------|--------|--------|--------|--------|
F#|--------|--------|--------|--------|--------|--------|--------|--------|--------|
 D|--------|--------|--------|--------|--------|--------|--------|--------|--------|
 A|--------|--------|--------|--------|--------|--------|--------|--------|--------|
 E|--------|--------|--------|--------|--------|--------|--------|--------|--------|
 B|--------|--------|--------|--------|--------|--------|--------|--------|--------|


 B|--------|--------|--------|--------8---|--------|--------|--------|--------|--------|
F#|-5------|-5------|-2------|-2------10--|--------|--------|--------|--------|--------|
 D|-6------|-6------|-2------|-2------9---|--------|--------|--------|--------|--------|
 A|-7------|-7------|-4------|-4----------|--------|--------|--------|--------|--------|
 E|--------|--------|--------|------------|--------|--------|--------|--------|--------|
 B|-5------|-5------|-2------|-2----------|--------|--------|--------|--------|--------|


 B|--------|--------|--------|--------|--------|--------|--------|--------|--------|
F#|--------|--------|--------|--------|--------|--------|--------|--------|--------|
 D|--------|--------|--------|--------|--------|--------|--------|--------|--------|
 A|--------|--------|--------|--------|--------|--------|--------|--------|--------|
 E|--------|--------|--------|--------|--------|--------|--------|--------|--------|
 B|--------|--------|--------|--------|--------|--------|--------|--------|--------|


 B|--------|--------|--------|--------|--------|--------|--------|--------|--------|
F#|--------|--------|--------|--------|--------|--------|--------|--------|--------|
 D|--------|--------|--------|--------|--------|--------|--------|--------|--------|
 A|--------|--------|--------|--------|--------|--------|--------|--------|--------|
 E|--------|--------|--------|--------|--------|--------|--------|--------|--------|
 B|--------|--------|--------|--------|--------|--------|--------|--------|--------|


 B|--------|--------|--------|--------|--------|--------|--------|--------|--------|
F#|--------|--------|--------|--------|--------|--------|--------|--------|--------|
 D|--------|--------|--------|--------|--------|--------|--------|--------|--------|
 A|--------|--------|--------|--------|--------|--------|--------|--------|--------|
 E|--------|--------|--------|--------|--------|--------|--------|--------|--------|
 B|--------|--------|--------|--------|--------|--------|--------|--------|--------|


 B|--------|--------|--------|--------|--------|--------|--------|--------|--------|
F#|--------|--------|--------|--------|--------|--------|--------|--------|--------|
 D|--------|--------|--------|--------|--------|--------|--------|--------|--------|
 A|--------|--------|--------|--------|--------|--------|--------|--------|--------|
 E|--------|--------|--------|--------|--------|--------|--------|--------|--------|
 B|--------|--------|--------|--------|--------|--------|--------|--------|--------|


 B|--------|--------|--------|---------------------------------|---------------------------------|
F#|--------|--------|--------|---------------------------------|---------------------------------|
 D|--------|--------|--------|---------------------------------|-------------------------2-------|
 A|--------|--------|--------|-2---4---4---4---5---4---2---4---|-4---4---5---4---4---4-------4---|
 E|--------|--------|--------|---------------------------------|---------------------------------|
 B|--------|--------|--------|---------------------------------|---------------------------------|


 B|---------------------------------|---------------------------------|---------------------------------|
F#|---------------------------------|---------------------------------|---------------------------------|
 D|---------------------------------|---------------------------------|---------------------------------|
 A|-2---4---4---4---5---4---2---4---|-4---2---2---2---2---0---0---0---|-2---4---4---4---5---4---2---4---|
 E|---------------------------------|---------------------------------|---------------------------------|
 B|---------------------------------|---------------------------------|---------------------------------|


 B|---------------------------------|---------------------------------|---------------------------|
F#|---------------------------------|---------------------------------|---------------------------|
 D|-------------------------2-------|---------------------------------|---------------------------|
 A|-4---4---5---4---4---4-------4---|-2---4---4---4---5---4---2---4---|-4---2---2---2-------------|
 E|---------------------------------|---------------------------------|----------------------9----|
 B|---------------------------------|---------------------------------|---------------------------|


 B|--------|--------|--------|--------|--------|--------|--------|--------|--------|
F#|--------|--------|--------|--------|--------|--------|--------|--------|--------|
 D|--------|--------|--------|--------|--------|--------|--------|--------|--------|
 A|--------|--------|--------|--------|--------|--------|--------|--------|--------|
 E|--------|--------|--------|--------|--------|--------|--------|--------|--------|
 B|--------|--------|--------|--------|--------|--------|--------|--------|--------|


 B|--------|--------|--------|--------|--------|--------|--------|--------|--------|
F#|--------|--------|--------|--------|--------|--------|--------|--------|--------|
 D|--------|--------|--------|--------|--------|--------|--------|--------|--------|
 A|--------|--------|--------|--------|--------|--------|--------|--------|--------|
 E|--------|--------|--------|--------|--------|--------|--------|--------|--------|
 B|--------|--------|--------|--------|--------|--------|--------|--------|--------|


 B|--------|--------|--------|--------|--------|--------|--------|--------|--------|
F#|--------|--------|--------|--------|--------|--------|--------|--------|--------|
 D|--------|--------|--------|--------|--------|--------|--------|--------|--------|
 A|--------|--------|--------|--------|--------|--------|--------|--------|--------|
 E|--------|--------|--------|--------|--------|--------|--------|--------|--------|
 B|--------|--------|--------|--------|--------|--------|--------|--------|--------|


 B|--------|--------|--------|--------|--------|--------|--------|--------|--------|
F#|--------|--------|--------|--------|--------|--------|--------|--------|--------|
 D|--------|--------|--------|--------|--------|--------|--------|--------|--------|
 A|--------|--------|--------|--------|--------|--------|--------|--------|--------|
 E|--------|--------|--------|--------|--------|--------|--------|--------|--------|
 B|--------|--------|--------|--------|--------|--------|--------|--------|--------|


 B|--------|--------|--------|--------|--------|--------|--------|--------|--------|
F#|--------|--------|--------|--------|--------|--------|--------|--------|--------|
 D|--------|--------|--------|--------|--------|--------|--------|--------|--------|
 A|--------|--------|--------|--------|--------|--------|--------|--------|--------|
 E|--------|--------|--------|--------|--------|--------|--------|--------|--------|
 B|--------|--------|--------|--------|--------|--------|--------|--------|--------|


 B|--------|--------|--------|--------|--------|--------|--------|--------|--------|
F#|--------|--------|--------|--------|--------|--------|--------|--------|--------|
 D|--------|--------|--------|--------|--------|--------|--------|--------|--------|
 A|--------|--------|--------|--------|--------|--------|--------|--------|--------|
 E|--------|--------|--------|--------|--------|--------|--------|--------|--------|
 B|--------|--------|--------|--------|--------|--------|--------|--------|--------|


 B|--------|--------|--------|--------|--------|--------|--------|--------|--------|
F#|--------|--------|--------|--------|--------|--------|--------|--------|--------|
 D|--------|--------|--------|--------|--------|--------|--------|--------|--------|
 A|--------|--------|--------|--------|--------|--------|--------|--------|--------|
 E|--------|--------|--------|--------|--------|--------|--------|--------|--------|
 B|--------|--------|--------|--------|--------|--------|--------|--------|--------|


 B|--------|--------|--------|--------|--------|--------|--------|--------|--------|
F#|--------|--------|--------|--------|--------|--------|--------|--------|--------|
 D|--------|--------|--------|--------|--------|--------|--------|--------|--------|
 A|--------|--------|--------|--------|--------|--------|--------|--------|--------|
 E|--------|--------|--------|--------|--------|--------|--------|--------|--------|
 B|--------|--------|--------|--------|--------|--------|--------|--------|--------|


 B|--------|--------|--------|--------|--------|--------|--------|--------|--------|
F#|--------|--------|--------|--------|--------|--------|--------|--------|--------|
 D|--------|--------|--------|--------|--------|--------|--------|--------|--------|
 A|--------|--------|--------|--------|--------|--------|--------|--------|--------|
 E|--------|--------|--------|--------|--------|--------|--------|--------|--------|
 B|--------|--------|--------|--------|--------|--------|--------|--------|--------|


 B|--------|--------|--------|--------|--------|--------|--------|
F#|--------|--------|--------|--------|--------|--------|--------|
 D|--------|--------|--------|--------|--------|--------|--------|
 A|--------|--------|--------|--------|--------|--------|--------|
 E|--------|--------|--------|--------|--------|--------|--------|
 B|--------|--------|--------|--------|--------|--------|--------|





Track 5: Synth 2

 B|--------|--------|--------|--------|--------|--------|--------|--------|--------|
F#|--------|--------|--------|--------|--------|--------|--------|--------|--------|
 D|--------|--------|--------|--------|--------|--------|--------|--------|--------|
 A|--------|--------|--------|--------|--------|--------|--------|--------|--------|
 E|--------|--------|--------|--------|--------|--------|--------|--------|--------|
 B|--------|--------|--------|--------|--------|--------|--------|--------|--------|


 B|--------|--------|--------|--------|--------|--------|--------|--------|--------|
F#|--------|--------|--------|--------|--------|--------|--------|--------|--------|
 D|--------|--------|--------|--------|--------|--------|--------|--------|--------|
 A|--------|--------|--------|--------|--------|--------|--------|--------|--------|
 E|--------|--------|--------|--------|--------|--------|--------|--------|--------|
 B|--------|--------|--------|--------|--------|--------|--------|--------|--------|


 B|--------|--------|--------|--------|--------|--------|--------|--------|-0---2-----------3---2---0---2---|
F#|--------|--------|--------|--------|--------|--------|--------|--------|---------------------------------|
 D|--------|--------|--------|--------|--------|--------|--------|--------|---------------------------------|
 A|--------|--------|--------|--------|--------|--------|--------|--------|---------4---4-------------------|
 E|--------|--------|--------|--------|--------|--------|--------|--------|---------------------------------|
 B|--------|--------|--------|--------|--------|--------|--------|--------|---------------------------------|


 B|---------3---2-----------5---2---|-0---2-----------3---2---0---2---|---------5---2-------------------|
F#|---------------------------------|---------------------------------|-------------------------5---3---|
 D|---------------------------------|---------------------------------|---------------------------------|
 A|-4---4-----------4---4-----------|---------4---4-------------------|-4---4-----------4---4-----------|
 E|---------------------------------|---------------------------------|---------------------------------|
 B|---------------------------------|---------------------------------|---------------------------------|


 B|-0---2-----------3---2---0---2---|---------3---2-----------5---2---|-0---2-----------3---2---0---2---|
F#|---------------------------------|---------------------------------|---------------------------------|
 D|---------------------------------|---------------------------------|---------------------------------|
 A|---------4---4-------------------|-4---4-----------4---4-----------|---------4---4-------------------|
 E|---------------------------------|---------------------------------|---------------------------------|
 B|---------------------------------|---------------------------------|---------------------------------|


 B|---------5---2-------------------|-0---2-----------3---2---0---2---|---------3---2-----------5---2---|
F#|-------------------------5---3---|---------------------------------|---------------------------------|
 D|---------------------------------|---------------------------------|---------------------------------|
 A|-4---4-----------4---4-----------|---------4---4-------------------|-4---4-----------4---4-----------|
 E|---------------------------------|---------------------------------|---------------------------------|
 B|---------------------------------|---------------------------------|---------------------------------|


 B|-0---2-----------3---2---0---2---|---------5---2-------------------|-0---2-----------3---2---0---2---|
F#|---------------------------------|-------------------------5---3---|---------------------------------|
 D|---------------------------------|---------------------------------|---------------------------------|
 A|---------4---4-------------------|-4---4-----------4---4-----------|---------4---4-------------------|
 E|---------------------------------|---------------------------------|---------------------------------|
 B|---------------------------------|---------------------------------|---------------------------------|


 B|---------3---2-----------5---2---|-0---2-----------3---2---0---2---|---------5---2---------|
F#|---------------------------------|---------------------------------|-----------------------|
 D|---------------------------------|---------------------------------|-----------------------|
 A|-4---4-----------4---4-----------|---------4---4-------------------|-4---4-----------------|
 E|---------------------------------|---------------------------------|-----------------------|
 B|---------------------------------|---------------------------------|-----------------------|


 B|---------------------------------|---------------------------------|---------------------------------|
F#|---------------------------------|---------------------------------|---------------------------------|
 D|-----6-------6-------6---9---6---|-----6-------6-------6---9---6---|-----6-------6-------6---9---6---|
 A|---------------------------------|---------------------------------|---------------------------------|
 E|-9-------9-------9---------------|-9-------9-------9---------------|-9-------9-------9---------------|
 B|---------------------------------|---------------------------------|---------------------------------|


 B|---------------------------------|---------------------------------|---------------------------------|
F#|---------------------------------|---------7---------------7-------|---------7---------------7-------|
 D|-----6-------6-------6---9---6---|---------------------------------|---------------------------------|
 A|---------------------------------|-7---9-------9---7---9-------9---|-7---9-------9---7---9-------9---|
 E|-9-------9-------9---------------|---------------------------------|---------------------------------|
 B|---------------------------------|---------------------------------|---------------------------------|


 B|---------------------------------|---------------------------------|--------|--------|
F#|---------10--------------10------|---------10--------------10------|--------|--------|
 D|---------------------------------|---------------------------------|--------|--------|
 A|-7---9-------9---7---9-------9---|-7---9-------9---7---9-------9---|--------|--------|
 E|---------------------------------|---------------------------------|--------|--------|
 B|---------------------------------|---------------------------------|--------|--------|


 B|--------|--------|--------|--------|--------|--------|--------|--------|--------|
F#|--------|--------|--------|--------|--------|--------|--------|--------|--------|
 D|--------|--------|--------|--------|--------|--------|--------|--------|--------|
 A|--------|--------|--------|--------|--------|--------|--------|--------|--------|
 E|--------|--------|--------|--------|--------|--------|--------|--------|--------|
 B|--------|--------|--------|--------|--------|--------|--------|--------|--------|


 B|--------|--------|--------|--------|--------|--------|--------|--------|--------|
F#|--------|--------|--------|--------|--------|--------|--------|--------|--------|
 D|--------|--------|--------|--------|--------|--------|--------|--------|--------|
 A|--------|--------|--------|--------|--------|--------|--------|--------|--------|
 E|--------|--------|--------|--------|--------|--------|--------|--------|--------|
 B|--------|--------|--------|--------|--------|--------|--------|--------|--------|


 B|--------|--------|--------|--------|---------------------------------|---------------------------------|
F#|--------|--------|--------|--------|---------------------------------|---------------------------------|
 D|--------|--------|--------|--------|-----6-------6-------6---9---6---|-----6-------6-------6---9---6---|
 A|--------|--------|--------|--------|---------------------------------|---------------------------------|
 E|--------|--------|--------|--------|-9-------9-------9---------------|-9-------9-------9---------------|
 B|--------|--------|--------|--------|---------------------------------|---------------------------------|


 B|---------------------------------|---------------------------------|---------------------------------|
F#|---------------------------------|---------------------------------|---------7---------------7-------|
 D|-----6-------6-------6---9---6---|-----6-------6-------6---9---6---|---------------------------------|
 A|---------------------------------|---------------------------------|-7---9-------9---7---9-------9---|
 E|-9-------9-------9---------------|-9-------9-------9---------------|---------------------------------|
 B|---------------------------------|---------------------------------|---------------------------------|


 B|---------------------------------|---------------------------------|---------------------------------|
F#|---------7---------------7-------|---------10--------------10------|---------10--------------10------|
 D|---------------------------------|---------------------------------|---------------------------------|
 A|-7---9-------9---7---9-------9---|-7---9-------9---7---9-------9---|-7---9-------9---7---9-------9---|
 E|---------------------------------|---------------------------------|---------------------------------|
 B|---------------------------------|---------------------------------|---------------------------------|


 B|--------|--------|--------|--------|--------|--------|--------|--------|--------|
F#|--------|--------|--------|--------|--------|--------|--------|--------|--------|
 D|--------|--------|--------|--------|--------|--------|--------|--------|--------|
 A|--------|--------|--------|--------|--------|--------|--------|--------|--------|
 E|--------|--------|--------|--------|--------|--------|--------|--------|--------|
 B|--------|--------|--------|--------|--------|--------|--------|--------|--------|


 B|--------|--------|--------|--------|--------|--------|--------|--------|--------|
F#|--------|--------|--------|--------|--------|--------|--------|--------|--------|
 D|--------|--------|--------|--------|--------|--------|--------|--------|--------|
 A|--------|--------|--------|--------|--------|--------|--------|--------|--------|
 E|--------|--------|--------|--------|--------|--------|--------|--------|--------|
 B|--------|--------|--------|--------|--------|--------|--------|--------|--------|


 B|--------|--------|--------|--------|--------|--------|--------|--------|--------|
F#|--------|--------|--------|--------|--------|--------|--------|--------|--------|
 D|--------|--------|--------|--------|--------|--------|--------|--------|--------|
 A|--------|--------|--------|--------|--------|--------|--------|--------|--------|
 E|--------|--------|--------|--------|--------|--------|--------|--------|--------|
 B|--------|--------|--------|--------|--------|--------|--------|--------|--------|


 B|--------|--------|--------|--------|--------|--------|--------|--------|--------|
F#|--------|--------|--------|--------|--------|--------|--------|--------|--------|
 D|--------|--------|--------|--------|--------|--------|--------|--------|--------|
 A|--------|--------|--------|--------|--------|--------|--------|--------|--------|
 E|--------|--------|--------|--------|--------|--------|--------|--------|--------|
 B|--------|--------|--------|--------|--------|--------|--------|--------|--------|


 B|--------|--------|--------|--------|--------|--------|--------|--------|--------|
F#|--------|--------|--------|--------|--------|--------|--------|--------|--------|
 D|--------|--------|--------|--------|--------|--------|--------|--------|--------|
 A|--------|--------|--------|--------|--------|--------|--------|--------|--------|
 E|--------|--------|--------|--------|--------|--------|--------|--------|--------|
 B|--------|--------|--------|--------|--------|--------|--------|--------|--------|


 B|--------|--------|--------|--------|--------|--------|--------|--------|--------|
F#|--------|--------|--------|--------|--------|--------|--------|--------|--------|
 D|--------|--------|--------|--------|--------|--------|--------|--------|--------|
 A|--------|--------|--------|--------|--------|--------|--------|--------|--------|
 E|--------|--------|--------|--------|--------|--------|--------|--------|--------|
 B|--------|--------|--------|--------|--------|--------|--------|--------|--------|


 B|--------|--------|---------------------------------|---------------------------------|
F#|--------|--------|---------------------------------|---------------------------------|
 D|--------|--------|-----6-------6-------6---9---6---|-----6-------6-------6---9---6---|
 A|--------|--------|---------------------------------|---------------------------------|
 E|--------|--------|-9-------9-------9---------------|-9-------9-------9---------------|
 B|--------|--------|---------------------------------|---------------------------------|


 B|---------------------------------|---------------------------------|---------------------------------|
F#|---------------------------------|---------------------------------|---------7---------------7-------|
 D|-----6-------6-------6---9---6---|-----6-------6-------6---9---6---|---------------------------------|
 A|---------------------------------|---------------------------------|-7---9-------9---7---9-------9---|
 E|-9-------9-------9---------------|-9-------9-------9---------------|---------------------------------|
 B|---------------------------------|---------------------------------|---------------------------------|


 B|---------------------------------|---------------------------------|---------------------------------|
F#|---------7---------------7-------|---------10--------------10------|---------10--------------10------|
 D|---------------------------------|---------------------------------|---------------------------------|
 A|-7---9-------9---7---9-------9---|-7---9-------9---7---9-------9---|-7---9-------9---7---9-------9---|
 E|---------------------------------|---------------------------------|---------------------------------|
 B|---------------------------------|---------------------------------|---------------------------------|


 B|--------|--------|--------|--------|--------|--------|--------|--------|--------|
F#|--------|--------|--------|--------|--------|--------|--------|--------|--------|
 D|--------|--------|--------|--------|--------|--------|--------|--------|--------|
 A|--------|--------|--------|--------|--------|--------|--------|--------|--------|
 E|--------|--------|--------|--------|--------|--------|--------|--------|--------|
 B|--------|--------|--------|--------|--------|--------|--------|--------|--------|


 B|--------|--------|--------|--------|--------|--------|--------|
F#|--------|--------|--------|--------|--------|--------|--------|
 D|--------|--------|--------|--------|--------|--------|--------|
 A|--------|--------|--------|--------|--------|--------|--------|
 E|--------|--------|--------|--------|--------|--------|--------|
 B|--------|--------|--------|--------|--------|--------|--------|





Track 6: Dist 1

 B|--------|--------|--------|--------|--------|--------|--------|--------|--------|
F#|--------|--------|--------|--------|--------|--------|--------|--------|--------|
 D|--------|--------|--------|--------|--------|--------|--------|--------|--------|
 A|--------|--------|--------|--------|--------|--------|--------|--------|--------|
 E|--------|--------|--------|--------|--------|--------|--------|--------|--------|
 B|--------|--------|--------|--------|--------|--------|--------|--------|--------|


 B|--------|--------|--------|--------|--------|--------|--------|--------|--------|
F#|--------|--------|--------|--------|--------|--------|--------|--------|--------|
 D|--------|--------|--------|--------|--------|--------|--------|--------|--------|
 A|--------|--------|--------|--------|--------|--------|--------|--------|--------|
 E|--------|--------|--------|--------|--------|--------|--------|--------|--------|
 B|--------|--------|--------|--------|--------|--------|--------|--------|--------|


 B|--------|--------|--------|--------|--------|--------|--------|--------|--------|
F#|--------|--------|--------|--------|--------|--------|--------|--------|--------|
 D|--------|--------|--------|--------|--------|--------|--------|--------|--------|
 A|--------|--------|--------|--------|--------|--------|--------|--------|--------|
 E|--------|--------|--------|--------|--------|--------|--------|--------|--------|
 B|--------|--------|--------|--------|--------|--------|--------|--------|--------|


 B|--------|--------|--------|--------|--------|--------|--------|--------|--------|
F#|--------|--------|--------|--------|--------|--------|--------|--------|--------|
 D|--------|--------|--------|--------|--------|--------|--------|--------|--------|
 A|--------|--------|--------|--------|--------|--------|--------|--------|--------|
 E|--------|--------|--------|--------|--------|--------|--------|--------|--------|
 B|--------|--------|--------|--------|--------|--------|--------|--------|--------|


 B|--------|--------|--------|--------|--------|--------|--------|--------|--------|
F#|--------|--------|--------|--------|--------|--------|--------|--------|--------|
 D|--------|--------|--------|--------|--------|--------|--------|--------|--------|
 A|--------|--------|--------|--------|--------|--------|--------|--------|--------|
 E|--------|--------|--------|--------|--------|--------|--------|--------|--------|
 B|--------|--------|--------|--------|--------|--------|--------|--------|--------|


 B|--------|--------|--------|--------|--------|--------|--------|--------|--------|
F#|--------|--------|--------|--------|--------|--------|--------|--------|--------|
 D|--------|--------|--------|--------|--------|--------|--------|--------|--------|
 A|--------|--------|--------|--------|--------|--------|--------|--------|--------|
 E|--------|--------|--------|--------|--------|--------|--------|--------|--------|
 B|--------|--------|--------|--------|--------|--------|--------|--------|--------|


 B|--------|--------|--------|--------|--------|--------|--------|--------8---|--------|
F#|--------|--------|--------|--------|-5------|-5------|-2------|-2------10--|--------|
 D|--------|--------|--------|--------|-6------|-6------|-2------|-2------9---|--------|
 A|--------|--------|--------|--------|-7------|-7------|-4------|-4----------|--------|
 E|--------|--------|--------|--------|--------|--------|--------|------------|--------|
 B|--------|--------|--------|--------|-5------|-5------|-2------|-2----------|--------|


 B|--------|--------|--------|--------|--------|--------|--------|--------|--------|
F#|--------|--------|--------|--------|--------|--------|--------|--------|--------|
 D|--------|--------|--------|--------|--------|--------|--------|--------|--------|
 A|--------|--------|--------|--------|--------|--------|--------|--------|--------|
 E|--------|--------|--------|--------|--------|--------|--------|--------|--------|
 B|--------|--------|--------|--------|--------|--------|--------|--------|--------|


 B|--------|--------|--------|--------|--------|--------|--------|--------|--------|
F#|--------|--------|--------|--------|--------|--------|--------|--------|--------|
 D|--------|--------|--------|--------|--------|--------|--------|--------|--------|
 A|--------|--------|--------|--------|--------|--------|--------|--------|--------|
 E|--------|--------|--------|--------|--------|--------|--------|--------|--------|
 B|--------|--------|--------|--------|--------|--------|--------|--------|--------|


 B|--------|--------|--------|--------|--------|--------|--------|--------|--------|
F#|--------|--------|--------|--------|--------|--------|--------|--------|--------|
 D|--------|--------|--------|--------|--------|--------|--------|--------|--------|
 A|--------|--------|--------|--------|--------|--------|--------|--------|--------|
 E|--------|--------|--------|--------|--------|--------|--------|--------|--------|
 B|--------|--------|--------|--------|--------|--------|--------|--------|--------|


 B|--------|--------|--------|--------|--------|--------|--------|--------|--------|
F#|--------|--------|--------|--------|--------|--------|--------|--------|--------|
 D|--------|--------|--------|--------|--------|--------|--------|--------|--------|
 A|--------|--------|--------|--------|--------|--------|--------|--------|--------|
 E|--------|--------|--------|--------|--------|--------|--------|--------|--------|
 B|--------|--------|--------|--------|--------|--------|--------|--------|--------|


 B|--------|--------|--------|--------|--------|--------|--------|--------|--------|
F#|--------|--------|--------|--------|--------|--------|--------|--------|--------|
 D|--------|--------|--------|--------|--------|--------|--------|--------|--------|
 A|--------|--------|--------|--------|--------|--------|--------|--------|--------|
 E|--------|--------|--------|--------|--------|--------|--------|--------|--------|
 B|--------|--------|--------|--------|--------|--------|--------|--------|--------|


 B|--------|--------|--------|--------|--------|--------|--------|--------|--------|
F#|--------|--------|--------|--------|--------|--------|--------|--------|--------|
 D|--------|--------|--------|--------|--------|--------|--------|--------|--------|
 A|--------|--------|--------|--------|--------|--------|--------|--------|--------|
 E|--------|--------|--------|--------|--------|--------|--------|--------|--------|
 B|--------|--------|--------|--------|--------|--------|--------|--------|--------|


 B|--------|--------|--------|--------|--------|--------|--------|--------|--------|
F#|--------|--------|--------|--------|--------|--------|--------|--------|--------|
 D|--------|--------|--------|--------|--------|--------|--------|--------|--------|
 A|--------|--------|--------|--------|--------|--------|--------|--------|--------|
 E|--------|--------|--------|--------|--------|--------|--------|--------|--------|
 B|--------|--------|--------|--------|--------|--------|--------|--------|--------|


 B|--------|--------|--------|--------|--------|--------|--------|--------|--------|
F#|--------|--------|--------|--------|--------|--------|--------|--------|--------|
 D|--------|--------|--------|--------|--------|--------|--------|--------|--------|
 A|--------|--------|--------|--------|--------|--------|--------|--------|--------|
 E|--------|--------|--------|--------|--------|--------|--------|--------|--------|
 B|--------|--------|--------|--------|--------|--------|--------|--------|--------|


 B|--------|--------|--------|--------|--------|--------|--------|--------|--------|
F#|--------|--------|--------|--------|--------|--------|--------|--------|--------|
 D|--------|--------|--------|--------|--------|--------|--------|--------|--------|
 A|--------|--------|--------|--------|--------|--------|--------|--------|--------|
 E|--------|--------|--------|--------|--------|--------|--------|--------|--------|
 B|--------|--------|--------|--------|--------|--------|--------|--------|--------|


 B|--------|--------|--------|--------|--------|--------|--------|--------|--------|
F#|--------|--------|--------|--------|--------|--------|--------|--------|--------|
 D|--------|--------|--------|--------|--------|--------|--------|--------|--------|
 A|--------|--------|--------|--------|--------|--------|--------|--------|--------|
 E|--------|--------|--------|--------|--------|--------|--------|--------|--------|
 B|--------|--------|--------|--------|--------|--------|--------|--------|--------|


 B|--------|--------|--------|--------|--------|--------|--------|--------|--------|
F#|--------|--------|--------|--------|--------|--------|--------|--------|--------|
 D|--------|--------|--------|--------|--------|--------|--------|--------|--------|
 A|--------|--------|--------|--------|--------|--------|--------|--------|--------|
 E|--------|--------|--------|--------|--------|--------|--------|--------|--------|
 B|--------|--------|--------|--------|--------|--------|--------|--------|--------|





Track 7: Dist 1

 B|--------|--------|--------|--------|--------|--------|--------|--------|--------|
F#|--------|--------|--------|--------|--------|--------|--------|--------|--------|
 D|--------|--------|--------|--------|--------|--------|--------|--------|--------|
 A|--------|--------|--------|--------|--------|--------|--------|--------|--------|
 E|--------|--------|--------|--------|--------|--------|--------|--------|--------|
 B|--------|--------|--------|--------|--------|--------|--------|--------|--------|


 B|--------|--------|--------|--------|--------|--------|--------|--------|--------|
F#|--------|--------|--------|--------|--------|--------|--------|--------|--------|
 D|--------|--------|--------|--------|--------|--------|--------|--------|--------|
 A|--------|--------|--------|--------|--------|--------|--------|--------|--------|
 E|--------|--------|--------|--------|--------|--------|--------|--------|--------|
 B|--------|--------|--------|--------|--------|--------|--------|--------|--------|


 B|--------|--------|--------|--------|--------|--------|--------|--------|--------|
F#|--------|--------|--------|--------|--------|--------|--------|--------|--------|
 D|--------|--------|--------|--------|--------|--------|--------|--------|--------|
 A|--------|--------|--------|--------|--------|--------|--------|--------|--------|
 E|--------|--------|--------|--------|--------|--------|--------|--------|--------|
 B|--------|--------|--------|--------|--------|--------|--------|--------|--------|


 B|--------|--------|--------|--------|--------|--------|--------|--------|--------|
F#|--------|--------|--------|--------|--------|--------|--------|--------|--------|
 D|--------|--------|--------|--------|--------|--------|--------|--------|--------|
 A|--------|--------|--------|--------|--------|--------|--------|--------|--------|
 E|--------|--------|--------|--------|--------|--------|--------|--------|--------|
 B|--------|--------|--------|--------|--------|--------|--------|--------|--------|


 B|--------|--------|--------|--------|--------|--------|--------|--------|--------|
F#|--------|--------|--------|--------|--------|--------|--------|--------|--------|
 D|--------|--------|--------|--------|--------|--------|--------|--------|--------|
 A|--------|--------|--------|--------|--------|--------|--------|--------|--------|
 E|--------|--------|--------|--------|--------|--------|--------|--------|--------|
 B|--------|--------|--------|--------|--------|--------|--------|--------|--------|


 B|--------|--------|--------|--------|--------|--------|--------|--------|--------|
F#|--------|--------|--------|--------|--------|--------|--------|--------|--------|
 D|--------|--------|--------|--------|--------|--------|--------|--------|--------|
 A|--------|--------|--------|--------|--------|--------|--------|--------|--------|
 E|--------|--------|--------|--------|--------|--------|--------|--------|--------|
 B|--------|--------|--------|--------|--------|--------|--------|--------|--------|


 B|--------|--------|--------|--------|--------|--------|--------|--------|--------|
F#|--------|--------|--------|--------|--------|--------|--------|--------|--------|
 D|--------|--------|--------|--------|--------|--------|--------|--------|--------|
 A|--------|--------|--------|--------|--------|--------|--------|--------|--------|
 E|--------|--------|--------|--------|--------|--------|--------|--------|--------|
 B|--------|--------|--------|--------|--------|--------|--------|--------|--------|


 B|--------|--------|--------|--------|--------|--------|--------|--------|--------|
F#|--------|--------|--------|--------|--------|--------|--------|--------|--------|
 D|--------|--------|--------|--------|--------|--------|--------|--------|--------|
 A|--------|--------|--------|--------|--------|--------|--------|--------|--------|
 E|--------|--------|--------|--------|--------|--------|--------|--------|--------|
 B|--------|--------|--------|--------|--------|--------|--------|--------|--------|


 B|--------|--------|--------|--------|--------|--------|--------|--------|--------|
F#|--------|--------|--------|--------|--------|--------|--------|--------|--------|
 D|--------|--------|--------|--------|--------|--------|--------|--------|--------|
 A|--------|--------|--------|--------|--------|--------|--------|--------|--------|
 E|--------|--------|--------|--------|--------|--------|--------|--------|--------|
 B|--------|--------|--------|--------|--------|--------|--------|--------|--------|


 B|--------|--------|--------|--------|--------|--------|--------|--------|--------|
F#|--------|--------|--------|--------|--------|--------|--------|--------|--------|
 D|--------|--------|--------|--------|--------|--------|--------|--------|--------|
 A|--------|--------|--------|--------|--------|--------|--------|--------|--------|
 E|--------|--------|--------|--------|--------|--------|--------|--------|--------|
 B|--------|--------|--------|--------|--------|--------|--------|--------|--------|


 B|--------|--------|--------|--------8---|--------|--------|--------|--------|--------|
F#|-5------|-5------|-2------|-2------10--|--------|--------|--------|--------|--------|
 D|-6------|-6------|-2------|-2------9---|--------|--------|--------|--------|--------|
 A|-7------|-7------|-4------|-4----------|--------|--------|--------|--------|--------|
 E|--------|--------|--------|------------|--------|--------|--------|--------|--------|
 B|-5------|-5------|-2------|-2----------|--------|--------|--------|--------|--------|


 B|--------|--------|--------|--------|--------|--------|--------|--------|--------|
F#|--------|--------|--------|--------|--------|--------|--------|--------|--------|
 D|--------|--------|--------|--------|--------|--------|--------|--------|--------|
 A|--------|--------|--------|--------|--------|--------|--------|--------|--------|
 E|--------|--------|--------|--------|--------|--------|--------|--------|--------|
 B|--------|--------|--------|--------|--------|--------|--------|--------|--------|


 B|--------|--------|--------|--------|--------|--------|--------|--------|--------|
F#|--------|--------|--------|--------|--------|--------|--------|--------|--------|
 D|--------|--------|--------|--------|--------|--------|--------|--------|--------|
 A|--------|--------|--------|--------|--------|--------|--------|--------|--------|
 E|--------|--------|--------|--------|--------|--------|--------|--------|--------|
 B|--------|--------|--------|--------|--------|--------|--------|--------|--------|


 B|--------|--------|--------|--------|--------|--------|--------|--------|--------|
F#|--------|--------|--------|--------|--------|--------|--------|--------|--------|
 D|--------|--------|--------|--------|--------|--------|--------|--------|--------|
 A|--------|--------|--------|--------|--------|--------|--------|--------|--------|
 E|--------|--------|--------|--------|--------|--------|--------|--------|--------|
 B|--------|--------|--------|--------|--------|--------|--------|--------|--------|


 B|--------|--------|--------|--------|--------|--------|--------|--------|--------|
F#|--------|--------|--------|--------|--------|--------|--------|--------|--------|
 D|--------|--------|--------|--------|--------|--------|--------|--------|--------|
 A|--------|--------|--------|--------|--------|--------|--------|--------|--------|
 E|--------|--------|--------|--------|--------|--------|--------|--------|--------|
 B|--------|--------|--------|--------|--------|--------|--------|--------|--------|


 B|--------|--------|--------|--------|--------|--------|--------|--------|--------|
F#|--------|--------|--------|--------|--------|--------|--------|--------|--------|
 D|--------|--------|--------|--------|--------|--------|--------|--------|--------|
 A|--------|--------|--------|--------|--------|--------|--------|--------|--------|
 E|--------|--------|--------|--------|--------|--------|--------|--------|--------|
 B|--------|--------|--------|--------|--------|--------|--------|--------|--------|


 B|--------|--------|--------|--------|--------|--------|--------|--------|--------|
F#|--------|--------|--------|--------|--------|--------|--------|--------|--------|
 D|--------|--------|--------|--------|--------|--------|--------|--------|--------|
 A|--------|--------|--------|--------|--------|--------|--------|--------|--------|
 E|--------|--------|--------|--------|--------|--------|--------|--------|--------|
 B|--------|--------|--------|--------|--------|--------|--------|--------|--------|


 B|--------|--------|--------|--------|--------|--------|--------|--------|--------|
F#|--------|--------|--------|--------|--------|--------|--------|--------|--------|
 D|--------|--------|--------|--------|--------|--------|--------|--------|--------|
 A|--------|--------|--------|--------|--------|--------|--------|--------|--------|
 E|--------|--------|--------|--------|--------|--------|--------|--------|--------|
 B|--------|--------|--------|--------|--------|--------|--------|--------|--------|





Track 8: Solo Guitar

 B|--------|--------|--------|--------|--------|--------|--------|--------|--------|
F#|--------|--------|--------|--------|--------|--------|--------|--------|--------|
 D|--------|--------|--------|--------|--------|--------|--------|--------|--------|
 A|--------|--------|--------|--------|--------|--------|--------|--------|--------|
 E|--------|--------|--------|--------|--------|--------|--------|--------|--------|
 B|--------|--------|--------|--------|--------|--------|--------|--------|--------|


 B|--------|--------|--------|--------|--------|--------|--------|--------|--------|
F#|--------|--------|--------|--------|--------|--------|--------|--------|--------|
 D|--------|--------|--------|--------|--------|--------|--------|--------|--------|
 A|--------|--------|--------|--------|--------|--------|--------|--------|--------|
 E|--------|--------|--------|--------|--------|--------|--------|--------|--------|
 B|--------|--------|--------|--------|--------|--------|--------|--------|--------|


 B|--------|--------|--------|--------|--------|--------|--------|--------|--------|
F#|--------|--------|--------|--------|--------|--------|--------|--------|--------|
 D|--------|--------|--------|--------|--------|--------|--------|--------|--------|
 A|--------|--------|--------|--------|--------|--------|--------|--------|--------|
 E|--------|--------|--------|--------|--------|--------|--------|--------|--------|
 B|--------|--------|--------|--------|--------|--------|--------|--------|--------|


 B|--------|--------|--------|--------|--------|--------|--------|--------|--------|
F#|--------|--------|--------|--------|--------|--------|--------|--------|--------|
 D|--------|--------|--------|--------|--------|--------|--------|--------|--------|
 A|--------|--------|--------|--------|--------|--------|--------|--------|--------|
 E|--------|--------|--------|--------|--------|--------|--------|--------|--------|
 B|--------|--------|--------|--------|--------|--------|--------|--------|--------|


 B|--------|--------|--------|--------|--------|--------|--------|--------|--------|
F#|--------|--------|--------|--------|--------|--------|--------|--------|--------|
 D|--------|--------|--------|--------|--------|--------|--------|--------|--------|
 A|--------|--------|--------|--------|--------|--------|--------|--------|--------|
 E|--------|--------|--------|--------|--------|--------|--------|--------|--------|
 B|--------|--------|--------|--------|--------|--------|--------|--------|--------|


 B|--------|--------|--------|--------|--------|--------|--------|--------|--------|
F#|--------|--------|--------|--------|--------|--------|--------|--------|--------|
 D|--------|--------|--------|--------|--------|--------|--------|--------|--------|
 A|--------|--------|--------|--------|--------|--------|--------|--------|--------|
 E|--------|--------|--------|--------|--------|--------|--------|--------|--------|
 B|--------|--------|--------|--------|--------|--------|--------|--------|--------|


 B|--------|--------|--------|--------|--------|--------|--------|--------|--------|
F#|--------|--------|--------|--------|--------|--------|--------|--------|--------|
 D|--------|--------|--------|--------|--------|--------|--------|--------|--------|
 A|--------|--------|--------|--------|--------|--------|--------|--------|--------|
 E|--------|--------|--------|--------|--------|--------|--------|--------|--------|
 B|--------|--------|--------|--------|--------|--------|--------|--------|--------|


 B|--------|--------|--------|--------|--------|--------|--------|--------|--------|
F#|--------|--------|--------|--------|--------|--------|--------|--------|--------|
 D|--------|--------|--------|--------|--------|--------|--------|--------|--------|
 A|--------|--------|--------|--------|--------|--------|--------|--------|--------|
 E|--------|--------|--------|--------|--------|--------|--------|--------|--------|
 B|--------|--------|--------|--------|--------|--------|--------|--------|--------|


 B|--------|--------|--------|--------|--------|--------|--------|--------|--------|
F#|--------|--------|--------|--------|--------|--------|--------|--------|--------|
 D|--------|--------|--------|--------|--------|--------|--------|--------|--------|
 A|--------|--------|--------|--------|--------|--------|--------|--------|--------|
 E|--------|--------|--------|--------|--------|--------|--------|--------|--------|
 B|--------|--------|--------|--------|--------|--------|--------|--------|--------|


 B|--------|--------|--------|--------|--------|--------|--------|--------|--------|
F#|--------|--------|--------|--------|--------|--------|--------|--------|--------|
 D|--------|--------|--------|--------|--------|--------|--------|--------|--------|
 A|--------|--------|--------|--------|--------|--------|--------|--------|--------|
 E|--------|--------|--------|--------|--------|--------|--------|--------|--------|
 B|--------|--------|--------|--------|--------|--------|--------|--------|--------|


 B|--------|--------|--------|--------|--------|--------|--------|--------|--------|
F#|--------|--------|--------|--------|--------|--------|--------|--------|--------|
 D|--------|--------|--------|--------|--------|--------|--------|--------|--------|
 A|--------|--------|--------|--------|--------|--------|--------|--------|--------|
 E|--------|--------|--------|--------|--------|--------|--------|--------|--------|
 B|--------|--------|--------|--------|--------|--------|--------|--------|--------|


 B|--------|--------|--------|--------|--------|--------|--------|--------|--------|
F#|--------|--------|--------|--------|--------|--------|--------|--------|--------|
 D|--------|--------|--------|--------|--------|--------|--------|--------|--------|
 A|--------|--------|--------|--------|--------|--------|--------|--------|--------|
 E|--------|--------|--------|--------|--------|--------|--------|--------|--------|
 B|--------|--------|--------|--------|--------|--------|--------|--------|--------|


 B|--------|--------|--------|--------|--------|--------|---------------------------------|
F#|--------|--------|--------|--------|--------|--------|-12------11------------------12--|
 D|--------|--------|--------|--------|--------|--------|-----------------11--13----------|
 A|--------|--------|--------|--------|--------|--------|-----13------13----------13------|
 E|--------|--------|--------|--------|--------|--------|---------------------------------|
 B|--------|--------|--------|--------|--------|--------|---------------------------------|


 B|---------------------------------|---------------------------------|---------------------------------|
F#|-----11--------------------------|-12------11------------------12--|-----11--------------------------|
 D|-------------13------11--13------|-----------------11--13----------|-------------13------11--13------|
 A|-13------13------13----------13--|-----13------13----------13------|-13------13------13----------13--|
 E|---------------------------------|---------------------------------|---------------------------------|
 B|---------------------------------|---------------------------------|---------------------------------|


 B|---------------------------------|---------------------------------|---------------------------------|
F#|-9---------------------------9---|---------------------------------|-9---------------------------9---|
 D|---------11------9---11----------|-----11------9---11------11------|---------11------9---11----------|
 A|-----11------11----------11------|-11------11----------11------11--|-----11------11----------11------|
 E|---------------------------------|---------------------------------|---------------------------------|
 B|---------------------------------|---------------------------------|---------------------------------|


 B|---------------------------------|---------------------------------|---------------------------------|
F#|---------------------------------|-12------11------------------12--|-----11--------------------------|
 D|-----11------9---11------11------|-----------------11--13----------|-------------13------11--13------|
 A|-11------11----------11------11--|-----13------13----------13------|-13------13------13----------13--|
 E|---------------------------------|---------------------------------|---------------------------------|
 B|---------------------------------|---------------------------------|---------------------------------|


 B|---------------------------------|---------------------------------|---------------------------------|
F#|-12------11------------------12--|-----11--------------------------|-9---------------------------9---|
 D|-----------------11--13----------|-------------13------11--13------|---------11------9---11----------|
 A|-----13------13----------13------|-13------13------13----------13--|-----11------11----------11------|
 E|---------------------------------|---------------------------------|---------------------------------|
 B|---------------------------------|---------------------------------|---------------------------------|


 B|---------------------------------|---------------------------------|---------------------------------|
F#|---------------------------------|-9---------------------------9---|---------------------------------|
 D|-----11------9---11------11------|---------11------9---11----------|-----11------9---11------11------|
 A|-11------11----------11------11--|-----11------11----------11------|-11------11----------11------11--|
 E|---------------------------------|---------------------------------|---------------------------------|
 B|---------------------------------|---------------------------------|---------------------------------|


 B|-------------------------------|-------------------------------|-----------5----6----5---------|
F#|-7-----8--7--5--7-----8--7--5--|-7-----8--7--5--7-----8--7--5--|-7----8-------------------8----|
 D|-------------------------------|-------------------------------|-------------------------------|
 A|-------------------------------|-------------------------------|-------------------------------|
 E|-------------------------------|-------------------------------|-------------------------------|
 B|-------------------------------|-------------------------------|-------------------------------|


 B|-----------------------------------------|------------|----------------------|--------|
F#|-7--8--11-8--11-8--7--8--11-8-------7----|------------|----------------------|--------|
 D|-------------------------------9---------|-9---6------|-6-----4----6----4----|-3------|
 A|-----------------------------------------|------------|----------------------|--------|
 E|-----------------------------------------|------------|----------------------|--------|
 B|-----------------------------------------|------------|----------------------|--------|


 B|-6--------------------6--7-----|--------|--------|--------|--------|--------|--------|
F#|----7--5-----------7-----------|--------|--------|--------|--------|--------|--------|
 D|----------6-----6--------------|--------|--------|--------|--------|--------|--------|
 A|-------------8-----------------|--------|--------|--------|--------|--------|--------|
 E|-------------------------------|--------|--------|--------|--------|--------|--------|
 B|-------------------------------|--------|--------|--------|--------|--------|--------|


 B|--------|--------|--------|--------|--------|--------|--------|--------|--------|
F#|--------|--------|--------|--------|--------|--------|--------|--------|--------|
 D|--------|--------|--------|--------|--------|--------|--------|--------|--------|
 A|--------|--------|--------|--------|--------|--------|--------|--------|--------|
 E|--------|--------|--------|--------|--------|--------|--------|--------|--------|
 B|--------|--------|--------|--------|--------|--------|--------|--------|--------|


 B|--------|--------|--------|--------|--------|--------|--------|--------|--------|
F#|--------|--------|--------|--------|--------|--------|--------|--------|--------|
 D|--------|--------|--------|--------|--------|--------|--------|--------|--------|
 A|--------|--------|--------|--------|--------|--------|--------|--------|--------|
 E|--------|--------|--------|--------|--------|--------|--------|--------|--------|
 B|--------|--------|--------|--------|--------|--------|--------|--------|--------|





Track 9: Harmonize Guitar On Solo

 B|--------|--------|--------|--------|--------|--------|--------|--------|--------|
F#|--------|--------|--------|--------|--------|--------|--------|--------|--------|
 D|--------|--------|--------|--------|--------|--------|--------|--------|--------|
 A|--------|--------|--------|--------|--------|--------|--------|--------|--------|
 E|--------|--------|--------|--------|--------|--------|--------|--------|--------|
 B|--------|--------|--------|--------|--------|--------|--------|--------|--------|


 B|--------|--------|--------|--------|--------|--------|--------|--------|--------|
F#|--------|--------|--------|--------|--------|--------|--------|--------|--------|
 D|--------|--------|--------|--------|--------|--------|--------|--------|--------|
 A|--------|--------|--------|--------|--------|--------|--------|--------|--------|
 E|--------|--------|--------|--------|--------|--------|--------|--------|--------|
 B|--------|--------|--------|--------|--------|--------|--------|--------|--------|


 B|--------|--------|--------|--------|--------|--------|--------|--------|--------|
F#|--------|--------|--------|--------|--------|--------|--------|--------|--------|
 D|--------|--------|--------|--------|--------|--------|--------|--------|--------|
 A|--------|--------|--------|--------|--------|--------|--------|--------|--------|
 E|--------|--------|--------|--------|--------|--------|--------|--------|--------|
 B|--------|--------|--------|--------|--------|--------|--------|--------|--------|


 B|--------|--------|--------|--------|--------|--------|--------|--------|--------|
F#|--------|--------|--------|--------|--------|--------|--------|--------|--------|
 D|--------|--------|--------|--------|--------|--------|--------|--------|--------|
 A|--------|--------|--------|--------|--------|--------|--------|--------|--------|
 E|--------|--------|--------|--------|--------|--------|--------|--------|--------|
 B|--------|--------|--------|--------|--------|--------|--------|--------|--------|


 B|--------|--------|--------|--------|--------|--------|--------|--------|--------|
F#|--------|--------|--------|--------|--------|--------|--------|--------|--------|
 D|--------|--------|--------|--------|--------|--------|--------|--------|--------|
 A|--------|--------|--------|--------|--------|--------|--------|--------|--------|
 E|--------|--------|--------|--------|--------|--------|--------|--------|--------|
 B|--------|--------|--------|--------|--------|--------|--------|--------|--------|


 B|--------|--------|--------|--------|--------|--------|--------|--------|--------|
F#|--------|--------|--------|--------|--------|--------|--------|--------|--------|
 D|--------|--------|--------|--------|--------|--------|--------|--------|--------|
 A|--------|--------|--------|--------|--------|--------|--------|--------|--------|
 E|--------|--------|--------|--------|--------|--------|--------|--------|--------|
 B|--------|--------|--------|--------|--------|--------|--------|--------|--------|


 B|--------|--------|--------|--------|--------|--------|--------|--------|--------|
F#|--------|--------|--------|--------|--------|--------|--------|--------|--------|
 D|--------|--------|--------|--------|--------|--------|--------|--------|--------|
 A|--------|--------|--------|--------|--------|--------|--------|--------|--------|
 E|--------|--------|--------|--------|--------|--------|--------|--------|--------|
 B|--------|--------|--------|--------|--------|--------|--------|--------|--------|


 B|--------|--------|--------|--------|--------|--------|--------|--------|--------|
F#|--------|--------|--------|--------|--------|--------|--------|--------|--------|
 D|--------|--------|--------|--------|--------|--------|--------|--------|--------|
 A|--------|--------|--------|--------|--------|--------|--------|--------|--------|
 E|--------|--------|--------|--------|--------|--------|--------|--------|--------|
 B|--------|--------|--------|--------|--------|--------|--------|--------|--------|


 B|--------|--------|--------|--------|--------|--------|--------|--------|--------|
F#|--------|--------|--------|--------|--------|--------|--------|--------|--------|
 D|--------|--------|--------|--------|--------|--------|--------|--------|--------|
 A|--------|--------|--------|--------|--------|--------|--------|--------|--------|
 E|--------|--------|--------|--------|--------|--------|--------|--------|--------|
 B|--------|--------|--------|--------|--------|--------|--------|--------|--------|


 B|--------|--------|--------|--------|--------|--------|--------|--------|--------|
F#|--------|--------|--------|--------|--------|--------|--------|--------|--------|
 D|--------|--------|--------|--------|--------|--------|--------|--------|--------|
 A|--------|--------|--------|--------|--------|--------|--------|--------|--------|
 E|--------|--------|--------|--------|--------|--------|--------|--------|--------|
 B|--------|--------|--------|--------|--------|--------|--------|--------|--------|


 B|--------|--------|--------|--------|--------|--------|--------|--------|--------|
F#|--------|--------|--------|--------|--------|--------|--------|--------|--------|
 D|--------|--------|--------|--------|--------|--------|--------|--------|--------|
 A|--------|--------|--------|--------|--------|--------|--------|--------|--------|
 E|--------|--------|--------|--------|--------|--------|--------|--------|--------|
 B|--------|--------|--------|--------|--------|--------|--------|--------|--------|


 B|--------|--------|--------|--------|--------|--------|--------|--------|--------|
F#|--------|--------|--------|--------|--------|--------|--------|--------|--------|
 D|--------|--------|--------|--------|--------|--------|--------|--------|--------|
 A|--------|--------|--------|--------|--------|--------|--------|--------|--------|
 E|--------|--------|--------|--------|--------|--------|--------|--------|--------|
 B|--------|--------|--------|--------|--------|--------|--------|--------|--------|


 B|--------|--------|--------|--------|--------|--------|--------|--------|--------|
F#|--------|--------|--------|--------|--------|--------|--------|--------|--------|
 D|--------|--------|--------|--------|--------|--------|--------|--------|--------|
 A|--------|--------|--------|--------|--------|--------|--------|--------|--------|
 E|--------|--------|--------|--------|--------|--------|--------|--------|--------|
 B|--------|--------|--------|--------|--------|--------|--------|--------|--------|


 B|--------|--------|--------|--------|--------|--------|--------|--------|--------|
F#|--------|--------|--------|--------|--------|--------|--------|--------|--------|
 D|--------|--------|--------|--------|--------|--------|--------|--------|--------|
 A|--------|--------|--------|--------|--------|--------|--------|--------|--------|
 E|--------|--------|--------|--------|--------|--------|--------|--------|--------|
 B|--------|--------|--------|--------|--------|--------|--------|--------|--------|


 B|--------|--------|--------|--------|--------|--------|--------|--------|------------|
F#|--------|--------|--------|--------|--------|--------|--------|--------|-5---7------|
 D|--------|--------|--------|--------|--------|--------|--------|--------|------------|
 A|--------|--------|--------|--------|--------|--------|--------|--------|------------|
 E|--------|--------|--------|--------|--------|--------|--------|--------|------------|
 B|--------|--------|--------|--------|--------|--------|--------|--------|------------|


 B|----------------------|--------|-9-----------------------10----|--------|--------|
F#|-7-----5----7----5----|--------|----10-9-----------9--10-------|--------|--------|
 D|----------------------|-6------|----------10----10-------------|--------|--------|
 A|----------------------|--------|-------------11----------------|--------|--------|
 E|----------------------|--------|-------------------------------|--------|--------|
 B|----------------------|--------|-------------------------------|--------|--------|


 B|--------|--------|--------|--------|--------|--------|--------|--------|--------|
F#|--------|--------|--------|--------|--------|--------|--------|--------|--------|
 D|--------|--------|--------|--------|--------|--------|--------|--------|--------|
 A|--------|--------|--------|--------|--------|--------|--------|--------|--------|
 E|--------|--------|--------|--------|--------|--------|--------|--------|--------|
 B|--------|--------|--------|--------|--------|--------|--------|--------|--------|


 B|--------|--------|--------|--------|--------|--------|--------|--------|--------|
F#|--------|--------|--------|--------|--------|--------|--------|--------|--------|
 D|--------|--------|--------|--------|--------|--------|--------|--------|--------|
 A|--------|--------|--------|--------|--------|--------|--------|--------|--------|
 E|--------|--------|--------|--------|--------|--------|--------|--------|--------|
 B|--------|--------|--------|--------|--------|--------|--------|--------|--------|


 B|--------|--------|--------|--------|
F#|--------|--------|--------|--------|
 D|--------|--------|--------|--------|
 A|--------|--------|--------|--------|
 E|--------|--------|--------|--------|
 B|--------|--------|--------|--------|





Track 10: Dist 1

 B|--------|--------|--------|--------|--------|--------|--------|--------|--------|
F#|--------|--------|--------|--------|--------|--------|--------|--------|--------|
 D|--------|--------|--------|--------|--------|--------|--------|--------|--------|
 A|--------|--------|--------|--------|--------|--------|--------|--------|--------|
 E|--------|--------|--------|--------|--------|--------|--------|--------|--------|
 B|--------|--------|--------|--------|--------|--------|--------|--------|--------|


 B|--------|--------|--------|--------|--------|--------|--------|--------|--------|
F#|--------|--------|--------|--------|--------|--------|--------|--------|--------|
 D|--------|--------|--------|--------|--------|--------|--------|--------|--------|
 A|--------|--------|--------|--------|--------|--------|--------|--------|--------|
 E|--------|--------|--------|--------|--------|--------|--------|--------|--------|
 B|--------|--------|--------|--------|--------|--------|--------|--------|--------|


 B|--------|--------|--------|--------|--------|--------|--------|--------|--------|
F#|--------|--------|--------|--------|--------|--------|--------|--------|--------|
 D|--------|--------|--------|--------|--------|--------|--------|--------|--------|
 A|--------|--------|--------|--------|--------|--------|--------|--------|--------|
 E|--------|--------|--------|--------|--------|--------|--------|--------|--------|
 B|--------|--------|--------|--------|--------|--------|--------|--------|--------|


 B|--------|--------|--------|--------|--------|--------|--------|--------|--------|
F#|--------|--------|--------|--------|--------|--------|--------|--------|--------|
 D|--------|--------|--------|--------|--------|--------|--------|--------|--------|
 A|--------|--------|--------|--------|--------|--------|--------|--------|--------|
 E|--------|--------|--------|--------|--------|--------|--------|--------|--------|
 B|--------|--------|--------|--------|--------|--------|--------|--------|--------|


 B|--------|--------|--------|--------|--------|--------|--------|--------|--------|
F#|--------|--------|--------|--------|--------|--------|--------|--------|--------|
 D|--------|--------|--------|--------|--------|--------|--------|--------|--------|
 A|--------|--------|--------|--------|--------|--------|--------|--------|--------|
 E|--------|--------|--------|--------|--------|--------|--------|--------|--------|
 B|--------|--------|--------|--------|--------|--------|--------|--------|--------|


 B|--------|--------|--------|--------|--------|--------|--------|--------|--------|
F#|--------|--------|--------|--------|--------|--------|--------|--------|--------|
 D|--------|--------|--------|--------|--------|--------|--------|--------|--------|
 A|--------|--------|--------|--------|--------|--------|--------|--------|--------|
 E|--------|--------|--------|--------|--------|--------|--------|--------|--------|
 B|--------|--------|--------|--------|--------|--------|--------|--------|--------|


 B|--------|--------|--------|--------|--------|--------|--------|--------|--------|
F#|--------|--------|--------|--------|--------|--------|--------|--------|--------|
 D|--------|--------|--------|--------|--------|--------|--------|--------|--------|
 A|--------|--------|--------|--------|--------|--------|--------|--------|--------|
 E|--------|--------|--------|--------|--------|--------|--------|--------|--------|
 B|--------|--------|--------|--------|--------|--------|--------|--------|--------|


 B|--------|--------|--------|--------|--------|--------|--------|--------|--------|
F#|--------|--------|--------|--------|--------|--------|--------|--------|--------|
 D|--------|--------|--------|--------|--------|--------|--------|--------|--------|
 A|--------|--------|--------|--------|--------|--------|--------|--------|--------|
 E|--------|--------|--------|--------|--------|--------|--------|--------|--------|
 B|--------|--------|--------|--------|--------|--------|--------|--------|--------|


 B|--------|--------|--------|--------|--------|--------|--------|--------|--------|
F#|--------|--------|--------|--------|--------|--------|--------|--------|--------|
 D|--------|--------|--------|--------|--------|--------|--------|--------|--------|
 A|--------|--------|--------|--------|--------|--------|--------|--------|--------|
 E|--------|--------|--------|--------|--------|--------|--------|--------|--------|
 B|--------|--------|--------|--------|--------|--------|--------|--------|--------|


 B|--------|--------|--------|--------|--------|--------|--------|--------|--------|
F#|--------|--------|--------|--------|--------|--------|--------|--------|--------|
 D|--------|--------|--------|--------|--------|--------|--------|--------|--------|
 A|--------|--------|--------|--------|--------|--------|--------|--------|--------|
 E|--------|--------|--------|--------|--------|--------|--------|--------|--------|
 B|--------|--------|--------|--------|--------|--------|--------|--------|--------|


 B|--------|--------|--------|--------|--------|--------|--------|--------|--------|
F#|--------|--------|--------|--------|--------|--------|--------|--------|--------|
 D|--------|--------|--------|--------|--------|--------|--------|--------|--------|
 A|--------|--------|--------|--------|--------|--------|--------|--------|--------|
 E|--------|--------|--------|--------|--------|--------|--------|--------|--------|
 B|--------|--------|--------|--------|--------|--------|--------|--------|--------|


 B|--------|--------|--------|--------|--------|--------|--------|--------|--------|
F#|--------|--------|--------|--------|--------|--------|--------|--------|--------|
 D|--------|--------|--------|--------|--------|--------|--------|--------|--------|
 A|--------|--------|--------|--------|--------|--------|--------|--------|--------|
 E|--------|--------|--------|--------|--------|--------|--------|--------|--------|
 B|--------|--------|--------|--------|--------|--------|--------|--------|--------|


 B|--------|--------|--------|--------|--------|--------|--------|--------|--------|
F#|--------|--------|--------|--------|--------|--------|--------|--------|--------|
 D|--------|--------|--------|--------|--------|--------|--------|--------|--------|
 A|--------|--------|--------|--------|--------|--------|--------|--------|--------|
 E|--------|--------|--------|--------|--------|--------|--------|--------|--------|
 B|--------|--------|--------|--------|--------|--------|--------|--------|--------|


 B|--------|--------|--------|--------|--------|--------|--------|--------|--------|
F#|--------|--------|--------|--------|--------|--------|--------|--------|--------|
 D|--------|--------|--------|--------|--------|--------|--------|--------|--------|
 A|--------|--------|--------|--------|--------|--------|--------|--------|--------|
 E|--------|--------|--------|--------|--------|--------|--------|--------|--------|
 B|--------|--------|--------|--------|--------|--------|--------|--------|--------|


 B|--------|--------|--------|--------|--------|--------|--------|--------|--------|
F#|--------|--------|--------|--------|--------|--------|--------|--------|--------|
 D|--------|--------|--------|--------|--------|--------|--------|--------|--------|
 A|--------|--------|--------|--------|--------|--------|--------|--------|--------|
 E|--------|--------|--------|--------|--------|--------|--------|--------|--------|
 B|--------|--------|--------|--------|--------|--------|--------|--------|--------|


 B|--------|--------|--------|--------|--------|--------|--------|--------|--------|
F#|--------|--------|--------|--------|--------|--------|--------|--------|--------|
 D|--------|--------|--------|--------|--------|--------|--------|--------|--------|
 A|--------|--------|--------|--------|--------|--------|--------|--------|--------|
 E|--------|--------|--------|--------|--------|--------|--------|--------|--------|
 B|--------|--------|--------|--------|--------|--------|--------|--------|--------|


 B|--------|--------|--------|--------|--------|--------|--------|--------|--------|
F#|--------|--------|--------|--------|--------|--------|--------|--------|--------|
 D|--------|--------|--------|--------|--------|--------|--------|--------|--------|
 A|--------|--------|--------|--------|--------|--------|--------|--------|--------|
 E|--------|--------|--------|--------|--------|--------|--------|--------|--------|
 B|--------|--------|--------|--------|--------|--------|--------|--------|--------|


 B|--------|--------|--------|--------|--------8---|--------|--------|--------|--------|
F#|--------|-5------|-5------|-2------|-2------10--|--------|--------|--------|--------|
 D|--------|-6------|-6------|-2------|-2------9---|--------|--------|--------|--------|
 A|--------|-7------|-7------|-4------|-4----------|--------|--------|--------|--------|
 E|--------|--------|--------|--------|------------|--------|--------|--------|--------|
 B|--------|-5------|-5------|-2------|-2----------|--------|--------|--------|--------|





Track 11: Bass

D|--------|--------|--------|--------|--------|--------|--------|--------|--------|
A|--------|--------|--------|--------|--------|--------|--------|--------|--------|
E|--------|--------|--------|--------|--------|--------|--------|--------|--------|
B|--------|--------|--------|--------|--------|--------|--------|--------|--------|


D|--------|---------------------------------|---------------------------------|---------------------------------|
A|--------|---------------------------------|---------------------------------|---------------------------------|
E|--------|---------------------------------|---------------------------------|---------------------------------|
B|--------|-5---5---5---5---5---5---5---5---|-5---5---5---5---5---5---5---5---|-2---2---2---2---2---2---2---2---|


D|---------------------------------|---------------------------------|---------------------------------|
A|---------------------------------|---------------------------------|---------------------------------|
E|---------------------------------|---------------------------------|---------------------------------|
B|-2---2---2---2---2---2---2---5---|-5---4---0---0---1---0---0---5---|-4---0---0---0---1---1---1---5---|


D|---------------------------------|---------------------------------|---------------------------------|
A|---------------------------------|---------------------------------|---------------------------------|
E|---------------------------------|---------------------------------|---------------------------------|
B|-5---4---0---0---1---0---0---5---|-4---0---0---0---1---1---1---0---|-5---5---5---5---5---5---5---5---|


D|---------------------------------|---------------------------------|---------------------------------|
A|---------------------------------|---------------------------------|---------------------------------|
E|---------------------------------|---------------------------------|---------------------------------|
B|-5---5---5---5---5---5---5---5---|-2---2---2---2---2---2---2---2---|-2---2---2---2---2---2---2---5---|


D|---------------------------------|---------------------------------|---------------------------------|
A|---------------------------------|---------------------------------|---------------------------------|
E|---------------------------------|---------------------------------|---------------------------------|
B|-5---4---0---0---1---0---0---5---|-4---0---0---0---1---1---1---5---|-5---4---0---0---1---0---0---5---|


D|---------------------------------|-----------------------|--------|-----------------------|
A|---------------------------------|-----------------------|--------|-----------------------|
E|---------------------------------|-----------------------|--------|-----------------------|
B|-4---0---0---0---1---1---1---0---|-0---2---------0---2---|--------|-0---2---------0---2---|


D|--------|-----------------------|--------|-----------------------|--------|-----------------------|
A|--------|-----------------------|--------|-----------------------|--------|-----------------------|
E|--------|-----------------------|--------|-----------------------|--------|-----------------------|
B|--------|-0---2---------0---2---|--------|-0---2---------0---2---|--------|-0---2---------0---2---|


D|--------|-----------------------|--------|-----------------------|--------|-----------------------|
A|--------|-----------------------|--------|-----------------------|--------|-----------------------|
E|--------|-----------------------|--------|-----------------------|--------|-----------------------|
B|--------|-0---2---------0---2---|--------|-0---2---------0---2---|--------|-0---2---------0---2---|


D|-------------|---------------------------------|---------------------------------|
A|-------------|---------------------------------|---------------------------------|
E|--------9----|---------------------------------|---------------------------------|
B|-------------|-0---2---2---2---3---2---0---2---|-2---2---3---2---0---2---2---2---|


D|---------------------------------|---------------------------------|---------------------------------|
A|---------------------------------|---------------------------------|---------------------------------|
E|---------------------------------|---------------------5---5---5---|---------------------------------|
B|-0---2---2---2---3---2---0---2---|-2---0---0---0---0---------------|-0---2---2---2---3---2---0---2---|


D|---------------------------------|---------------------------------|---------------------------------|
A|---------------------------------|---------------------------------|---------------------------------|
E|---------------------------------|---------------------------------|---------------------5---5---5---|
B|-2---2---3---2---0---2---2---2---|-0---2---2---2---3---2---0---2---|-2---0---0---0---0---------------|


D|---------------------------------|---------------------------------|---------------------------------|
A|---------------------------------|---------------------------------|---------------------------------|
E|---------------------------------|---------------------------------|---------------------------------|
B|-5---5---5---5---5---5---5---5---|-5---5---5---5---5---5---5---5---|-2---2---2---2---2---2---2---2---|


D|---------------------------------|---------------------------------|---------------------------------|
A|---------------------------------|---------------------------------|---------------------------------|
E|---------------------------------|---------------------------------|---------------------------------|
B|-2---2---2---2---2---2---2---5---|-5---4---0---0---1---0---0---5---|-4---0---0---0---1---1---1---5---|


D|---------------------------------|---------------------------------|---------------------------------|
A|---------------------------------|---------------------------------|---------------------------------|
E|---------------------------------|---------------------------------|---------------------------------|
B|-5---4---0---0---1---0---0---5---|-4---0---0---0---1---1---1---0---|-5---5---5---5---5---5---5---5---|


D|---------------------------------|---------------------------------|---------------------------------|
A|---------------------------------|---------------------------------|---------------------------------|
E|---------------------------------|---------------------------------|---------------------------------|
B|-5---5---5---5---5---5---5---5---|-2---2---2---2---2---2---2---2---|-2---2---2---2---2---2---2---5---|


D|---------------------------------|---------------------------------|---------------------------------|
A|---------------------------------|---------------------------------|---------------------------------|
E|---------------------------------|---------------------------------|---------------------------------|
B|-5---4---0---0---1---0---0---5---|-4---0---0---0---1---1---1---5---|-5---4---0---0---1---0---0---5---|


D|---------------------------------|-----------------------|--------|-----------------------|
A|---------------------------------|-----------------------|--------|-----------------------|
E|---------------------------------|-----------------------|--------|-----------------------|
B|-4---0---0---0---1---1---1---0---|-0---2---------0---2---|--------|-0---2---------0---2---|


D|--------|-----------------------|--------|-----------------------|-------------|
A|--------|-----------------------|--------|-----------------------|-------------|
E|--------|-----------------------|--------|-----------------------|--------9----|
B|--------|-0---2---------0---2---|--------|-0---2---------0---2---|-------------|


D|---------------------------------|---------------------------------|---------------------------------|
A|---------------------------------|---------------------------------|---------------------------------|
E|---------------------------------|---------------------------------|---------------------------------|
B|-0---2---2---2---3---2---0---2---|-2---2---3---2---0---2---2---2---|-0---2---2---2---3---2---0---2---|


D|---------------------------------|---------------------------------|---------------------------------|
A|---------------------------------|---------------------------------|---------------------------------|
E|---------------------5---5---5---|---------------------------------|---------------------------------|
B|-2---0---0---0---0---------------|-0---2---2---2---3---2---0---2---|-2---2---3---2---0---2---2---2---|


D|---------------------------------|---------------------------------|---------------------------------|
A|---------------------------------|---------------------------------|---------------------------------|
E|---------------------------------|---------------------5---5---5---|---------------------------------|
B|-0---2---2---2---3---2---0---2---|-2---0---0---0---0---------------|-5---5---5---5---5---5---5---5---|


D|---------------------------------|---------------------------------|---------------------------------|
A|---------------------------------|---------------------------------|---------------------------------|
E|---------------------------------|---------------------------------|---------------------------------|
B|-5---5---5---5---5---5---5---5---|-2---2---2---2---2---2---2---2---|-2---2---2---2---2---2---2---5---|


D|---------------------------------|---------------------------------|---------------------------------|
A|---------------------------------|---------------------------------|---------------------------------|
E|---------------------------------|---------------------------------|---------------------------------|
B|-5---4---0---0---1---0---0---5---|-4---0---0---0---1---1---1---5---|-5---4---0---0---1---0---0---5---|


D|---------------------------------|---------------------------------|---------------------------------|
A|---------------------------------|---------------------------------|---------------------------------|
E|---------------------------------|---------------------------------|---------------------------------|
B|-4---0---0---0---1---1---1---0---|-5---5---5---5---5---5---5---5---|-5---5---5---5---5---5---5---5---|


D|---------------------------------|---------------------------------|---------------------------------|
A|---------------------------------|---------------------------------|---------------------------------|
E|---------------------------------|---------------------------------|---------------------------------|
B|-2---2---2---2---2---2---2---2---|-2---2---2---2---2---2---2---5---|-5---4---0---0---1---0---0---5---|


D|---------------------------------|---------------------------------|---------------------------------|
A|---------------------------------|---------------------------------|---------------------------------|
E|---------------------------------|---------------------------------|---------------------------------|
B|-4---0---0---0---1---1---1---5---|-5---4---0---0---1---0---0---5---|-4---0---0---0---1---1---1---0---|


D|--------|--------|------------------------------|------------------------------|
A|--------|--------|------------------------------|------------------------------|
E|--------|--------|------------------------------|------------------------------|
B|--------|--------|-4---4---4---4--------4---4---|-4---4--------4---4---4---4---|


D|---------------------------|---------------------------|---------------------------|
A|---------------------------|---------------------------|---------------------------|
E|---------------------------|---------------------------|---------------------------|
B|-0---0---0----0---0----0---|-0---0---0----0---0----0---|-0---0---0----0---0----0---|


D|---------------------------|---------------------------|---------------------------|
A|---------------------------|---------------------------|---------------------------|
E|---------------------------|---------------------------|---------------------------|
B|-0---0---0----0---0----0---|-4---4---4----4---4----4---|-4---4---4----4---4----4---|


D|---------------------------|---------------------------|---------------------------|
A|---------------------------|---------------------------|---------------------------|
E|---------------------------|---------------------------|---------------------------|
B|-4---4---4----4---4----4---|-4---4---4----4---4----4---|-0---0---0----0---0----0---|


D|---------------------------|---------------------------|---------------------------|
A|---------------------------|---------------------------|---------------------------|
E|---------------------------|---------------------------|---------------------------|
B|-0---0---0----0---0----0---|-0---0---0----0---0----0---|-0---0---0----0---0----0---|


D|---------------------------|---------------------------|---------------------------|
A|---------------------------|---------------------------|---------------------------|
E|---------------------------|---------------------------|---------------------------|
B|-4---4---4----4---4----4---|-4---4---4----4---4----4---|-4---4---4----4---4----4---|


D|---------------------------|---------------------------|---------------------------|
A|---------------------------|---------------------------|---------------------------|
E|---------------------------|---------------------------|---------------------------|
B|-4---4---4----4---4----4---|-0---0---0----0---0----0---|-0---0---0----0---0----0---|


D|---------------------------|---------------------------|---------------------------|
A|---------------------------|---------------------------|---------------------------|
E|---------------------------|---------------------------|---------------------------|
B|-0---0---0----0---0----0---|-0---0---0----0---0----0---|-4---4---4----4---4----4---|


D|---------------------------|---------------------------|---------------------------|
A|---------------------------|---------------------------|---------------------------|
E|---------------------------|---------------------------|---------------------------|
B|-4---4---4----4---4----4---|-4---4---4----4---4----4---|-4---4---4----4---4----4---|


D|---------------------------|---------------------------|---------------------------|
A|---------------------------|---------------------------|---------------------------|
E|---------------------------|---------------------------|---------------------------|
B|-0---0---0----0---0----0---|-0---0---0----0---0----0---|-0---0---0----0---0----0---|


D|---------------------------|---------------------------------|---------------------------------|
A|---------------------------|---------------------------------|---------------------------------|
E|---------------------------|---------------------------------|---------------------------------|
B|-0---0---0----0---0----0---|-0---2---2---2---3---2---0---2---|-2---2---3---2---0---2---2---2---|


D|---------------------------------|---------------------------------|---------------------------------|
A|---------------------------------|---------------------------------|---------------------------------|
E|---------------------------------|---------------------5---5---5---|---------------------------------|
B|-0---2---2---2---3---2---0---2---|-2---0---0---0---0---------------|-0---2---2---2---3---2---0---2---|


D|---------------------------------|---------------------------------|---------------------------------|
A|---------------------------------|---------------------------------|---------------------------------|
E|---------------------------------|---------------------------------|---------------------5---5---5---|
B|-2---2---3---2---0---2---2---2---|-0---2---2---2---3---2---0---2---|-2---0---0---0---0---------------|


D|---------------------------------|---------------------------------|---------------------------------|
A|---------------------------------|---------------------------------|---------------------------------|
E|---------------------------------|---------------------------------|---------------------------------|
B|-0---2---2---2---3---2---0---2---|-2---2---3---2---0---2---2---2---|-0---2---2---2---3---2---0---2---|


D|---------------------------------|---------------------------------|---------------------------------|
A|---------------------------------|---------------------------------|---------------------------------|
E|---------------------5---5---5---|---------------------------------|---------------------------------|
B|-2---0---0---0---0---------------|-0---2---2---2---3---2---0---2---|-2---2---3---2---0---2---2---2---|


D|---------------------------------|---------------------------------|---------------------------------|
A|---------------------------------|---------------------------------|---------------------------------|
E|---------------------------------|---------------------5---5---5---|---------------------------------|
B|-0---2---2---2---3---2---0---2---|-2---0---0---0---0---------------|-5---5---5---5---5---5---5---5---|


D|---------------------------------|---------------------------------|---------------------------------|
A|---------------------------------|---------------------------------|---------------------------------|
E|---------------------------------|---------------------------------|---------------------------------|
B|-5---5---5---5---5---5---5---5---|-2---2---2---2---2---2---2---2---|-2---2---2---2---2---2---2---5---|


D|---------------------------------|---------------------------------|---------------------------------|
A|---------------------------------|---------------------------------|---------------------------------|
E|---------------------------------|---------------------------------|---------------------------------|
B|-5---4---0---0---1---0---0---5---|-4---0---0---0---1---1---1---5---|-5---4---0---0---1---0---0---5---|


D|---------------------------------|---------------------------------|---------------------------------|
A|---------------------------------|---------------------------------|---------------------------------|
E|---------------------------------|---------------------------------|---------------------------------|
B|-4---0---0---0---1---1---1---0---|-5---5---5---5---5---5---5---5---|-5---5---5---5---5---5---5---5---|


D|---------------------------------|---------------------------------|---------------------------------|
A|---------------------------------|---------------------------------|---------------------------------|
E|---------------------------------|---------------------------------|---------------------------------|
B|-2---2---2---2---2---2---2---2---|-2---2---2---2---2---2---2---5---|-5---4---0---0---1---0---0---5---|


D|---------------------------------|---------------------------------|---------------------------------|
A|---------------------------------|---------------------------------|---------------------------------|
E|---------------------------------|---------------------------------|---------------------------------|
B|-4---0---0---0---1---1---1---5---|-5---4---0---0---1---0---0---5---|-4---0---0---0---1---1---1---0---|