Menu:

 

Search:

 

soilwork - figure number five:

 



Title: Figure Number Five
Artist: 
Album: Figure Number Five
Author: Soilwork


Track 1: Guitar 1

 B|------------------------------|---------------------------------|------------------------------|
F#|------------------------------|---------------------------------|------------------------------|
 D|------------------------------|---------------------------------|------------------------------|
 A|-5---5---5---4----------------|---------------------------------|-5---5---5---4----------------|
 E|-4---4---4---4----------------|---------------------------------|-4---4---4---4----------------|
 B|-3---3---3---2----0---2---0---|-2---0---2---0---2---0---2---0---|-3---3---3---2----0---2---0---|


 B|---------------------------------|------------------------------|---------------------------------|
F#|---------------------------------|------------------------------|---------------------------------|
 D|---------------------------------|------------------------------|---------------------------------|
 A|---------------------------------|-7---7-------4----------------|---------------------------------|
 E|---------------------------------|-7---7---2---4----------------|---------------------------------|
 B|-2---0---2---0---2---0---2---0---|-5---5---0---2----0---2---0---|-2---0---2---0---2---0---2---0---|


 B|------------------------------|------------------------------|---------------------------|
F#|------------------------------|------------------------------|---------------------------|
 D|------------------------------|-------------7----7---7---9---|-9---7---------------------|
 A|-5---5---5---7----7---7---9---|-9---9---9---7----7---7---9---|-9---7----4----------------|
 E|-5---5---5---7----7---7---9---|-9---9---9---5----5---5---7---|-7---5----4----------------|
 B|-3---3---3---5----5---5---7---|-7---7---7--------------------|----------2----0---2---0---|


 B|---------------------------------|------------------------------|---------------------------------|
F#|---------------------------------|------------------------------|---------------------------------|
 D|---------------------------------|------------------------------|---------------------------------|
 A|---------------------------------|-5---5---5---4----------------|---------------------------------|
 E|---------------------------------|-4---4---4---4----------------|---------------------------------|
 B|-2---0---2---0---2---0---2---0---|-3---3---3---2----0---2---0---|-2---0---2---0---2---0---2---0---|


 B|------------------------------|---------------------------------|------------------------------|
F#|------------------------------|---------------------------------|------------------------------|
 D|------------------------------|---------------------------------|------------------------------|
 A|-7---7-------4----------------|---------------------------------|-5---5---5---7----7---7---9---|
 E|-7---7---2---4----------------|---------------------------------|-5---5---5---7----7---7---9---|
 B|-5---5---0---2----0---2---0---|-2---0---2---0---2---0---2---0---|-3---3---3---5----5---5---7---|


 B|------------------------------|------------------------------|---------------------------------|
F#|------------------------------|------------------------------|---------------------------------|
 D|-------------7----7---7---9---|-9---7------------------------|---------------------------------|
 A|-9---9---9---7----7---7---9---|-9---7------------------------|---------------------------------|
 E|-9---9---9---5----5---5---7---|-7---5------------------------|---------------------------------|
 B|-7---7---7--------------------|----------2---2---0---2---0---|-2-------2---0---2---0---2-------|


 B|---------------------------------|-----------------------|------------------------------|
F#|---------------------------------|-----------------------|------------------------------|
 D|---------------------------------|-----------------------|------------------------------|
 A|---------------------------------|-----------------------|-4---5------------------------|
 E|---------------------------------|-----------------------|-4---5----5-------------------|
 B|-2---0---2---0---2-------2---0---|-2---0---2-------------|-2---3----3---2---0---2---0---|


 B|---------------------------------|---------------------------------|---------------------------------|
F#|---------------------------------|---------------------------------|---------------------------------|
 D|---------------------------------|---------------------------------|---------------------7---7---7---|
 A|---------------------------------|---------------------------------|---------------------------------|
 E|---------------------------------|---------------------------------|---------------------5---5---5---|
 B|-2-------2---0---2---0---2-------|-2---0---2---0---2-------2---0---|-2---0---2-----------------------|


 B|---------------------------|---------------------------------|---------------------------------|
F#|---------------------------|---------------------------------|---------------------------------|
 D|-7---9---------------------|---------------------------------|---------------------------------|
 A|---------------------------|---------------------------------|---------------------------------|
 E|-5---7---------------------|---------------------------------|---------------------------------|
 B|-----------2---0---2---0---|-2-------2---0---2---0---2-------|-2---0---2---0---2-------2---0---|


 B|-----------------------|------------------------------|---------------------------------|
F#|-----------------------|------------------------------|---------------------------------|
 D|-----------------------|------------------------------|---------------------------------|
 A|-----------------------|-4---5------------------------|---------------------------------|
 E|-----------------------|-4---5----5-------------------|---------------------------------|
 B|-2---0---2-------------|-2---3----3---2---0---2---0---|-2-------2---0---2---0---2-------|


 B|---------------------------------|---------------------------------|-----------------|
F#|---------------------------------|---------------------------------|-----------7-----|
 D|---------------------------------|---------------------7---7---7---|-7---9-----6-----|
 A|---------------------------------|---------------------------------|-----------4-----|
 E|---------------------------------|---------------------5---5---5---|-5---7-----------|
 B|-2---0---2---0---2-------2---0---|-2---0---2-----------------------|-----------------|


 B|-------------|-----------------|-------------|--------------------|---------------------------------|
F#|-------------|-----------7-----|-------------|--------------------|---------------------------------|
 D|-5-----4-----|-2---------6-----|-5-----4-----|-2------------------|---------------------------------|
 A|-5-----4-----|-2---------4-----|-5-----4-----|-2-----4------------|---------------------------------|
 E|-3-----2-----|-0---------------|-3-----2-----|-0-----4------------|---------------------------------|
 B|-------------|-----------------|-------------|-------2----0---2---|-0---2---0---2---0---2---0---2---|


 B|------------------------------|---------------------------------|------------------------------|
F#|------------------------------|---------------------------------|------------------------------|
 D|------------------------------|---------------------------------|------------------------------|
 A|-----5---5---5---4------------|---------------------------------|-----7---7-------4------------|
 E|-----4---4---4---4------------|---------------------------------|-----7---7---2---4------------|
 B|-0---3---3---3---2----0---2---|-0---2---0---2---0---2---0---2---|-0---5---5---0---2----0---2---|


 B|---------------------------------|------------------------------|------------------------------|
F#|---------------------------------|------------------------------|------------------------------|
 D|---------------------------------|------------------------------|-----------------7----7---7---|
 A|---------------------------------|-----5---5---5---7----7---7---|-9---9---9---9---7----7---7---|
 E|---------------------------------|-----5---5---5---7----7---7---|-9---9---9---9---5----5---5---|
 B|-0---2---0---2---0---2---0---2---|-0---3---3---3---5----5---5---|-7---7---7---7----------------|


 B|---------------------------|---------------------------------|------------------------------|
F#|---------------------------|---------------------------------|------------------------------|
 D|-9---9---7-----------------|---------------------------------|------------------------------|
 A|-9---9---7----4------------|---------------------------------|-----5---5---5---4------------|
 E|-7---7---5----4------------|---------------------------------|-----4---4---4---4------------|
 B|--------------2----0---2---|-0---2---0---2---0---2---0---2---|-0---3---3---3---2----0---2---|


 B|---------------------------------|------------------------------|---------------------------------|
F#|---------------------------------|------------------------------|---------------------------------|
 D|---------------------------------|------------------------------|---------------------------------|
 A|---------------------------------|-----7---7-------4------------|---------------------------------|
 E|---------------------------------|-----7---7---2---4------------|---------------------------------|
 B|-0---2---0---2---0---2---0---2---|-0---5---5---0---2----0---2---|-0---2---0---2---0---2---0---2---|


 B|------------------------------|------------------------------|------------------------------|
F#|------------------------------|------------------------------|------------------------------|
 D|------------------------------|-----------------7----7---7---|-9---9---7--------------------|
 A|-----5---5---5---7----7---7---|-9---9---9---9---7----7---7---|-9---9---7--------------------|
 E|-----5---5---5---7----7---7---|-9---9---9---9---5----5---5---|-7---7---5--------------------|
 B|-0---3---3---3---5----5---5---|-7---7---7---7----------------|--------------2---2---0---2---|


 B|---------------------------------|---------------------------------|---------------------------|
F#|---------------------------------|---------------------------------|---------------------------|
 D|---------------------------------|---------------------------------|---------------------------|
 A|---------------------------------|---------------------------------|---------------------------|
 E|---------------------------------|---------------------------------|---------------------------|
 B|-0---2-------2---0---2---0---2---|-----2---0---2---0---2-------2---|-0---2---0---2-------------|


 B|------------------------------|---------------------------------|---------------------------------|
F#|------------------------------|---------------------------------|---------------------------------|
 D|------------------------------|---------------------------------|---------------------------------|
 A|-----4---5--------------------|---------------------------------|---------------------------------|
 E|-----4---5----5---------------|---------------------------------|---------------------------------|
 B|-----2---3----3---2---0---2---|-0---2-------2---0---2---0---2---|-----2---0---2---0---2-------2---|


 B|---------------------------------|---------------------------|---------------------------------|
F#|---------------------------------|---------------------------|---------------------------------|
 D|-------------------------7---7---|-7---7---9-----------------|---------------------------------|
 A|---------------------------------|---------------------------|---------------------------------|
 E|-------------------------5---5---|-5---5---7-----------------|---------------------------------|
 B|-0---2---0---2-------------------|---------------2---0---2---|-0---2-------2---0---2---0---2---|


 B|---------------------------------|---------------------------|------------------------------|
F#|---------------------------------|---------------------------|------------------------------|
 D|---------------------------------|---------------------------|------------------------------|
 A|---------------------------------|---------------------------|-----4---5--------------------|
 E|---------------------------------|---------------------------|-----4---5----5---------------|
 B|-----2---0---2---0---2-------2---|-0---2---0---2-------------|-----2---3----3---2---0---2---|


 B|---------------------------------|---------------------------------|---------------------------------|
F#|---------------------------------|---------------------------------|---------------------------------|
 D|---------------------------------|---------------------------------|-------------------------7---7---|
 A|---------------------------------|---------------------------------|---------------------------------|
 E|---------------------------------|---------------------------------|-------------------------5---5---|
 B|-0---2-------2---0---2---0---2---|-----2---0---2---0---2-------2---|-0---2---0---2-------------------|


 B|---------------------|-----------------|--------------------|-----------------|
F#|---------------7-----|-----------------|---------------7----|-----------------|
 D|-7---7---9-----6-----|-----5-----4-----|-----2---------6----|-----5-----4-----|
 A|---------------4-----|-----5-----4-----|-----2---------4----|-----5-----4-----|
 E|-5---5---7-----------|-----3-----2-----|-----0--------------|-----3-----2-----|
 B|---------------------|-----------------|--------------------|-----------------|


 B|--------------------|---------------------------------|------------------------------|
F#|--------------------|---------------------------------|------------------------------|
 D|-----2--------------|---------------------------------|------------------------------|
 A|-----2-----4--------|---------------------------------|---------5---5---5---4--------|
 E|-----0-----4--------|---------------------------------|---------4---4---4---4--------|
 B|-----------2----0---|-2---0---2---0---2---0---2---0---|-2---0---3---3---3---2----0---|


 B|---------------------------------|------------------------------|---------------------------------|
F#|---------------------------------|------------------------------|---------------------------------|
 D|---------------------------------|------------------------------|---------------------------------|
 A|---------------------------------|---------7---7-------4--------|---------------------------------|
 E|---------------------------------|---------7---7---2---4--------|---------------------------------|
 B|-2---0---2---0---2---0---2---0---|-2---0---5---5---0---2----0---|-2---0---2---0---2---0---2---0---|


 B|------------------------------|------------------------------|---------------------------|
F#|------------------------------|------------------------------|---------------------------|
 D|------------------------------|---------------------7----7---|-7---9---9---7-------------|
 A|---------5---5---5---7----7---|-7---9---9---9---9---7----7---|-7---9---9---7----4--------|
 E|---------5---5---5---7----7---|-7---9---9---9---9---5----5---|-5---7---7---5----4--------|
 B|-2---0---3---3---3---5----5---|-5---7---7---7---7------------|------------------2----0---|


 B|---------------------------------|------------------------------|---------------------------------|
F#|---------------------------------|------------------------------|---------------------------------|
 D|---------------------------------|------------------------------|---------------------------------|
 A|---------------------------------|---------5---5---5---4--------|---------------------------------|
 E|---------------------------------|---------4---4---4---4--------|---------------------------------|
 B|-2---0---2---0---2---0---2---0---|-2---0---3---3---3---2----0---|-2---0---2---0---2---0---2---0---|


 B|------------------------------|---------------------------------|------------------------------|
F#|------------------------------|---------------------------------|------------------------------|
 D|------------------------------|---------------------------------|------------------------------|
 A|---------7---7-------4--------|---------------------------------|---------5---5---5---7----7---|
 E|---------7---7---2---4--------|---------------------------------|---------5---5---5---7----7---|
 B|-2---0---5---5---0---2----0---|-2---0---2---0---2---0---2---0---|-2---0---3---3---3---5----5---|


 B|------------------------------|------------------------|-----------------|-----------------|
F#|------------------------------|------------------------|-----------------|-----------------|
 D|---------------------7----7---|-7---9---9---7----------|-----------------|-----------4-----|
 A|-7---9---9---9---9---7----7---|-7---9---9---7----4-----|-----------4-----|-----------4-----|
 E|-7---9---9---9---9---5----5---|-5---7---7---5----4-----|-----------4-----|-----------2-----|
 B|-5---7---7---7---7------------|------------------2-----|-----------2-----|-----------------|


 B|-----------------|-----------------|-----------------|-----------------|-----------------|
F#|-----------------|-----------------|-----------------|-----------------|-----------------|
 D|-----------4-----|-----7-----------|-----------------|-----------4-----|-----------4-----|
 A|-----------4-----|-----7-----4-----|-----------4-----|-----------4-----|-----------4-----|
 E|-----------2-----|-----5-----4-----|-----------4-----|-----------2-----|-----------2-----|
 B|-----------------|-----------2-----|-----------2-----|-----------------|-----------------|


 B|-----------------|-----------------|-----------------|-----------------|-----------------|
F#|-----------------|-----------------|-----------------|-----------------|-----------------|
 D|-----7-----------|-----------------|-----------4-----|-----------4-----|-----7-----------|
 A|-----7-----4-----|-----------4-----|-----------4-----|-----------4-----|-----7-----4-----|
 E|-----5-----4-----|-----------4-----|-----------2-----|-----------2-----|-----5-----4-----|
 B|-----------2-----|-----------2-----|-----------------|-----------------|-----------2-----|


 B|-----------------|--------------------|---------------------|--------------------|
F#|-----------------|--------------------|---------------------|--------------------|
 D|-----------------|--------------------|---------------------|----------------18--|
 A|-----------4-----|-----------2----4---|-4---2---4-----------|-----------16-------|
 E|-----------4-----|-----------0----2---|-2---0---2-----------|--------------------|
 B|-----------2-----|--------------------|---------------------|--------------------|


 B|---------------------------------|------------------------------|---------------------------------|
F#|-17--------------19--------------|-17--------------15-----------|-14--------------15--------------|
 D|-----18------18------18------18--|-----18------18-----------14--|-----14------14------14------14--|
 A|---------16--------------16------|---------16----------16-------|---------16--------------16------|
 E|---------------------------------|------------------------------|---------------------------------|
 B|---------------------------------|------------------------------|---------------------------------|


 B|------------------------------|---------------------------------|------------------------------|
F#|-17--------------19-----------|-17--------------19--------------|-17--------------15-----------|
 D|-----14------18-----------18--|-----18------18------18------18--|-----18------18-----------14--|
 A|---------16----------16-------|---------16--------------16------|---------16----------16-------|
 E|------------------------------|---------------------------------|------------------------------|
 B|------------------------------|---------------------------------|------------------------------|


 B|---------------------------------|------------------------------|---------------------------------|
F#|-14--------------15--------------|-17--------------19-----------|-17--------------19--------------|
 D|-----14------14------14------14--|-----14------18-----------18--|-----18------18------18------18--|
 A|---------16--------------16------|---------16----------16-------|---------16--------------16------|
 E|---------------------------------|------------------------------|---------------------------------|
 B|---------------------------------|------------------------------|---------------------------------|


 B|------------------------------|---------------------------------|------------------------------|
F#|-17--------------15-----------|-14--------------15--------------|-17--------------19-----------|
 D|-----18------18-----------14--|-----14------14------14------14--|-----14------18-----------18--|
 A|---------16----------16-------|---------16--------------16------|---------16----------16-------|
 E|------------------------------|---------------------------------|------------------------------|
 B|------------------------------|---------------------------------|------------------------------|


 B|---------------------------------|------------------------------|---------------------------------|
F#|-17--------------19--------------|-17--------------15-----------|-14--------------15--------------|
 D|-----18------18------18------18--|-----18------18-----------14--|-----14------14------14------14--|
 A|---------16--------------16------|---------16----------16-------|---------16--------------16------|
 E|---------------------------------|------------------------------|---------------------------------|
 B|---------------------------------|------------------------------|---------------------------------|


 B|---------------------------|-----------------|-----------------|-----------------|
F#|-17--------------19--------|-----------------|-----------------|-----------------|
 D|-----14------18------------|-----------------|-----------------|-----------------|
 A|---------16----------2-----|-----4-----6-----|-----2-----7-----|-----6-----4-----|
 E|---------------------0-----|-----2-----4-----|-----0-----5-----|-----4-----2-----|
 B|---------------------------|-----------------|-----------------|-----------------|


 B|-----------------|-----------------|-----------------|-----------------|-----------------|
F#|-----------------|-----------------|-----------------|-----------------|-----------7-----|
 D|-----------------|-----------------|-----------6-----|-----------6-----|-----------6-----|
 A|-----6-----2-----|-----4-----6-----|-----2-----4-----|-----------4-----|-----------4-----|
 E|-----4-----0-----|-----2-----4-----|-----0-----------|-----------------|-----------------|
 B|-----------------|-----------------|-----------------|-----------------|-----------------|


 B|-----------------|--------------------|-----------------|-----------------|-----------------|
F#|-----------------|---------------7----|-----------------|-----------7-----|-----------------|
 D|-----5-----4-----|-----2---------6----|-----5-----4-----|-----2-----6-----|-----5-----4-----|
 A|-----5-----4-----|-----2---------4----|-----5-----4-----|-----2-----4-----|-----5-----4-----|
 E|-----3-----2-----|-----0--------------|-----3-----2-----|-----0-----------|-----3-----2-----|
 B|-----------------|--------------------|-----------------|-----------------|-----------------|


 B|--------------------|-----------------|--------------------|---------------------------------|
F#|---------------7----|-----------------|--------------------|---------------------------------|
 D|-----2---------6----|-----5-----4-----|-----2--------------|---------------------------------|
 A|-----2---------4----|-----5-----4-----|-----2-----4--------|---------------------------------|
 E|-----0--------------|-----3-----2-----|-----0-----4--------|---------------------------------|
 B|--------------------|-----------------|-----------2----0---|-2---0---2---0---2---0---2---0---|


 B|------------------------------|---------------------------------|------------------------------|
F#|------------------------------|---------------------------------|------------------------------|
 D|------------------------------|---------------------------------|------------------------------|
 A|---------5---5---5---4--------|---------------------------------|---------7---7-------4--------|
 E|---------4---4---4---4--------|---------------------------------|---------7---7---2---4--------|
 B|-2---0---3---3---3---2----0---|-2---0---2---0---2---0---2---0---|-2---0---5---5---0---2----0---|


 B|---------------------------------|------------------------------|------------------------------|
F#|---------------------------------|------------------------------|------------------------------|
 D|---------------------------------|------------------------------|---------------------7----7---|
 A|---------------------------------|---------5---5---5---7----7---|-7---9---9---9---9---7----7---|
 E|---------------------------------|---------5---5---5---7----7---|-7---9---9---9---9---5----5---|
 B|-2---0---2---0---2---0---2---0---|-2---0---3---3---3---5----5---|-5---7---7---7---7------------|


 B|---------------------------|---------------------------------|------------------------------|
F#|---------------------------|---------------------------------|------------------------------|
 D|-7---9---9---7-------------|---------------------------------|------------------------------|
 A|-7---9---9---7----4--------|---------------------------------|---------5---5---5---4--------|
 E|-5---7---7---5----4--------|---------------------------------|---------4---4---4---4--------|
 B|------------------2----0---|-2---0---2---0---2---0---2---0---|-2---0---3---3---3---2----0---|


 B|---------------------------------|------------------------------|---------------------------------|
F#|---------------------------------|------------------------------|---------------------------------|
 D|---------------------------------|------------------------------|---------------------------------|
 A|---------------------------------|---------7---7-------4--------|---------------------------------|
 E|---------------------------------|---------7---7---2---4--------|---------------------------------|
 B|-2---0---2---0---2---0---2---0---|-2---0---5---5---0---2----0---|-2---0---2---0---2---0---2---0---|


 B|------------------------------|------------------------------|---------------------------|
F#|------------------------------|------------------------------|---------------------------|
 D|------------------------------|---------------------7----7---|-7---9---9---7-------------|
 A|---------5---5---5---7----7---|-7---9---9---9---9---7----7---|-7---9---9---7----4--------|
 E|---------5---5---5---7----7---|-7---9---9---9---9---5----5---|-5---7---7---5----4----2---|
 B|-2---0---3---3---3---5----5---|-5---7---7---7---7------------|------------------2----0---|


 B|---------------------|----------------|
F#|---------------------|----------------|
 D|---------------------|----------------|
 A|---------4-----------|----------------|
 E|-4---2---4-----------|----------------|
 B|-2---0---2-----------|----------------|





Track 2: Guitar 2

 B|--------|--------|--------|--------|--------|--------|--------|--------|--------|
F#|--------|--------|--------|--------|--------|--------|--------|--------|--------|
 D|--------|--------|--------|--------|--------|--------|--------|--------|--------|
 A|--------|--------|--------|--------|--------|--------|--------|--------|--------|
 E|--------|--------|--------|--------|--------|--------|--------|--------|--------|
 B|--------|--------|--------|--------|--------|--------|--------|--------|--------|


 B|--------|--------|--------|--------|--------|--------|--------|--------|--------|
F#|--------|--------|--------|--------|--------|--------|--------|--------|--------|
 D|--------|--------|--------|--------|--------|--------|--------|--------|--------|
 A|--------|--------|--------|--------|--------|--------|--------|--------|--------|
 E|--------|--------|--------|--------|--------|--------|--------|--------|--------|
 B|--------|--------|--------|--------|--------|--------|--------|--------|--------|


 B|--------|--------|--------|--------|--------|--------|--------|--------|--------|
F#|--------|--------|--------|--------|--------|--------|--------|--------|--------|
 D|--------|--------|--------|--------|--------|--------|--------|--------|--------|
 A|--------|--------|--------|--------|--------|--------|--------|--------|--------|
 E|--------|--------|--------|--------|--------|--------|--------|--------|--------|
 B|--------|--------|--------|--------|--------|--------|--------|--------|--------|


 B|--------|--------|--------|--------|--------|--------|--------|--------|--------|
F#|--------|--------|--------|--------|--------|--------|--------|--------|--------|
 D|--------|--------|--------|--------|--------|--------|--------|--------|--------|
 A|--------|--------|--------|--------|--------|--------|--------|--------|--------|
 E|--------|--------|--------|--------|--------|--------|--------|--------|--------|
 B|--------|--------|--------|--------|--------|--------|--------|--------|--------|


 B|--------|--------|--------|--------|--------|--------|--------|--------|--------|
F#|--------|--------|--------|--------|--------|--------|--------|--------|--------|
 D|--------|--------|--------|--------|--------|--------|--------|--------|--------|
 A|--------|--------|--------|--------|--------|--------|--------|--------|--------|
 E|--------|--------|--------|--------|--------|--------|--------|--------|--------|
 B|--------|--------|--------|--------|--------|--------|--------|--------|--------|


 B|--------|--------|--------|--------|--------|--------|--------|--------|--------|
F#|--------|--------|--------|--------|--------|--------|--------|--------|--------|
 D|--------|--------|--------|--------|--------|--------|--------|--------|--------|
 A|--------|--------|--------|--------|--------|--------|--------|--------|--------|
 E|--------|--------|--------|--------|--------|--------|--------|--------|--------|
 B|--------|--------|--------|--------|--------|--------|--------|--------|--------|


 B|--------|--------|--------|--------|--------|--------|--------|--------|--------|
F#|--------|--------|--------|--------|--------|--------|--------|--------|--------|
 D|--------|--------|--------|--------|--------|--------|--------|--------|--------|
 A|--------|--------|--------|--------|--------|--------|--------|--------|--------|
 E|--------|--------|--------|--------|--------|--------|--------|--------|--------|
 B|--------|--------|--------|--------|--------|--------|--------|--------|--------|


 B|--------|--------|--------|--------|--------|--------|--------|--------|--------|
F#|--------|--------|--------|--------|--------|--------|--------|--------|--------|
 D|--------|--------|--------|--------|--------|--------|--------|--------|--------|
 A|--------|--------|--------|--------|--------|--------|--------|--------|--------|
 E|--------|--------|--------|--------|--------|--------|--------|--------|--------|
 B|--------|--------|--------|--------|--------|--------|--------|--------|--------|


 B|--------|--------|--------|--------|--------|--------|--------|--------|--------|
F#|--------|--------|--------|--------|--------|--------|--------|--------|--------|
 D|--------|--------|--------|--------|--------|--------|--------|--------|--------|
 A|--------|--------|--------|--------|--------|--------|--------|--------|--------|
 E|--------|--------|--------|--------|--------|--------|--------|--------|--------|
 B|--------|--------|--------|--------|--------|--------|--------|--------|--------|


 B|--------|--------|--------|--------|--------|--------|--------|--------|--------|
F#|--------|--------|--------|--------|--------|--------|--------|--------|--------|
 D|--------|--------|--------|--------|--------|--------|--------|--------|--------|
 A|--------|--------|--------|--------|--------|--------|--------|--------|--------|
 E|--------|--------|--------|--------|--------|--------|--------|--------|--------|
 B|--------|--------|--------|--------|--------|--------|--------|--------|--------|


 B|--------|--------|--------|--------|--------|--------|--------|--------|--------|
F#|--------|--------|--------|--------|--------|--------|--------|--------|--------|
 D|--------|--------|--------|--------|--------|--------|--------|--------|--------|
 A|--------|--------|--------|--------|--------|--------|--------|--------|--------|
 E|--------|--------|--------|--------|--------|--------|--------|--------|--------|
 B|--------|--------|--------|--------|--------|--------|--------|--------|--------|


 B|--------|--------|--------|--------|--------|--------------------|---------------------------------|
F#|--------|--------|--------|--------|--------|--------------------|-10--------------12--------------|
 D|--------|--------|--------|--------|--------|----------------11--|-----11------11------11------11--|
 A|--------|--------|--------|--------|--------|-----------11-------|---------11--------------11------|
 E|--------|--------|--------|--------|--------|--------------------|---------------------------------|
 B|--------|--------|--------|--------|--------|--------------------|---------------------------------|


 B|------------------------------|---------------------------------|------------------------------|
F#|-14--------------12-----------|-10--------------12--------------|-14--------------12-----------|
 D|-----11------11-----------11--|-----11------11------11------11--|-----11------11-----------11--|
 A|---------11----------12-------|---------12--------------12------|---------12----------11-------|
 E|------------------------------|---------------------------------|------------------------------|
 B|------------------------------|---------------------------------|------------------------------|


 B|---------------------------------|------------------------------|---------------------------------|
F#|-10--------------12--------------|-14--------------12-----------|-10--------------10--------------|
 D|-----11------11------11------11--|-----11------11-----------11--|-----11------11------11------11--|
 A|---------11--------------11------|---------11----------12-------|---------12--------------12------|
 E|---------------------------------|------------------------------|---------------------------------|
 B|---------------------------------|------------------------------|---------------------------------|


 B|------------------------------|---------------------------------|------------------------------|
F#|-10----------10------9--------|-10--------------12--------------|-14--------------12-----------|
 D|-----11-------------------11--|-----11------11------11------11--|-----11------11-----------11--|
 A|---------12------11-----------|---------11--------------11------|---------11----------12-------|
 E|------------------------------|---------------------------------|------------------------------|
 B|------------------------------|---------------------------------|------------------------------|


 B|---------------------------------|------------------------------|---------------------------------|
F#|-10--------------12--------------|-14--------------12-----------|-10--------------12--------------|
 D|-----11------11------11------11--|-----11------11-----------11--|-----11------11------11------11--|
 A|---------12--------------12------|---------12----------11-------|---------11--------------11------|
 E|---------------------------------|------------------------------|---------------------------------|
 B|---------------------------------|------------------------------|---------------------------------|


 B|------------------------------|---------------------------------|---------------------------|
F#|-14--------------12-----------|-10--------------12--------------|-10----------10------------|
 D|-----11------11-----------11--|-----11------11------11------11--|-----11--------------------|
 A|---------11----------12-------|---------12--------------12------|---------12------11--------|
 E|------------------------------|---------------------------------|---------------------------|
 B|------------------------------|---------------------------------|---------------------------|


 B|--------|--------|--------|--------|--------|--------|--------|--------|--------|
F#|--------|--------|--------|--------|--------|--------|--------|--------|--------|
 D|--------|--------|--------|--------|--------|--------|--------|--------|--------|
 A|--------|--------|--------|--------|--------|--------|--------|--------|--------|
 E|--------|--------|--------|--------|--------|--------|--------|--------|--------|
 B|--------|--------|--------|--------|--------|--------|--------|--------|--------|


 B|--------|--------|--------|--------|--------|--------|--------|--------|--------|
F#|--------|--------|--------|--------|--------|--------|--------|--------|--------|
 D|--------|--------|--------|--------|--------|--------|--------|--------|--------|
 A|--------|--------|--------|--------|--------|--------|--------|--------|--------|
 E|--------|--------|--------|--------|--------|--------|--------|--------|--------|
 B|--------|--------|--------|--------|--------|--------|--------|--------|--------|


 B|--------|--------|--------|--------|--------|--------|--------|--------|--------|
F#|--------|--------|--------|--------|--------|--------|--------|--------|--------|
 D|--------|--------|--------|--------|--------|--------|--------|--------|--------|
 A|--------|--------|--------|--------|--------|--------|--------|--------|--------|
 E|--------|--------|--------|--------|--------|--------|--------|--------|--------|
 B|--------|--------|--------|--------|--------|--------|--------|--------|--------|


 B|--------|--------|--------|--------|--------|--------|--------|
F#|--------|--------|--------|--------|--------|--------|--------|
 D|--------|--------|--------|--------|--------|--------|--------|
 A|--------|--------|--------|--------|--------|--------|--------|
 E|--------|--------|--------|--------|--------|--------|--------|
 B|--------|--------|--------|--------|--------|--------|--------|





Track 3: Background

 B|--------|--------|--------|--------|--------|--------|--------|--------|--------|
F#|--------|--------|--------|--------|--------|--------|--------|--------|--------|
 D|--------|--------|--------|--------|--------|--------|--------|--------|--------|
 A|--------|--------|--------|--------|--------|--------|--------|--------|--------|
 E|--------|--------|--------|--------|--------|--------|--------|--------|--------|
 B|--------|--------|--------|--------|--------|--------|--------|--------|--------|


 B|--------|--------|--------|--------|--------|--------|--------|--------|--------|
F#|--------|--------|--------|--------|--------|--------|--------|--------|--------|
 D|--------|--------|--------|--------|--------|--------|--------|--------|--------|
 A|--------|--------|--------|--------|--------|--------|--------|--------|--------|
 E|--------|--------|--------|--------|--------|--------|--------|--------|--------|
 B|--------|--------|--------|--------|--------|--------|--------|--------|--------|


 B|--------|--------|--------|--------|--------|--------|--------|--------|--------|
F#|--------|--------|--------|--------|--------|--------|--------|--------|--------|
 D|--------|--------|--------|--------|--------|--------|--------|--------|--------|
 A|--------|--------|--------|--------|--------|--------|--------|--------|--------|
 E|--------|--------|--------|--------|--------|--------|--------|--------|--------|
 B|--------|--------|--------|--------|--------|--------|--------|--------|--------|


 B|--------|--------|--------|--------|--------|--------|--------|--------|--------|
F#|--------|--------|--------|--------|--------|--------|--------|--------|--------|
 D|--------|--------|--------|--------|--------|--------|--------|--------|--------|
 A|--------|--------|--------|--------|--------|--------|--------|--------|--------|
 E|--------|--------|--------|--------|--------|--------|--------|--------|--------|
 B|--------|--------|--------|--------|--------|--------|--------|--------|--------|


 B|--------|--------|--------|--------|--------|--------|--------|--------|--------|
F#|--------|--------|--------|--------|--------|--------|--------|--------|--------|
 D|--------|--------|--------|--------|--------|--------|--------|--------|--------|
 A|--------|--------|--------|--------|--------|--------|--------|--------|--------|
 E|--------|--------|--------|--------|--------|--------|--------|--------|--------|
 B|--------|--------|--------|--------|--------|--------|--------|--------|--------|


 B|--------|--------|--------|--------|--------|--------|--------|--------|--------|
F#|--------|--------|--------|--------|--------|--------|--------|--------|--------|
 D|--------|--------|--------|--------|--------|--------|--------|--------|--------|
 A|--------|--------|--------|--------|--------|--------|--------|--------|--------|
 E|--------|--------|--------|--------|--------|--------|--------|--------|--------|
 B|--------|--------|--------|--------|--------|--------|--------|--------|--------|


 B|--------|--------|--------|--------|--------|--------|--------|--------|--------|
F#|--------|--------|--------|--------|--------|--------|--------|--------|--------|
 D|--------|--------|--------|--------|--------|--------|--------|--------|--------|
 A|--------|--------|--------|--------|--------|--------|--------|--------|--------|
 E|--------|--------|--------|--------|--------|--------|--------|--------|--------|
 B|--------|--------|--------|--------|--------|--------|--------|--------|--------|


 B|--------|--------|--------|--------|--------|--------|--------|--------|--------|
F#|--------|--------|--------|--------|--------|--------|--------|--------|--------|
 D|--------|--------|--------|--------|--------|--------|--------|--------|--------|
 A|--------|--------|--------|--------|--------|--------|--------|--------|--------|
 E|--------|--------|--------|--------|--------|--------|--------|--------|--------|
 B|--------|--------|--------|--------|--------|--------|--------|--------|--------|


 B|--------|--------|--------|--------|--------|--------|--------|--------|--------|
F#|--------|--------|--------|--------|--------|--------|--------|--------|--------|
 D|--------|--------|--------|--------|--------|--------|--------|--------|--------|
 A|--------|--------|--------|--------|--------|--------|--------|--------|--------|
 E|--------|--------|--------|--------|--------|--------|--------|--------|--------|
 B|--------|--------|--------|--------|--------|--------|--------|--------|--------|


 B|--------|--------|--------|--------|--------|--------|--------|--------|--------|
F#|--------|--------|--------|--------|--------|--------|--------|--------|--------|
 D|--------|--------|--------|--------|--------|--------|--------|--------|--------|
 A|--------|--------|--------|--------|--------|--------|--------|--------|--------|
 E|--------|--------|--------|--------|--------|--------|--------|--------|--------|
 B|--------|--------|--------|--------|--------|--------|--------|--------|--------|


 B|--------|--------|--------|--------|--------|--------|--------|--------|--------|
F#|--------|--------|--------|--------|--------|--------|--------|--------|--------|
 D|--------|--------|--------|--------|--------|--------|--------|--------|--------|
 A|--------|--------|--------|--------|--------|--------|--------|--------|--------|
 E|--------|--------|--------|--------|--------|--------|--------|--------|--------|
 B|--------|--------|--------|--------|--------|--------|--------|--------|--------|


 B|--------|--------|--------|--------|--------|--------------------|------------------------|
F#|--------|--------|--------|--------|--------|--------------------|------------------------|
 D|--------|--------|--------|--------|--------|--------------------|------------------------|
 A|--------|--------|--------|--------|--------|-----------4--------|-----4---------4--------|
 E|--------|--------|--------|--------|--------|-----------4----2---|-4---4---------4----2---|
 B|--------|--------|--------|--------|--------|-----------2----0---|-2---2---------2----0---|


 B|------------------------|------------------------|---------------------------|------------------------|
F#|------------------------|------------------------|---------------------------|------------------------|
 D|---------------4--------|-----4---------4--------|-----4---7---7-------------|------------------------|
 A|-----4---------4----2---|-4---4---------4----2---|-4---4---7---7----4--------|-----4---------4--------|
 E|-4---4---------2----0---|-2---2---------2----0---|-2---2---5---5----4----2---|-4---4---------4----2---|
 B|-2---2------------------|------------------------|------------------2----0---|-2---2---------2----0---|


 B|------------------------|------------------------|---------------------------|------------------------|
F#|------------------------|------------------------|---------------------------|------------------------|
 D|---------------4--------|-----4---------4--------|-----4---7---7-------------|------------------------|
 A|-----4---------4----2---|-4---4---------4----2---|-4---4---7---7----4--------|-----4---------4--------|
 E|-4---4---------2----0---|-2---2---------2----0---|-2---2---5---5----4----2---|-4---4---------4----2---|
 B|-2---2------------------|------------------------|------------------2----0---|-2---2---------2----0---|


 B|------------------------|------------------------|---------------------------|------------------------|
F#|------------------------|------------------------|---------------------------|------------------------|
 D|---------------4--------|-----4---------4--------|-----4---7---7-------------|------------------------|
 A|-----4---------4----2---|-4---4---------4----2---|-4---4---7---7----4--------|-----4---------4--------|
 E|-4---4---------2----0---|-2---2---------2----0---|-2---2---5---5----4----2---|-4---4---------4----2---|
 B|-2---2------------------|------------------------|------------------2----0---|-2---2---------2----0---|


 B|------------------------|------------------------|------------------------|-----------------|
F#|------------------------|------------------------|------------------------|-----------------|
 D|---------------4--------|-----4---------4--------|-----4---7---7----13----|-----------14----|
 A|-----4---------4----2---|-4---4---------4----2---|-4---4---7---7----------|-----------------|
 E|-4---4---------2----0---|-2---2---------2----0---|-2---2---5---5----------|-----------------|
 B|-2---2------------------|------------------------|------------------------|-----------------|


 B|-------------------------|---------------------------|-----------------------|---------------------------------|
F#|---------------12-14-----|---------------------------|-----------------------|---------------------------------|
 D|-----------14--------14--|---------------------------|-----------------------|---------13----------13--14--16--|
 A|-------------------------|-16--------------12--------|-----------------------|-----16----------16--------------|
 E|-------------------------|-----16--14--16------16----|---------------14--16--|-------------16------------------|
 B|-------------------------|---------------------------|-----------------------|---------------------------------|


 B|---------------14------|---------------------------------|-----------14-19-17-19-17-14-|
F#|-14--------14------15--|-----15--------------------------|-12--------------------------|
 D|-----------------------|-16------16--------------13--14--|-----13----------------------|
 A|-----16----------------|-------------12--15--16----------|-----------------------------|
 E|-----------------------|---------------------------------|-----------------------------|
 B|-----------------------|---------------------------------|-----------------------------|


 B|-19-17-19-17-14-19-17-19-17-14-19-17-19-17-14-19-|-17-19-17-14-19-17-19-17-14--------|
F#|-------------------------------------------------|-----------------------------17----|
 D|-------------------------------------------------|-----------------------------------|
 A|-------------------------------------------------|-----------------------------------|
 E|-------------------------------------------------|-----------------------------------|
 B|-------------------------------------------------|-----------------------------------|


 B|---------17--14------17----|-----------19--19--19--|-19--19--19--19--19--19--19--19--|
F#|-----17----------17--------|-----------22--22--22--|-22--22--22--22--22--22--22--22--|
 D|---------------------------|-----------------------|---------------------------------|
 A|---------------------------|-----------------------|---------------------------------|
 E|---------------------------|-----------------------|---------------------------------|
 B|---------------------------|-----------------------|---------------------------------|


 B|-19--19--19--19--19--19----|-----21--20--19---------------------------------|--------------------------------------|
F#|-22--22--22--22--22--------|-----------------19--17-------------------------|--------------------------------------|
 D|---------------------------|-------------------------18--16--14--13---------|--------------------------------------|
 A|---------------------------|-----------------------------------------16--14-|--------------------------------------|
 E|---------------------------|------------------------------------------------|----16--14--12--11--9---7-------------|
 B|---------------------------|------------------------------------------------|----------------------------9---------|


 B|--------|--------|--------|--------|--------|--------|--------|--------|--------|
F#|--------|--------|--------|--------|--------|--------|--------|--------|--------|
 D|--------|--------|--------|--------|--------|--------|--------|--------|--------|
 A|--------|--------|--------|--------|--------|--------|--------|--------|--------|
 E|--------|--------|--------|--------|--------|--------|--------|--------|--------|
 B|--------|--------|--------|--------|--------|--------|--------|--------|--------|


 B|--------|--------|--------|--------|--------|--------|--------|--------|--------|
F#|--------|--------|--------|--------|--------|--------|--------|--------|--------|
 D|--------|--------|--------|--------|--------|--------|--------|--------|--------|
 A|--------|--------|--------|--------|--------|--------|--------|--------|--------|
 E|--------|--------|--------|--------|--------|--------|--------|--------|--------|
 B|--------|--------|--------|--------|--------|--------|--------|--------|--------|





Track 4: Bass

D|------------------------------|---------------------------------|------------------------------|
A|------------------------------|---------------------------------|------------------------------|
E|------------------------------|---------------------------------|------------------------------|
B|-3---3---3---2----0---2---0---|-2---0---2---0---2---0---2---0---|-3---3---3---2----0---2---0---|


D|---------------------------------|------------------------------|---------------------------------|
A|---------------------------------|------------------------------|---------------------------------|
E|---------------------------------|------------------------------|---------------------------------|
B|-2---0---2---0---2---0---2---0---|-5---5---0---2----0---2---0---|-2---0---2---0---2---0---2---0---|


D|------------------------------|------------------------------|---------------------------|
A|------------------------------|------------------------------|---------------------------|
E|------------------------------|-------------5----5---5---7---|-7---5---------------------|
B|-3---3---3---5----5---5---7---|-7---7---7--------------------|----------2----0---2---0---|


D|---------------------------------|------------------------------|---------------------------------|
A|---------------------------------|------------------------------|---------------------------------|
E|---------------------------------|------------------------------|---------------------------------|
B|-2---0---2---0---2---0---2---0---|-3---3---3---2----0---2---0---|-2---0---2---0---2---0---2---0---|


D|------------------------------|---------------------------------|------------------------------|
A|------------------------------|---------------------------------|------------------------------|
E|------------------------------|---------------------------------|------------------------------|
B|-5---5---0---2----0---2---0---|-2---0---2---0---2---0---2---0---|-3---3---3---5----5---5---7---|


D|------------------------------|------------------------------|---------------------------------|
A|------------------------------|------------------------------|---------------------------------|
E|-------------5----5---5---7---|-7---5------------------------|---------------------------------|
B|-7---7---7--------------------|----------2---2---0---2---0---|-2-------2---0---2---0---2-------|


D|---------------------------------|-----------------------|------------------------------|
A|---------------------------------|-----------------------|------------------------------|
E|---------------------------------|-----------------------|------------------------------|
B|-2---0---2---0---2-------2---0---|-2---0---2-------------|-2---3----3---2---0---2---0---|


D|---------------------------------|---------------------------------|---------------------------------|
A|---------------------------------|---------------------------------|---------------------------------|
E|---------------------------------|---------------------------------|---------------------5---5---5---|
B|-2-------2---0---2---0---2-------|-2---0---2---0---2-------2---0---|-2---0---2-----------------------|


D|---------------------------|---------------------------------|---------------------------------|
A|---------------------------|---------------------------------|---------------------------------|
E|-5---7---------------------|---------------------------------|---------------------------------|
B|-----------2---0---2---0---|-2-------2---0---2---0---2-------|-2---0---2---0---2-------2---0---|


D|-----------------------|------------------------------|---------------------------------|
A|-----------------------|------------------------------|---------------------------------|
E|-----------------------|------------------------------|---------------------------------|
B|-2---0---2-------------|-2---3----3---2---0---2---0---|-2-------2---0---2---0---2-------|


D|---------------------------------|---------------------------------|-----------------|
A|---------------------------------|---------------------------------|-----------4-----|
E|---------------------------------|---------------------5---5---5---|-5---7-----------|
B|-2---0---2---0---2-------2---0---|-2---0---2-----------------------|-----------------|


D|-------------|-----------------|-------------|--------------------|---------------------------------|
A|-------------|-----------4-----|-------------|--------------------|---------------------------------|
E|-3-----2-----|-0---------------|-3-----2-----|-0------------------|---------------------------------|
B|-------------|-----------------|-------------|-------2----0---2---|-0---2---0---2---0---2---0---2---|


D|------------------------------|---------------------------------|------------------------------|
A|------------------------------|---------------------------------|------------------------------|
E|------------------------------|---------------------------------|------------------------------|
B|-0---3---3---3---2----0---2---|-0---2---0---2---0---2---0---2---|-0---5---5---0---2----0---2---|


D|---------------------------------|------------------------------|------------------------------|
A|---------------------------------|------------------------------|------------------------------|
E|---------------------------------|------------------------------|-----------------5----5---5---|
B|-0---2---0---2---0---2---0---2---|-0---3---3---3---5----5---5---|-7---7---7---7----------------|


D|---------------------------|---------------------------------|------------------------------|
A|---------------------------|---------------------------------|------------------------------|
E|-7---7---5-----------------|---------------------------------|------------------------------|
B|--------------2----0---2---|-0---2---0---2---0---2---0---2---|-0---3---3---3---2----0---2---|


D|---------------------------------|------------------------------|---------------------------------|
A|---------------------------------|------------------------------|---------------------------------|
E|---------------------------------|------------------------------|---------------------------------|
B|-0---2---0---2---0---2---0---2---|-0---5---5---0---2----0---2---|-0---2---0---2---0---2---0---2---|


D|------------------------------|------------------------------|------------------------------|
A|------------------------------|------------------------------|------------------------------|
E|------------------------------|-----------------5----5---5---|-7---7---5--------------------|
B|-0---3---3---3---5----5---5---|-7---7---7---7----------------|--------------2---2---0---2---|


D|---------------------------------|---------------------------------|---------------------------|
A|---------------------------------|---------------------------------|---------------------------|
E|---------------------------------|---------------------------------|---------------------------|
B|-0---2-------2---0---2---0---2---|-----2---0---2---0---2-------2---|-0---2---0---2-------------|


D|------------------------------|---------------------------------|---------------------------------|
A|------------------------------|---------------------------------|---------------------------------|
E|------------------------------|---------------------------------|---------------------------------|
B|-----2---3----3---2---0---2---|-0---2-------2---0---2---0---2---|-----2---0---2---0---2-------2---|


D|---------------------------------|---------------------------|---------------------------------|
A|---------------------------------|---------------------------|---------------------------------|
E|-------------------------5---5---|-5---5---7-----------------|---------------------------------|
B|-0---2---0---2-------------------|---------------2---0---2---|-0---2-------2---0---2---0---2---|


D|---------------------------------|---------------------------|------------------------------|
A|---------------------------------|---------------------------|------------------------------|
E|---------------------------------|---------------------------|------------------------------|
B|-----2---0---2---0---2-------2---|-0---2---0---2-------------|-----2---3----3---2---0---2---|


D|---------------------------------|---------------------------------|---------------------------------|
A|---------------------------------|---------------------------------|---------------------------------|
E|---------------------------------|---------------------------------|-------------------------5---5---|
B|-0---2-------2---0---2---0---2---|-----2---0---2---0---2-------2---|-0---2---0---2-------------------|


D|---------------------|-----------------|--------------------|-----------------|--------------------|
A|---------------4-----|-----------------|---------------4----|-----------------|--------------------|
E|-5---5---7-----------|-----3-----2-----|-----0--------------|-----3-----2-----|-----0--------------|
B|---------------------|-----------------|--------------------|-----------------|-----------2----0---|


D|---------------------------------|------------------------------|---------------------------------|
A|---------------------------------|------------------------------|---------------------------------|
E|---------------------------------|------------------------------|---------------------------------|
B|-2---0---2---0---2---0---2---0---|-2---0---3---3---3---2----0---|-2---0---2---0---2---0---2---0---|


D|------------------------------|---------------------------------|------------------------------|
A|------------------------------|---------------------------------|------------------------------|
E|------------------------------|---------------------------------|------------------------------|
B|-2---0---5---5---0---2----0---|-2---0---2---0---2---0---2---0---|-2---0---3---3---3---5----5---|


D|------------------------------|---------------------------|---------------------------------|
A|------------------------------|---------------------------|---------------------------------|
E|---------------------5----5---|-5---7---7---5-------------|---------------------------------|
B|-5---7---7---7---7------------|------------------2----0---|-2---0---2---0---2---0---2---0---|


D|------------------------------|---------------------------------|------------------------------|
A|------------------------------|---------------------------------|------------------------------|
E|------------------------------|---------------------------------|------------------------------|
B|-2---0---3---3---3---2----0---|-2---0---2---0---2---0---2---0---|-2---0---5---5---0---2----0---|


D|---------------------------------|------------------------------|------------------------------|
A|---------------------------------|------------------------------|------------------------------|
E|---------------------------------|------------------------------|---------------------5----5---|
B|-2---0---2---0---2---0---2---0---|-2---0---3---3---3---5----5---|-5---7---7---7---7------------|


D|------------------------|-----------------|-----------------|-----------------|-----------------|
A|------------------------|-----------------|-----------------|-----------------|-----------------|
E|-5---7---7---5----------|-----------------|-----------2-----|-----------2-----|-----5-----------|
B|------------------2-----|-----------2-----|-----------------|-----------------|-----------2-----|


D|-----------------|-----------------|-----------------|-----------------|-----------------|
A|-----------------|-----------------|-----------------|-----------------|-----------------|
E|-----------------|-----------2-----|-----------2-----|-----5-----------|-----------------|
B|-----------2-----|-----------------|-----------------|-----------2-----|-----------2-----|


D|-----------------|-----------------|-----------------|-----------------|--------------------|
A|-----------------|-----------------|-----------------|-----------------|--------------------|
E|-----------2-----|-----------2-----|-----5-----------|-----------------|-----------0----2---|
B|-----------------|-----------------|-----------2-----|-----------2-----|--------------------|


D|---------------------|--------------------|------------------------|------------------------|
A|---------------------|--------------------|------------------------|------------------------|
E|-2---0---2-----------|--------------------|------------------------|------------------------|
B|---------------------|-----------2----2---|-2---2---------2----2---|-2---2---------5----5---|


D|------------------------|---------------------------|------------------------|------------------------|
A|------------------------|---------------------------|------------------------|------------------------|
E|------------------------|---------------------------|------------------------|------------------------|
B|-5---5---------5----5---|-5---3---6---6----2----2---|-2---2---------2----2---|-2---2---------5----5---|


D|------------------------|---------------------------|------------------------|------------------------|
A|------------------------|---------------------------|------------------------|------------------------|
E|------------------------|---------------------------|------------------------|------------------------|
B|-5---5---------5----5---|-5---3---6---6----2----2---|-2---2---------2----2---|-2---2---------5----5---|


D|------------------------|---------------------------|------------------------|------------------------|
A|------------------------|---------------------------|------------------------|------------------------|
E|------------------------|---------------------------|------------------------|------------------------|
B|-5---5---------5----5---|-5---3---6---6----2----2---|-2---2---------2----2---|-2---2---------5----5---|


D|------------------------|------------------------|-----------------|-----------------|
A|------------------------|------------------------|-----------------|-----------------|
E|------------------------|------------------0-----|-----2-----4-----|-----0-----5-----|
B|-5---5---------5----5---|-5---3---6---6----------|-----------------|-----------------|


D|-----------------|-----------------|-----------------|-----------------|-----------------|
A|-----------------|-----------------|-----------------|-----------4-----|-----------4-----|
E|-----4-----2-----|-----4-----0-----|-----2-----4-----|-----0-----------|-----------------|
B|-----------------|-----------------|-----------------|-----------------|-----------------|


D|-----------------|-----------------|--------------------|-----------------|-----------------|
A|-----------4-----|-----------------|---------------4----|-----------------|-----------4-----|
E|-----------------|-----3-----2-----|-----0--------------|-----3-----2-----|-----0-----------|
B|-----------------|-----------------|--------------------|-----------------|-----------------|


D|-----------------|--------------------|-----------------|--------------------|---------------------------------|
A|-----------------|---------------4----|-----------------|--------------------|---------------------------------|
E|-----3-----2-----|-----0--------------|-----3-----2-----|-----0--------------|---------------------------------|
B|-----------------|--------------------|-----------------|-----------2----0---|-2---0---2---0---2---0---2---0---|


D|------------------------------|---------------------------------|------------------------------|
A|------------------------------|---------------------------------|------------------------------|
E|------------------------------|---------------------------------|------------------------------|
B|-2---0---3---3---3---2----0---|-2---0---2---0---2---0---2---0---|-2---0---5---5---0---2----0---|


D|---------------------------------|------------------------------|------------------------------|
A|---------------------------------|------------------------------|------------------------------|
E|---------------------------------|------------------------------|---------------------5----5---|
B|-2---0---2---0---2---0---2---0---|-2---0---3---3---3---5----5---|-5---7---7---7---7------------|


D|---------------------------|---------------------------------|------------------------------|
A|---------------------------|---------------------------------|------------------------------|
E|-5---7---7---5-------------|---------------------------------|------------------------------|
B|------------------2----0---|-2---0---2---0---2---0---2---0---|-2---0---3---3---3---2----0---|


D|---------------------------------|------------------------------|---------------------------------|
A|---------------------------------|------------------------------|---------------------------------|
E|---------------------------------|------------------------------|---------------------------------|
B|-2---0---2---0---2---0---2---0---|-2---0---5---5---0---2----0---|-2---0---2---0---2---0---2---0---|


D|------------------------------|------------------------------|---------------------------|
A|------------------------------|------------------------------|---------------------------|
E|------------------------------|---------------------5----5---|-5---7---7---5-------------|
B|-2---0---3---3---3---5----5---|-5---7---7---7---7------------|------------------2----0---|


D|---------------------|----------------|
A|---------------------|----------------|
E|---------------------|----------------|
B|-2---0---2-----------|----------------|