Menu:

 

Search:

 

soilwork - cranking the sirens:

 



#----------------------------------PLEASE NOTE---------------------------------#
#This file is the author's own work and represents their interpretation of the #
#song. You may only use this file for private study, scholarship, or research. #
#------------------------------------------------------------------------------#

  Visit MetalTabs.com for more metal tablature
  
Band:  (Soilwork)
Album: (Figure Number Five)
Song:  (Cranking The Sirens)

Copyright (c)  (Nuclear Blast) (2003)
Version 1.0

Transcribed By: (George Caruso)
Email:          (s0ilw0rkisg0d@aol.com)


.  - palm mute           /  - slide up to
\  - slide down to       ~  - vibrato
h  - hammer on           b  - Bend
p  - pull off            Suffixes for bend
t  - tap                 f  - full bend    h - half bend
ph - pinched harmonic    q  - quarter bend t - tap bend
*  - see comment         ^  - Hold bend    r release bend
x  - Stuccatto           ~  - vibrato bend
,  - slight palm mute    () - ghost note, sustained note
"  - tremolo note        <> - Trill

Tunning B E A D Fs B

Intro

1)-------------------------------------------------------------
2)-------------------------------------------------------------
3)--------------------------------------------------------------
4)--------------------------------------------------------------
5)---------------------------------------------------------------
6)--2-0-2-5--2-0-2-4--2-0-2-4---2-0-2-4--4-5-5-7--


1)--------------------------------------------------------
2)---------9----------8----------------8--9--9--11---
3)---------------------------------------------------------
4)---------7----------6----------------6--7--7--9------
5)----------------------------------------------------------
6)--2-0-2------2-0-2-----2-0-2-4---------------------

guitar one
1)-----------------------------------------------------------
2)-----------------------------------------------------------
3)----------6------------------------------------------------
4)--7-------6------------------------------------------------
5)--7---7---4-----------------------------------------------
6)--5---4----------------------------------------------------

guitar two
1)----------------------------------------------------
2)--16-16-16-16--15-15-15-15--8-8-8-8--
3)-----------------------------------------------------
4)--14-14-14-14--13-13-13-13--6-6-6-6--
5)----------------------------------------------------
6)-----------------------------------------------------


Bridge
1)------------------------------------------------------
2)------------------------------------------------------
3)--4--------------------------------------------------
4)--2----6---------------------------------------------
5)--2----6---------------------------------------------
6)--0----4---------------------------------------------

  Visit MetalTabs.com for more metal tablature