Menu:

 

Search:

 

soilwork - centro de predominio:

 



Title:  Centro De Predominio 
Artist: 
Album: Steelbath Suicide
Author: 


Track 1: Rhythem Guitar

E|---------------------|-------------------------------------------------|-------------------------------------------------|
B|---------------------|-------------------------------------------------|-------------------------------------------------|
G|---------------------|-------------------------------------------------|-------------------------------------------------|
D|---------------------|-------------------------------------------------|-------------------------------------------------|
A|---------------------|-------------------------------------------------|-------------------------------------------------|
E|---------------------|-------------------------------------------------|-------------------------------------------------|
B|------5----4----1----|-5---5---5---5---5---5---5---5---5---5---5---5---|-5---5---5---5---5---5---5---5---5---5---5---5---|


E|-------------------------------------------------|-------------------------------------------------|
B|-------------------------------------------------|-------------------------------------------------|
G|-------------------------------------------------|-------------------------------------------------|
D|-------------------------------------------------|-------------------------------------------------|
A|-------------------------------------------------|-------------------------------------------------|
E|-------------------------------------------------|-------------------------------------------------|
B|-1---1---1---1---1---1---1---1---1---1---1---1---|-4---4---4---4---4---4---4---4---4---4---4---4---|


E|-------------------------------------------------|-------------------------------------------------|
B|-------------------------------------------------|-------------------------------------------------|
G|-------------------------------------------------|-------------------------------------------------|
D|-------------------------------------------------|-------------------------------------------------|
A|-------------------------------------------------|-------------------------------------------------|
E|-------------------------------------------------|-------------------------------------------------|
B|-5---5---5---5---5---5---5---5---5---5---5---5---|-5---5---5---5---5---5---5---5---5---5---5---5---|


E|-------------------------------------------------|---------------------------------------|
B|-------------------------------------------------|---------------------------------------|
G|-------------------------------------------------|---------------------------------------|
D|-------------------------------------------------|---------------------------------------|
A|-------------------------------------------------|---------------------------------------|
E|-------------------------------------------------|---------------------------------------|
B|-1---1---1---1---1---1---1---1---1---1---1---1---|-4---4---4---4---4---4---4-------------|


E|-------------------------------------------------|-------------------------------------------------|
B|-------------------------------------------------|-------------------------------------------------|
G|-------------------------------------------------|-------------------------------------------------|
D|-------------------------------------------------|-------------------------------------------------|
A|-------------------------------------------------|-------------------------------------------------|
E|-3---3---3---3---3---3---3---3---3---3---3---3---|-3---3---3---3---3---3---3---3---3---3---3---3---|
B|-5---5---5---5---5---5---5---5---5---5---5---5---|-5---5---5---5---5---5---5---5---5---5---5---5---|


E|-------------------------------------------------|-------------------------------------------|
B|-------------------------------------------------|-------------------------------------------|
G|-------------------------------------------------|-------------------------------------------|
D|-------------------------------------------------|-------------------------------------------|
A|-------------------------------------------------|-------------------------------------------|
E|-0---0---0---0---0---0---0---0---0---0---0---0---|-2----2---2---2---2---2----2---2---2---2---|
B|-1---1---1---1---1---1---1---1---1---1---1---1---|-4----4---4---4---4---4----4---4---4---4---|


E|-------------------------------------------------|-------------------------------------------------|
B|-------------------------------------------------|-------------------------------------------------|
G|-------------------------------------------------|-------------------------------------------------|
D|-------------------------------------------------|-------------------------------------------------|
A|-------------------------------------------------|-------------------------------------------------|
E|-3---3---3---3---3---3---3---3---3---3---3---3---|-3---3---3---3---3---3---3---3---3---3---3---3---|
B|-5---5---5---5---5---5---5---5---5---5---5---5---|-5---5---5---5---5---5---5---5---5---5---5---5---|


E|-------------------------------------------------|-------------------------------------------|
B|-------------------------------------------------|-------------------------------------------|
G|-------------------------------------------------|-------------------------------------------|
D|-------------------------------------------------|-------------------------------------------|
A|-------------------------------------------------|-------------------------------------------|
E|-0---0---0---0---0---0---0---0---0---0---0---0---|-2----2---2---2---2---2----2---2---2---2---|
B|-1---1---1---1---1---1---1---1---1---1---1---1---|-4----4---4---4---4---4----4---4---4---4---|


E|--------------------|--------------------|--------------------|------------------------|
B|--------------------|--------------------|--------------------|------------------------|
G|--------------------|--------------------|--------------------|------------------------|
D|--------------------|--------------------|--------------------|------------------------|
A|--------------------|--------------------|--------------------|------------------------|
E|-7-----7---9----10--|-9-----9---10---12--|-10----10--12---14--|-12---10--9----7---5----|
B|-5-----5---7----8---|-7-----7---8----10--|-8-----8---10---12--|-10---8---7----5---3----|


E|--------------------|--------------------|--------------------|-------------|--------------------|
B|--------------------|--------------------|--------------------|-------------|--------------------|
G|--------------------|--------------------|--------------------|-------------|--------------------|
D|--------------------|--------------------|--------------------|-------------|--------------------|
A|--------------------|--------------------|--------------------|-------------|--------------------|
E|-7-----7---9----10--|-9-----9---10---12--|-6-----6---6----6---|-7-----3-----|-7-----7---9----10--|
B|-5-----5---7----8---|-7-----7---8----10--|-4-----4---4----4---|-5-----1-----|-5-----5---7----8---|


E|--------------------|--------------------|------------------------|--------------------|
B|--------------------|--------------------|------------------------|--------------------|
G|--------------------|--------------------|------------------------|--------------------|
D|--------------------|--------------------|------------------------|--------------------|
A|--------------------|--------------------|------------------------|--------------------|
E|-9-----9---10---12--|-10----10--12---14--|-12---10--9----7---5----|-7-----7---9----10--|
B|-7-----7---8----10--|-8-----8---10---12--|-10---8---7----5---3----|-5-----5---7----8---|


E|--------------------|--------------------|-------------|-------------------------------------------------|
B|--------------------|--------------------|-------------|-------------------------------------------------|
G|--------------------|--------------------|-------------|-------------------------------------------------|
D|--------------------|--------------------|-------------|-------------------------------------------------|
A|--------------------|--------------------|-------------|-------------------------------------------------|
E|-9-----9---10---12--|-6-----6---6----6---|-7-----3-----|-3---3---3---3---3---3---3---3---3---3---3---3---|
B|-7-----7---8----10--|-4-----4---4----4---|-5-----1-----|-5---5---5---5---5---5---5---5---5---5---5---5---|


E|-------------------------------------------------|-------------------------------------------------|
B|-------------------------------------------------|-------------------------------------------------|
G|-------------------------------------------------|-------------------------------------------------|
D|-------------------------------------------------|-------------------------------------------------|
A|-------------------------------------------------|-------------------------------------------------|
E|-3---3---3---3---3---3---3---3---3---3---3---3---|-0---0---0---0---0---0---0---0---0---0---0---0---|
B|-5---5---5---5---5---5---5---5---5---5---5---5---|-1---1---1---1---1---1---1---1---1---1---1---1---|


E|-------------------------------------------|-------------------------------------------------|
B|-------------------------------------------|-------------------------------------------------|
G|-------------------------------------------|-------------------------------------------------|
D|-------------------------------------------|-------------------------------------------------|
A|-------------------------------------------|-------------------------------------------------|
E|-2----2---2---2---2---2----2---2---2---2---|-3---3---3---3---3---3---3---3---3---3---3---3---|
B|-4----4---4---4---4---4----4---4---4---4---|-5---5---5---5---5---5---5---5---5---5---5---5---|


E|-------------------------------------------------|-------------------------------------------------|
B|-------------------------------------------------|-------------------------------------------------|
G|-------------------------------------------------|-------------------------------------------------|
D|-------------------------------------------------|-------------------------------------------------|
A|-------------------------------------------------|-------------------------------------------------|
E|-3---3---3---3---3---3---3---3---3---3---3---3---|-0---0---0---0---0---0---0---0---0---0---0---0---|
B|-5---5---5---5---5---5---5---5---5---5---5---5---|-1---1---1---1---1---1---1---1---1---1---1---1---|


E|-------------------------------------------|-------------------------------------------------|
B|-------------------------------------------|-------------------------------------------------|
G|-------------------------------------------|-------------------------------------------------|
D|-------------------------------------------|-------------------------------------------------|
A|-------------------------------------------|-------------------------------------------------|
E|-2----2---2---2---2---2----2---2---2---2---|-3---3---3---3---3---3---3---3---3---3---3---3---|
B|-4----4---4---4---4---4----4---4---4---4---|-5---5---5---5---5---5---5---5---5---5---5---5---|


E|-------------------------------------------------|-------------------------------------------------|
B|-------------------------------------------------|-------------------------------------------------|
G|-------------------------------------------------|-------------------------------------------------|
D|-------------------------------------------------|-------------------------------------------------|
A|-------------------------------------------------|-------------------------------------------------|
E|-3---3---3---3---3---3---3---3---3---3---3---3---|-0---0---0---0---0---0---0---0---0---0---0---0---|
B|-5---5---5---5---5---5---5---5---5---5---5---5---|-1---1---1---1---1---1---1---1---1---1---1---1---|


E|-------------------------------------------|-------------------------------------------------|
B|-------------------------------------------|-------------------------------------------------|
G|-------------------------------------------|-------------------------------------------------|
D|-------------------------------------------|-------------------------------------------------|
A|-------------------------------------------|-------------------------------------------------|
E|-2----2---2---2---2---2----2---2---2---2---|-3---3---3---3---3---3---3---3---3---3---3---3---|
B|-4----4---4---4---4---4----4---4---4---4---|-5---5---5---5---5---5---5---5---5---5---5---5---|


E|-------------------------------------------------|-------------------------------------------------|
B|-------------------------------------------------|-------------------------------------------------|
G|-------------------------------------------------|-------------------------------------------------|
D|-------------------------------------------------|-------------------------------------------------|
A|-------------------------------------------------|-------------------------------------------------|
E|-3---3---3---3---3---3---3---3---3---3---3---3---|-0---0---0---0---0---0---0---0---0---0---0---0---|
B|-5---5---5---5---5---5---5---5---5---5---5---5---|-1---1---1---1---1---1---1---1---1---1---1---1---|


E|-------------------------------------------|--------------------|--------------------|
B|-------------------------------------------|--------------------|--------------------|
G|-------------------------------------------|--------------------|--------------------|
D|-------------------------------------------|--------------------|--------------------|
A|-------------------------------------------|--------------------|--------------------|
E|-2----2---2---2---2---2----2---2---2---2---|-7-----7---9----10--|-9-----9---10---12--|
B|-4----4---4---4---4---4----4---4---4---4---|-5-----5---7----8---|-7-----7---8----10--|


E|--------------------|------------------------|--------------------|--------------------|
B|--------------------|------------------------|--------------------|--------------------|
G|--------------------|------------------------|--------------------|--------------------|
D|--------------------|------------------------|--------------------|--------------------|
A|--------------------|------------------------|--------------------|--------------------|
E|-10----10--12---14--|-12---10--9----7---5----|-7-----7---9----10--|-9-----9---10---12--|
B|-8-----8---10---12--|-10---8---7----5---3----|-5-----5---7----8---|-7-----7---8----10--|


E|--------------------|-------------|--------------------|--------------------|--------------------|
B|--------------------|-------------|--------------------|--------------------|--------------------|
G|--------------------|-------------|--------------------|--------------------|--------------------|
D|--------------------|-------------|--------------------|--------------------|--------------------|
A|--------------------|-------------|--------------------|--------------------|--------------------|
E|-6-----6---6----6---|-7-----3-----|-7-----7---9----10--|-9-----9---10---12--|-10----10--12---14--|
B|-4-----4---4----4---|-5-----1-----|-5-----5---7----8---|-7-----7---8----10--|-8-----8---10---12--|


E|------------------------|--------------------|--------------------|--------------------|
B|------------------------|--------------------|--------------------|--------------------|
G|------------------------|--------------------|--------------------|--------------------|
D|------------------------|--------------------|--------------------|--------------------|
A|------------------------|--------------------|--------------------|--------------------|
E|-12---10--9----7---5----|-7-----7---9----10--|-9-----9---10---12--|-6-----6---6----6---|
B|-10---8---7----5---3----|-5-----5---7----8---|-7-----7---8----10--|-4-----4---4----4---|


E|-------------|------------------------------|-----------------------------------|
B|-------------|------------------------------|-----------------------------------|
G|-------------|------------------------------|-4--5--4---------------------------|
D|-------------|------4-------5-------4-------|-----------7---9---7---5-----------|
A|-------------|-7----------------------------|---------------------------9---3---|
E|-7-----3-----|-7--------7-------7-------7---|-------------------------------3---|
B|-5-----1-----|-5--------5-------5-------5---|-------------------------------1---|


E|--------------------------------|-----------------------------|------------------------------|
B|--------------------------------|-----------------------------|------------------------------|
G|--------------------------------|-----------------------------|------4-------5-------4-------|
D|--------------------------------|-----------------------------|------------------------------|
A|-3---------------------3----6---|-6-----------------6---6-----|-7----------------------------|
E|-3---3---3--3--3---3---3----6---|-6---6---6--6--6---6---6-----|-7--------7-------7-------7---|
B|-1---1---1--1--1---1---1----4---|-4---4---4--4--4---4---4-----|-5--------5-------5-------5---|


E|-----------------------------------|--------------------------------|-----------------------------|
B|-----------------------------------|--------------------------------|-----------------------------|
G|-4--5--4---------------------------|--------------------------------|-----------------------------|
D|-----------7---9---7---5-----------|--------------------------------|-----------------------------|
A|---------------------------9---3---|-3---------------------3----6---|-6---------------------6-----|
E|-------------------------------3---|-3---3---3--3--3---3---3----6---|-6---6---6--6--6---6---6-----|
B|-------------------------------1---|-1---1---1--1--1---1---1----4---|-4---4---4--4--4---4---4-----|


E|------------------------------|-----------------------------------|--------------------------------|
B|------------------------------|-----------------------------------|--------------------------------|
G|------------------------------|-4--5--4---------------------------|--------------------------------|
D|------------------------------|-----------7---9---7---5-----------|--------------------------------|
A|-7----5-------7-------5-------|---------------------------9---3---|-3---------------------3----6---|
E|-7--------7-------7-------7---|-------------------------------3---|-3---3---3--3--3---3---3----6---|
B|-5--------5-------5-------5---|-------------------------------1---|-1---1---1--1--1---1---1----4---|


E|-----------------------------|------------------------------|-----------------------------------|
B|-----------------------------|------------------------------|-----------------------------------|
G|-----------------------------|------------------------------|-4--5--4---------------------------|
D|-----------------------------|------4-------5-------4-------|-----------7---9---7---5-----------|
A|-6---------------------6-----|-7----------------------------|---------------------------9---3---|
E|-6---6---6--6--6---6---6-----|-7--------7-------7-------7---|-------------------------------3---|
B|-4---4---4--4--4---4---4-----|-5--------5-------5-------5---|-------------------------------1---|


E|--------------------------------|-----------------------------|------------------------------|
B|--------------------------------|-----------------------------|------------------------------|
G|--------------------------------|-----------------------------|------------------------------|
D|--------------------------------|-----------------------------|------4-------5-------4-------|
A|-3---------------------3----6---|-6---------------------6-----|-7----------------------------|
E|-3---3---3--3--3---3---3----6---|-6---6---6--6--6---6---6-----|-7--------7-------7-------7---|
B|-1---1---1--1--1---1---1----4---|-4---4---4--4--4---4---4-----|-5--------5-------5-------5---|


E|-----------------------------------|--------------------------------|-----------------------------|
B|-----------------------------------|--------------------------------|-----------------------------|
G|-4--5--4---------------------------|--------------------------------|-----------------------------|
D|-----------7---9---7---5-----------|--------------------------------|-----------------------------|
A|---------------------------9---3---|-3---------------------3----6---|-6---------------------6-----|
E|-------------------------------3---|-3---3--3--3---3---3---3----6---|-6---6---6--6--6---6---6-----|
B|-------------------------------1---|-1---1--1--1---1---1---1----4---|-4---4---4--4--4---4---4-----|


E|------------------------------|-----------------------------------|--------------------------------|
B|------------------------------|-----------------------------------|--------------------------------|
G|------------------------------|-4--5--4---------------------------|--------------------------------|
D|------4-------5-------4-------|-----------7---9---7---5-----------|--------------------------------|
A|-7----------------------------|---------------------------9---3---|-3---------------------3----6---|
E|-7--------7-------7-------7---|-------------------------------3---|-3---3---3--3--3---3---3----6---|
B|-5--------5-------5-------5---|-------------------------------1---|-1---1---1--1--1---1---1----4---|


E|-----------------------------|
B|-----------------------------|
G|-----------------------------|
D|-----------------------------|
A|-6---------------------6-----|
E|-6---6---6--6--6---6---6-----|
B|-4---4---4--4--4---4---4-----|





Track 2: Rhythem Guitar

E|---------------------|-------------------------------------------------|-------------------------------------------------|
B|---------------------|-------------------------------------------------|-------------------------------------------------|
G|---------------------|-------------------------------------------------|-------------------------------------------------|
D|---------------------|-------------------------------------------------|-------------------------------------------------|
A|---------------------|-------------------------------------------------|-------------------------------------------------|
E|----------------3----|-3---3---3---3---3---3---3---3---3---3---3---3---|-3---3---3---3---3---3---3---3---3---3---3---3---|
B|------5----4---------|-------------------------------------------------|-------------------------------------------------|


E|-------------------------------------------------|-------------------------------------------------|
B|-------------------------------------------------|-------------------------------------------------|
G|-------------------------------------------------|-------------------------------------------------|
D|-------------------------------------------------|-------------------------------------------------|
A|-------------------------------------------------|-------------------------------------------------|
E|-5---5---5---5---5---5---5---5---5---5---5---5---|-2---2---2---2---2---2---2---2---2---2---2---2---|
B|-------------------------------------------------|-------------------------------------------------|


E|-------------------------------------------------|-------------------------------------------------|
B|-------------------------------------------------|-------------------------------------------------|
G|-------------------------------------------------|-------------------------------------------------|
D|-------------------------------------------------|-------------------------------------------------|
A|-------------------------------------------------|-------------------------------------------------|
E|-7---7---7---7---7---7---7---7---7---7---7---7---|-7---7---7---7---7---7---7---7---7---7---7---7---|
B|-------------------------------------------------|-------------------------------------------------|


E|-------------------------------------------------|---------------------------------------|
B|-------------------------------------------------|---------------------------------------|
G|-------------------------------------------------|---------------------------------------|
D|-------------------------------------------------|---------------------------------------|
A|-------------------------------------------------|---------------------------------------|
E|-8---8---8---8---8---8---8---8---8---8---8---8---|-5---5---5---5---5---5---5-------------|
B|-------------------------------------------------|---------------------------------------|


E|--------|--------|--------|--------|--------|--------|--------|--------|--------------------|
B|--------|--------|--------|--------|--------|--------|--------|--------|--------------------|
G|--------|--------|--------|--------|--------|--------|--------|--------|--------------------|
D|--------|--------|--------|--------|--------|--------|--------|--------|-5-----5---7----9---|
A|--------|--------|--------|--------|--------|--------|--------|--------|--------------------|
E|--------|--------|--------|--------|--------|--------|--------|--------|--------------------|
B|--------|--------|--------|--------|--------|--------|--------|--------|--------------------|


E|--------------------|--------------------|------------------------|--------------------|
B|--------------------|--------------------|------------------------|--------------------|
G|--------------------|--------------------|------------------------|--------------------|
D|-7-----7---9----10--|-9-----9---10---12--|-10---9---7----5---4----|-5-----5---7----9---|
A|--------------------|--------------------|------------------------|--------------------|
E|--------------------|--------------------|------------------------|--------------------|
B|--------------------|--------------------|------------------------|--------------------|


E|--------------------|--------------------|-------------|--------------------|--------------------|
B|--------------------|--------------------|-------------|--------------------|--------------------|
G|--------------------|--------------------|-------------|--------------------|--------------------|
D|-7-----7---5----7---|-9-----9---7----5---|-4-----2-----|-5-----5---7----9---|-7-----7---9----10--|
A|--------------------|--------------------|-------------|--------------------|--------------------|
E|--------------------|--------------------|-------------|--------------------|--------------------|
B|--------------------|--------------------|-------------|--------------------|--------------------|


E|--------------------|------------------------|--------------------|--------------------|
B|--------------------|------------------------|--------------------|--------------------|
G|--------------------|------------------------|--------------------|--------------------|
D|-9-----9---10---12--|-10---9---7----5---4----|-5-----5---7----9---|-7-----7---5----7---|
A|--------------------|------------------------|--------------------|--------------------|
E|--------------------|------------------------|--------------------|--------------------|
B|--------------------|------------------------|--------------------|--------------------|


E|--------------------|-------------|--------|--------|--------|--------|--------|
B|--------------------|-------------|--------|--------|--------|--------|--------|
G|--------------------|-------------|--------|--------|--------|--------|--------|
D|-9-----9---7----5---|-4-----2-----|--------|--------|--------|--------|--------|
A|--------------------|-------------|--------|--------|--------|--------|--------|
E|--------------------|-------------|--------|--------|--------|--------|--------|
B|--------------------|-------------|--------|--------|--------|--------|--------|


E|--------|--------|--------|--------|--------|--------|--------|--------|--------|
B|--------|--------|--------|--------|--------|--------|--------|--------|--------|
G|--------|--------|--------|--------|--------|--------|--------|--------|--------|
D|--------|--------|--------|--------|--------|--------|--------|--------|--------|
A|--------|--------|--------|--------|--------|--------|--------|--------|--------|
E|--------|--------|--------|--------|--------|--------|--------|--------|--------|
B|--------|--------|--------|--------|--------|--------|--------|--------|--------|


E|--------|--------|--------------------|--------------------|--------------------|
B|--------|--------|--------------------|--------------------|--------------------|
G|--------|--------|--------------------|--------------------|--------------------|
D|--------|--------|-5-----5---7----9---|-7-----7---9----10--|-9-----9---10---12--|
A|--------|--------|--------------------|--------------------|--------------------|
E|--------|--------|--------------------|--------------------|--------------------|
B|--------|--------|--------------------|--------------------|--------------------|


E|------------------------|--------------------|--------------------|--------------------|
B|------------------------|--------------------|--------------------|--------------------|
G|------------------------|--------------------|--------------------|--------------------|
D|-10---9---7----5---4----|-5-----5---7----9---|-7-----7---5----7---|-9-----9---7----5---|
A|------------------------|--------------------|--------------------|--------------------|
E|------------------------|--------------------|--------------------|--------------------|
B|------------------------|--------------------|--------------------|--------------------|


E|-------------|--------------------|--------------------|--------------------|------------------------|
B|-------------|--------------------|--------------------|--------------------|------------------------|
G|-------------|--------------------|--------------------|--------------------|------------------------|
D|-4-----2-----|-5-----5---7----9---|-7-----7---9----10--|-9-----9---10---12--|-10---9---7----5---4----|
A|-------------|--------------------|--------------------|--------------------|------------------------|
E|-------------|--------------------|--------------------|--------------------|------------------------|
B|-------------|--------------------|--------------------|--------------------|------------------------|


E|--------------------|--------------------|--------------------|-------------|------------------------------|
B|--------------------|--------------------|--------------------|-------------|------------------------------|
G|--------------------|--------------------|--------------------|-------------|------------------------------|
D|-5-----5---7----9---|-7-----7---5----7---|-9-----9---7----5---|-4-----2-----|------------------------------|
A|--------------------|--------------------|--------------------|-------------|-7----5-------7-------5-------|
E|--------------------|--------------------|--------------------|-------------|-7--------7-------7-------7---|
B|--------------------|--------------------|--------------------|-------------|-5--------5-------5-------5---|


E|-----------------------------------|--------------------------------|-----------------------------|
B|-----------------------------------|--------------------------------|-----------------------------|
G|-----------------------------------|--------------------------------|-----------------------------|
D|-5--7--5---------------------------|--------------------------------|-----------------------------|
A|-----------9---10--9---7---5---3---|-3---------------------3----6---|-6-----------------6---6-----|
E|-------------------------------3---|-3---3---3--3--3---3---3----6---|-6---6---6--6--6---6---6-----|
B|-------------------------------1---|-1---1---1--1--1---1---1----4---|-4---4---4--4--4---4---4-----|


E|------------------------------|-----------------------------------|--------------------------------|
B|------------------------------|-----------------------------------|--------------------------------|
G|------------------------------|-----------------------------------|--------------------------------|
D|------------------------------|-5--7--5---------------------------|--------------------------------|
A|-7----5-------7-------5-------|-----------9---10--9---7---5---3---|-3---------------------3----6---|
E|-7--------7-------7-------7---|-------------------------------3---|-3---3---3--3--3---3---3----6---|
B|-5--------5-------5-------5---|-------------------------------1---|-1---1---1--1--1---1---1----4---|


E|-----------------------------|------------------------------|-----------------------------------|
B|-----------------------------|------------------------------|-----------------------------------|
G|-----------------------------|------------------------------|-----------------------------------|
D|-----------------------------|------4-------5-------4-------|-5--7--5---------------------------|
A|-6---------------------6-----|-7----------------------------|-----------9---10--9---7---5---3---|
E|-6---6---6--6--6---6---6-----|-7--------7-------7-------7---|-------------------------------3---|
B|-4---4---4--4--4---4---4-----|-5--------5-------5-------5---|-------------------------------1---|


E|--------------------------------|-----------------------------|------------------------------|
B|--------------------------------|-----------------------------|------------------------------|
G|--------------------------------|-----------------------------|------------------------------|
D|--------------------------------|-----------------------------|------------------------------|
A|-3---------------------3----6---|-6---------------------6-----|-7----5-------7-------5-------|
E|-3---3---3--3--3---3---3----6---|-6---6---6--6--6---6---6-----|-7--------7-------7-------7---|
B|-1---1---1--1--1---1---1----4---|-4---4---4--4--4---4---4-----|-5--------5-------5-------5---|


E|-----------------------------------|--------------------------------|-----------------------------|
B|-----------------------------------|--------------------------------|-----------------------------|
G|-----------------------------------|--------------------------------|-----------------------------|
D|-5--7--5---------------------------|--------------------------------|-----------------------------|
A|-----------9---10--9---7---5---3---|-3---------------------3----6---|-6---------------------6-----|
E|-------------------------------3---|-3---3---3--3--3---3---3----6---|-6---6---6--6--6---6---6-----|
B|-------------------------------1---|-1---1---1--1--1---1---1----4---|-4---4---4--4--4---4---4-----|


E|------------------------------|-----------------------------------|--------------------------------|
B|------------------------------|-----------------------------------|--------------------------------|
G|------------------------------|-----------------------------------|--------------------------------|
D|------------------------------|-5--7--5---------------------------|--------------------------------|
A|-7----5-------7-------5-------|-----------9---10--9---7---5---3---|-3---------------------3----6---|
E|-7--------7-------7-------7---|-------------------------------3---|-3---3--3--3---3---3---3----6---|
B|-5--------5-------5-------5---|-------------------------------1---|-1---1--1--1---1---1---1----4---|


E|-----------------------------|------------------------------|-----------------------------------|
B|-----------------------------|------------------------------|-----------------------------------|
G|-----------------------------|------------------------------|-----------------------------------|
D|-----------------------------|------------------------------|-5--7--5---------------------------|
A|-6---------------------6-----|-7----5-------7-------5-------|-----------9---10--9---7---5---3---|
E|-6---6---6--6--6---6---6-----|-7--------7-------7-------7---|-------------------------------3---|
B|-4---4---4--4--4---4---4-----|-5--------5-------5-------5---|-------------------------------1---|


E|--------------------------------|-----------------------------|
B|--------------------------------|-----------------------------|
G|--------------------------------|-----------------------------|
D|--------------------------------|-----------------------------|
A|-3---------------------3----6---|-6---------------------6-----|
E|-3---3---3--3--3---3---3----6---|-6---6---6--6--6---6---6-----|
B|-1---1---1--1--1---1---1----4---|-4---4---4--4--4---4---4-----|





Track 3: Lead Guitar

E|--------|--------|--------|--------|--------|--------|--------|--------|--------|
B|--------|--------|--------|--------|--------|--------|--------|--------|--------|
G|--------|--------|--------|--------|--------|--------|--------|--------|--------|
D|--------|--------|--------|--------|--------|--------|--------|--------|--------|
A|--------|--------|--------|--------|--------|--------|--------|--------|--------|
E|--------|--------|--------|--------|--------|--------|--------|--------|--------|
B|--------|--------|--------|--------|--------|--------|--------|--------|--------|


E|-8---5---5---7---5---5---8---5---5---7---5---5---|-8---5---5---7---5---5---8---7---5---3---2---0---|
B|-------------------------------------------------|-------------------------------------------------|
G|-------------------------------------------------|-------------------------------------------------|
D|-------------------------------------------------|-------------------------------------------------|
A|-------------------------------------------------|-------------------------------------------------|
E|-------------------------------------------------|-------------------------------------------------|
B|-------------------------------------------------|-------------------------------------------------|


E|-3---0---0---2---0---0---3---0---0---2---0---0---|-3----3---2---0---------|-8---5---5---7---5---5---8---5---5---7---5---5---|
B|-------------------------------------------------|------------------0-----|-------------------------------------------------|
G|-------------------------------------------------|------------------------|-------------------------------------------------|
D|-------------------------------------------------|------------------------|-------------------------------------------------|
A|-------------------------------------------------|------------------------|-------------------------------------------------|
E|-------------------------------------------------|------------------------|-------------------------------------------------|
B|-------------------------------------------------|------------------------|-------------------------------------------------|


E|-8---5---5---7---5---5---8---7---5---3---2---0---|-3---0---0---2---0---0---3---0---0---2---0---0---|
B|-------------------------------------------------|-------------------------------------------------|
G|-------------------------------------------------|-------------------------------------------------|
D|-------------------------------------------------|-------------------------------------------------|
A|-------------------------------------------------|-------------------------------------------------|
E|-------------------------------------------------|-------------------------------------------------|
B|-------------------------------------------------|-------------------------------------------------|


E|-3----3---2---0---------|--------|--------|--------|--------|--------|--------|--------|
B|------------------0-----|--------|--------|--------|--------|--------|--------|--------|
G|------------------------|--------|--------|--------|--------|--------|--------|--------|
D|------------------------|--------|--------|--------|--------|--------|--------|--------|
A|------------------------|--------|--------|--------|--------|--------|--------|--------|
E|------------------------|--------|--------|--------|--------|--------|--------|--------|
B|------------------------|--------|--------|--------|--------|--------|--------|--------|


E|--------|--------|--------|--------|--------|--------|--------|--------|--------|
B|--------|--------|--------|--------|--------|--------|--------|--------|--------|
G|--------|--------|--------|--------|--------|--------|--------|--------|--------|
D|--------|--------|--------|--------|--------|--------|--------|--------|--------|
A|--------|--------|--------|--------|--------|--------|--------|--------|--------|
E|--------|--------|--------|--------|--------|--------|--------|--------|--------|
B|--------|--------|--------|--------|--------|--------|--------|--------|--------|


E|-8---5---5---7---5---5---8---5---5---7---5---5---|-8---5---5---7---5---5---8---7---5---3---2---0---|
B|-------------------------------------------------|-------------------------------------------------|
G|-------------------------------------------------|-------------------------------------------------|
D|-------------------------------------------------|-------------------------------------------------|
A|-------------------------------------------------|-------------------------------------------------|
E|-------------------------------------------------|-------------------------------------------------|
B|-------------------------------------------------|-------------------------------------------------|


E|-3---0---0---2---0---0---3---0---0---2---0---0---|-3----3---2---0---------|-8---5---5---7---5---5---8---5---5---7---5---5---|
B|-------------------------------------------------|------------------0-----|-------------------------------------------------|
G|-------------------------------------------------|------------------------|-------------------------------------------------|
D|-------------------------------------------------|------------------------|-------------------------------------------------|
A|-------------------------------------------------|------------------------|-------------------------------------------------|
E|-------------------------------------------------|------------------------|-------------------------------------------------|
B|-------------------------------------------------|------------------------|-------------------------------------------------|


E|-8---5---5---7---5---5---8---7---5---3---2---0---|-3---0---0---2---0---0---3---0---0---2---0---0---|
B|-------------------------------------------------|-------------------------------------------------|
G|-------------------------------------------------|-------------------------------------------------|
D|-------------------------------------------------|-------------------------------------------------|
A|-------------------------------------------------|-------------------------------------------------|
E|-------------------------------------------------|-------------------------------------------------|
B|-------------------------------------------------|-------------------------------------------------|


E|-3----3---2---0---------|-8---5---5---7---5---5---8---5---5---7---5---5---|-8---5---5---7---5---5---8---7---5---3---2---0---|
B|------------------0-----|-------------------------------------------------|-------------------------------------------------|
G|------------------------|-------------------------------------------------|-------------------------------------------------|
D|------------------------|-------------------------------------------------|-------------------------------------------------|
A|------------------------|-------------------------------------------------|-------------------------------------------------|
E|------------------------|-------------------------------------------------|-------------------------------------------------|
B|------------------------|-------------------------------------------------|-------------------------------------------------|


E|-3---0---0---2---0---0---3---0---0---2---0---0---|-3----3---2---0---------|-8---5---5---7---5---5---8---5---5---7---5---5---|
B|-------------------------------------------------|------------------0-----|-------------------------------------------------|
G|-------------------------------------------------|------------------------|-------------------------------------------------|
D|-------------------------------------------------|------------------------|-------------------------------------------------|
A|-------------------------------------------------|------------------------|-------------------------------------------------|
E|-------------------------------------------------|------------------------|-------------------------------------------------|
B|-------------------------------------------------|------------------------|-------------------------------------------------|


E|-8---5---5---7---5---5---8---7---5---3---2---0---|-3---0---0---2---0---0---3---0---0---2---0---0---|
B|-------------------------------------------------|-------------------------------------------------|
G|-------------------------------------------------|-------------------------------------------------|
D|-------------------------------------------------|-------------------------------------------------|
A|-------------------------------------------------|-------------------------------------------------|
E|-------------------------------------------------|-------------------------------------------------|
B|-------------------------------------------------|-------------------------------------------------|


E|-3----3---2---0---------|--------|--------|--------|--------|--------|--------|--------|
B|------------------0-----|--------|--------|--------|--------|--------|--------|--------|
G|------------------------|--------|--------|--------|--------|--------|--------|--------|
D|------------------------|--------|--------|--------|--------|--------|--------|--------|
A|------------------------|--------|--------|--------|--------|--------|--------|--------|
E|------------------------|--------|--------|--------|--------|--------|--------|--------|
B|------------------------|--------|--------|--------|--------|--------|--------|--------|


E|--------|--------|--------|--------|--------|--------|--------|--------|--------|
B|--------|--------|--------|--------|--------|--------|--------|--------|--------|
G|--------|--------|--------|--------|--------|--------|--------|--------|--------|
D|--------|--------|--------|--------|--------|--------|--------|--------|--------|
A|--------|--------|--------|--------|--------|--------|--------|--------|--------|
E|--------|--------|--------|--------|--------|--------|--------|--------|--------|
B|--------|--------|--------|--------|--------|--------|--------|--------|--------|


E|--------|--------|--------|--------|--------|--------|--------|--------|--------|
B|--------|--------|--------|--------|--------|--------|--------|--------|--------|
G|--------|--------|--------|--------|--------|--------|--------|--------|--------|
D|--------|--------|--------|--------|--------|--------|--------|--------|--------|
A|--------|--------|--------|--------|--------|--------|--------|--------|--------|
E|--------|--------|--------|--------|--------|--------|--------|--------|--------|
B|--------|--------|--------|--------|--------|--------|--------|--------|--------|


E|--------|--------|--------|--------|--------|--------|--------|--------|--------|
B|--------|--------|--------|--------|--------|--------|--------|--------|--------|
G|--------|--------|--------|--------|--------|--------|--------|--------|--------|
D|--------|--------|--------|--------|--------|--------|--------|--------|--------|
A|--------|--------|--------|--------|--------|--------|--------|--------|--------|
E|--------|--------|--------|--------|--------|--------|--------|--------|--------|
B|--------|--------|--------|--------|--------|--------|--------|--------|--------|


E|--------|--------|--------|--------|--------|--------|
B|--------|--------|--------|--------|--------|--------|
G|--------|--------|--------|--------|--------|--------|
D|--------|--------|--------|--------|--------|--------|
A|--------|--------|--------|--------|--------|--------|
E|--------|--------|--------|--------|--------|--------|
B|--------|--------|--------|--------|--------|--------|





Track 4: Lead Guitar

E|--------|--------|--------|--------|--------|--------|--------|--------|--------|
B|--------|--------|--------|--------|--------|--------|--------|--------|--------|
G|--------|--------|--------|--------|--------|--------|--------|--------|--------|
D|--------|--------|--------|--------|--------|--------|--------|--------|--------|
A|--------|--------|--------|--------|--------|--------|--------|--------|--------|
E|--------|--------|--------|--------|--------|--------|--------|--------|--------|
B|--------|--------|--------|--------|--------|--------|--------|--------|--------|


E|-------------------------------------------------|-------------------------------------------------|
B|-10--5---5---8---5---5---10--5---5---8---5---5---|-10--5---5---8---5---5---10--8---7---5---3---0---|
G|-------------------------------------------------|-------------------------------------------------|
D|-------------------------------------------------|-------------------------------------------------|
A|-------------------------------------------------|-------------------------------------------------|
E|-------------------------------------------------|-------------------------------------------------|
B|-------------------------------------------------|-------------------------------------------------|


E|-------------------------------------------------|------------------------|-------------------------------------------------|
B|-5---0---0---3---0---0---5---0---0---3---0---0---|-3----3---2---0---------|-10--5---5---8---5---5---10--5---5---8---5---5---|
G|-------------------------------------------------|------------------------|-------------------------------------------------|
D|-------------------------------------------------|------------------4-----|-------------------------------------------------|
A|-------------------------------------------------|------------------------|-------------------------------------------------|
E|-------------------------------------------------|------------------------|-------------------------------------------------|
B|-------------------------------------------------|------------------------|-------------------------------------------------|


E|-------------------------------------------------|-------------------------------------------------|
B|-10--5---5---8---5---5---10--8---7---5---3---0---|-5---0---0---3---0---0---5---0---0---3---0---0---|
G|-------------------------------------------------|-------------------------------------------------|
D|-------------------------------------------------|-------------------------------------------------|
A|-------------------------------------------------|-------------------------------------------------|
E|-------------------------------------------------|-------------------------------------------------|
B|-------------------------------------------------|-------------------------------------------------|


E|------------------------|--------|--------|--------|--------|--------|--------|--------|
B|-3----3---2---0---------|--------|--------|--------|--------|--------|--------|--------|
G|------------------------|--------|--------|--------|--------|--------|--------|--------|
D|------------------4-----|--------|--------|--------|--------|--------|--------|--------|
A|------------------------|--------|--------|--------|--------|--------|--------|--------|
E|------------------------|--------|--------|--------|--------|--------|--------|--------|
B|------------------------|--------|--------|--------|--------|--------|--------|--------|


E|--------|--------|--------|--------|--------|--------|--------|--------|--------|
B|--------|--------|--------|--------|--------|--------|--------|--------|--------|
G|--------|--------|--------|--------|--------|--------|--------|--------|--------|
D|--------|--------|--------|--------|--------|--------|--------|--------|--------|
A|--------|--------|--------|--------|--------|--------|--------|--------|--------|
E|--------|--------|--------|--------|--------|--------|--------|--------|--------|
B|--------|--------|--------|--------|--------|--------|--------|--------|--------|


E|-------------------------------------------------|-------------------------------------------------|
B|-10--5---5---8---5---5---10--5---5---8---5---5---|-10--5---5---8---5---5---10--8---7---5---3---0---|
G|-------------------------------------------------|-------------------------------------------------|
D|-------------------------------------------------|-------------------------------------------------|
A|-------------------------------------------------|-------------------------------------------------|
E|-------------------------------------------------|-------------------------------------------------|
B|-------------------------------------------------|-------------------------------------------------|


E|-------------------------------------------------|------------------------|-------------------------------------------------|
B|-5---0---0---3---0---0---5---0---0---3---0---0---|-3----3---2---0---------|-10--5---5---8---5---5---10--5---5---8---5---5---|
G|-------------------------------------------------|------------------------|-------------------------------------------------|
D|-------------------------------------------------|------------------4-----|-------------------------------------------------|
A|-------------------------------------------------|------------------------|-------------------------------------------------|
E|-------------------------------------------------|------------------------|-------------------------------------------------|
B|-------------------------------------------------|------------------------|-------------------------------------------------|


E|-------------------------------------------------|-------------------------------------------------|
B|-10--5---5---8---5---5---10--8---7---5---3---0---|-5---0---0---3---0---0---5---0---0---3---0---0---|
G|-------------------------------------------------|-------------------------------------------------|
D|-------------------------------------------------|-------------------------------------------------|
A|-------------------------------------------------|-------------------------------------------------|
E|-------------------------------------------------|-------------------------------------------------|
B|-------------------------------------------------|-------------------------------------------------|


E|------------------------|-------------------------------------------------|-------------------------------------------------|
B|-3----3---2---0---------|-10--5---5---8---5---5---10--5---5---8---5---5---|-10--5---5---8---5---5---10--8---7---5---3---0---|
G|------------------------|-------------------------------------------------|-------------------------------------------------|
D|------------------4-----|-------------------------------------------------|-------------------------------------------------|
A|------------------------|-------------------------------------------------|-------------------------------------------------|
E|------------------------|-------------------------------------------------|-------------------------------------------------|
B|------------------------|-------------------------------------------------|-------------------------------------------------|


E|-------------------------------------------------|------------------------|-------------------------------------------------|
B|-5---0---0---3---0---0---5---0---0---3---0---0---|-3----3---2---0---------|-10--5---5---8---5---5---10--5---5---8---5---5---|
G|-------------------------------------------------|------------------------|-------------------------------------------------|
D|-------------------------------------------------|------------------4-----|-------------------------------------------------|
A|-------------------------------------------------|------------------------|-------------------------------------------------|
E|-------------------------------------------------|------------------------|-------------------------------------------------|
B|-------------------------------------------------|------------------------|-------------------------------------------------|


E|-------------------------------------------------|-------------------------------------------------|
B|-10--5---5---8---5---5---10--8---7---5---3---0---|-5---0---0---3---0---0---5---0---0---3---0---0---|
G|-------------------------------------------------|-------------------------------------------------|
D|-------------------------------------------------|-------------------------------------------------|
A|-------------------------------------------------|-------------------------------------------------|
E|-------------------------------------------------|-------------------------------------------------|
B|-------------------------------------------------|-------------------------------------------------|


E|------------------------|--------|--------|--------|--------|--------|--------|--------|
B|-3----3---2---0---------|--------|--------|--------|--------|--------|--------|--------|
G|------------------------|--------|--------|--------|--------|--------|--------|--------|
D|------------------4-----|--------|--------|--------|--------|--------|--------|--------|
A|------------------------|--------|--------|--------|--------|--------|--------|--------|
E|------------------------|--------|--------|--------|--------|--------|--------|--------|
B|------------------------|--------|--------|--------|--------|--------|--------|--------|


E|--------|--------|--------|--------|--------|--------|--------|--------|--------|
B|--------|--------|--------|--------|--------|--------|--------|--------|--------|
G|--------|--------|--------|--------|--------|--------|--------|--------|--------|
D|--------|--------|--------|--------|--------|--------|--------|--------|--------|
A|--------|--------|--------|--------|--------|--------|--------|--------|--------|
E|--------|--------|--------|--------|--------|--------|--------|--------|--------|
B|--------|--------|--------|--------|--------|--------|--------|--------|--------|


E|--------|--------|--------|--------|--------|--------|--------|--------|--------|
B|--------|--------|--------|--------|--------|--------|--------|--------|--------|
G|--------|--------|--------|--------|--------|--------|--------|--------|--------|
D|--------|--------|--------|--------|--------|--------|--------|--------|--------|
A|--------|--------|--------|--------|--------|--------|--------|--------|--------|
E|--------|--------|--------|--------|--------|--------|--------|--------|--------|
B|--------|--------|--------|--------|--------|--------|--------|--------|--------|


E|--------|--------|--------|--------|--------|--------|--------|--------|--------|
B|--------|--------|--------|--------|--------|--------|--------|--------|--------|
G|--------|--------|--------|--------|--------|--------|--------|--------|--------|
D|--------|--------|--------|--------|--------|--------|--------|--------|--------|
A|--------|--------|--------|--------|--------|--------|--------|--------|--------|
E|--------|--------|--------|--------|--------|--------|--------|--------|--------|
B|--------|--------|--------|--------|--------|--------|--------|--------|--------|


E|--------|--------|--------|--------|--------|--------|
B|--------|--------|--------|--------|--------|--------|
G|--------|--------|--------|--------|--------|--------|
D|--------|--------|--------|--------|--------|--------|
A|--------|--------|--------|--------|--------|--------|
E|--------|--------|--------|--------|--------|--------|
B|--------|--------|--------|--------|--------|--------|





Track 5: Solo Guitar

E|--------|--------|--------|--------|--------|--------|--------|--------|--------|
B|--------|--------|--------|--------|--------|--------|--------|--------|--------|
G|--------|--------|--------|--------|--------|--------|--------|--------|--------|
D|--------|--------|--------|--------|--------|--------|--------|--------|--------|
A|--------|--------|--------|--------|--------|--------|--------|--------|--------|
E|--------|--------|--------|--------|--------|--------|--------|--------|--------|
B|--------|--------|--------|--------|--------|--------|--------|--------|--------|


E|--------|--------|--------|--------|--------|--------|--------|--------|--------|
B|--------|--------|--------|--------|--------|--------|--------|--------|--------|
G|--------|--------|--------|--------|--------|--------|--------|--------|--------|
D|--------|--------|--------|--------|--------|--------|--------|--------|--------|
A|--------|--------|--------|--------|--------|--------|--------|--------|--------|
E|--------|--------|--------|--------|--------|--------|--------|--------|--------|
B|--------|--------|--------|--------|--------|--------|--------|--------|--------|


E|--------|--------|--------|--------|--------|--------|--------|--------|--------|
B|--------|--------|--------|--------|--------|--------|--------|--------|--------|
G|--------|--------|--------|--------|--------|--------|--------|--------|--------|
D|--------|--------|--------|--------|--------|--------|--------|--------|--------|
A|--------|--------|--------|--------|--------|--------|--------|--------|--------|
E|--------|--------|--------|--------|--------|--------|--------|--------|--------|
B|--------|--------|--------|--------|--------|--------|--------|--------|--------|


E|--------|--------|--------|--------|--------|--------|--------|--------|--------|
B|--------|--------|--------|--------|--------|--------|--------|--------|--------|
G|--------|--------|--------|--------|--------|--------|--------|--------|--------|
D|--------|--------|--------|--------|--------|--------|--------|--------|--------|
A|--------|--------|--------|--------|--------|--------|--------|--------|--------|
E|--------|--------|--------|--------|--------|--------|--------|--------|--------|
B|--------|--------|--------|--------|--------|--------|--------|--------|--------|


E|--------|--------|--------|--------|--------|--------|--------|--------|--------|
B|--------|--------|--------|--------|--------|--------|--------|--------|--------|
G|--------|--------|--------|--------|--------|--------|--------|--------|--------|
D|--------|--------|--------|--------|--------|--------|--------|--------|--------|
A|--------|--------|--------|--------|--------|--------|--------|--------|--------|
E|--------|--------|--------|--------|--------|--------|--------|--------|--------|
B|--------|--------|--------|--------|--------|--------|--------|--------|--------|


E|--------|--------|--------|--------|--------|--------|--------|--------|--------|
B|--------|--------|--------|--------|--------|--------|--------|--------|--------|
G|--------|--------|--------|--------|--------|--------|--------|--------|--------|
D|--------|--------|--------|--------|--------|--------|--------|--------|--------|
A|--------|--------|--------|--------|--------|--------|--------|--------|--------|
E|--------|--------|--------|--------|--------|--------|--------|--------|--------|
B|--------|--------|--------|--------|--------|--------|--------|--------|--------|


E|--------|--------|--------|--------|--------|--------|--------|--------|--------|
B|--------|--------|--------|--------|--------|--------|--------|--------|--------|
G|--------|--------|--------|--------|--------|--------|--------|--------|--------|
D|--------|--------|--------|--------|--------|--------|--------|--------|--------|
A|--------|--------|--------|--------|--------|--------|--------|--------|--------|
E|--------|--------|--------|--------|--------|--------|--------|--------|--------|
B|--------|--------|--------|--------|--------|--------|--------|--------|--------|


E|--------|--------|-8------|-8----10--8---7------------------------|-------------|
B|--------|--------|--------|------------------10--8---7---5--------|-------------|
G|--------|--------|--------|----------------------------------4----|-4-----3-----|
D|--------|--------|--------|---------------------------------------|-------------|
A|--------|--------|--------|---------------------------------------|-------------|
E|--------|--------|--------|---------------------------------------|-------------|
B|--------|--------|--------|---------------------------------------|-------------|


E|-------------|----------------------5--7--8--7--5--------------|------------7---|
B|-------------|----------4--5--7--8-----------------8--7--5-----|----------------|
G|-2-----0-----|-2--4--5--------------------------------------5--|-4--------------|
D|-------------|-------------------------------------------------|----------------|
A|-------------|-------------------------------------------------|----------------|
E|-------------|-------------------------------------------------|----------------|
B|-------------|-------------------------------------------------|----------------|


E|-7---8---8---5---5---7---7---3---|-3---5---5---3---2-----|------------------|------------------|
B|---------------------------------|-----------------------|------------------|-4------4---4--5--|
G|---------------------------------|-----------------------|-4------4---4--5--|------------------|
D|---------------------------------|-----------------------|------------------|------------------|
A|---------------------------------|-----------------------|------------------|------------------|
E|---------------------------------|-----------------------|------------------|------------------|
B|---------------------------------|-----------------------|------------------|------------------|


E|-3------|-3------|-8--5--7--5--------7--5--------------------------|-------------------------3--0--2--0--------3--0--|
B|--------|--------|-------------8--5--------8--5--7--5--8--5--7--5--|-------7--5--------1--0--------------1--0--------|
G|--------|--------|-------------------------------------------------|-7--5--------7--5--------------------------------|
D|--------|--------|-------------------------------------------------|-------------------------------------------------|
A|--------|--------|-------------------------------------------------|-------------------------------------------------|
E|--------|--------|-------------------------------------------------|-------------------------------------------------|
B|--------|--------|-------------------------------------------------|-------------------------------------------------|


E|-2--0--------3--0--2--0--------3--0--2--0--------|-3--0--2--0--------3---3-----|
B|-------1--0--------------1--0--------------1--0--|-------------1--0------------|
G|-------------------------------------------------|-----------------------------|
D|-------------------------------------------------|-----------------------------|
A|-------------------------------------------------|-----------------------------|
E|-------------------------------------------------|-----------------------------|
B|-------------------------------------------------|-----------------------------|


E|------------8---|-8------|-8------|-8----15------------17--|-17----17----|-17-----|
B|----------------|--------|--------|----------7-----0-------|-------------|--------|
G|-4------4-------|--------|--------|------------------------|-------------|--------|
D|----------------|--------|--------|------------------------|-------------|--------|
A|----------------|--------|--------|------------------------|-------------|--------|
E|----------------|--------|--------|------------------------|-------------|--------|
B|----------------|--------|--------|------------------------|-------------|--------|


E|--------|--------|
B|--------|--------|
G|--------|--------|
D|--------|--------|
A|--------|--------|
E|--------|--------|
B|--------|--------|





Track 6: Bass

G|---------------------|-------------------------------------------------|-------------------------------------------------|
D|---------------------|-------------------------------------------------|-------------------------------------------------|
A|---------------------|-------------------------------------------------|-------------------------------------------------|
E|---------------------|-0---0---0---0---0---0---0---0---0---0---0---0---|-0---0---0---0---0---0---0---0---0---0---0---0---|
B|------5----4----1----|-------------------------------------------------|-------------------------------------------------|


G|-------------------------------------------------|-------------------------------------------------|
D|-------------------------------------------------|-------------------------------------------------|
A|-------------------------------------------------|-------------------------------------------------|
E|-------------------------------------------------|-------------------------------------------------|
B|-1---1---1---1---1---1---1---1---1---1---1---1---|-4---4---4---4---4---4---4---4---4---4---4---4---|


G|-------------------------------------------------|-------------------------------------------------|
D|-------------------------------------------------|-------------------------------------------------|
A|-------------------------------------------------|-------------------------------------------------|
E|-0---0---0---0---0---0---0---0---0---0---0---0---|-0---0---0---0---0---0---0---0---0---0---0---0---|
B|-------------------------------------------------|-------------------------------------------------|


G|-------------------------------------------------|---------------------------------------|
D|-------------------------------------------------|---------------------------------------|
A|-------------------------------------------------|---------------------------------------|
E|-------------------------------------------------|---------------------------------------|
B|-1---1---1---1---1---1---1---1---1---1---1---1---|-4---4---4---4---4---4---4-------------|


G|-------------------------------------------------|-------------------------------------------------|
D|-------------------------------------------------|-------------------------------------------------|
A|-------------------------------------------------|-------------------------------------------------|
E|-0---0---0---0---0---0---0---0---0---0---0---0---|-0---0---0---0---0---0---0---0---0---0---0---0---|
B|-------------------------------------------------|-------------------------------------------------|


G|-------------------------------------------------|-------------------------------------------|
D|-------------------------------------------------|-------------------------------------------|
A|-------------------------------------------------|-------------------------------------------|
E|-------------------------------------------------|-------------------------------------------|
B|-1---1---1---1---1---1---1---1---1---1---1---1---|-4----4---4---4---4---4----4---4---4---4---|


G|-------------------------------------------------|-------------------------------------------------|
D|-------------------------------------------------|-------------------------------------------------|
A|-------------------------------------------------|-------------------------------------------------|
E|-0---0---0---0---0---0---0---0---0---0---0---0---|-0---0---0---0---0---0---0---0---0---0---0---0---|
B|-------------------------------------------------|-------------------------------------------------|


G|-------------------------------------------------|-------------------------------------------|
D|-------------------------------------------------|-------------------------------------------|
A|-------------------------------------------------|-------------------------------------------|
E|-------------------------------------------------|-------------------------------------------|
B|-1---1---1---1---1---1---1---1---1---1---1---1---|-4----4---4---4---4---4----4---4---4---4---|


G|--------------------|--------------------|--------------------|------------------------|
D|--------------------|--------------------|--------------------|------------------------|
A|--------------------|--------------------|--------------------|------------------------|
E|--------------------|--------------------|--------------------|------------------------|
B|-5-----5---7----8---|-7-----7---8----10--|-8-----8---10---12--|-10---8---7----5---3----|


G|--------------------|--------------------|--------------------|-------------|--------------------|
D|--------------------|--------------------|--------------------|-------------|--------------------|
A|--------------------|--------------------|--------------------|-------------|--------------------|
E|--------------------|--------------------|--------------------|-------------|--------------------|
B|-5-----5---7----8---|-7-----7---8----10--|-4-----4---4----4---|-5-----1-----|-5-----5---7----8---|


G|--------------------|--------------------|------------------------|--------------------|
D|--------------------|--------------------|------------------------|--------------------|
A|--------------------|--------------------|------------------------|--------------------|
E|--------------------|--------------------|------------------------|--------------------|
B|-7-----7---8----10--|-8-----8---10---12--|-10---8---7----5---3----|-5-----5---7----8---|


G|--------------------|--------------------|-------------|-------------------------------------------------|
D|--------------------|--------------------|-------------|-------------------------------------------------|
A|--------------------|--------------------|-------------|-------------------------------------------------|
E|--------------------|--------------------|-------------|-0---0---0---0---0---0---0---0---0---0---0---0---|
B|-7-----7---8----10--|-4-----4---4----4---|-5-----1-----|-------------------------------------------------|


G|-------------------------------------------------|-------------------------------------------------|
D|-------------------------------------------------|-------------------------------------------------|
A|-------------------------------------------------|-------------------------------------------------|
E|-0---0---0---0---0---0---0---0---0---0---0---0---|-------------------------------------------------|
B|-------------------------------------------------|-1---1---1---1---1---1---1---1---1---1---1---1---|


G|-------------------------------------------|-------------------------------------------------|
D|-------------------------------------------|-------------------------------------------------|
A|-------------------------------------------|-------------------------------------------------|
E|-------------------------------------------|-0---0---0---0---0---0---0---0---0---0---0---0---|
B|-4----4---4---4---4---4----4---4---4---4---|-------------------------------------------------|


G|-------------------------------------------------|-------------------------------------------------|
D|-------------------------------------------------|-------------------------------------------------|
A|-------------------------------------------------|-------------------------------------------------|
E|-0---0---0---0---0---0---0---0---0---0---0---0---|-------------------------------------------------|
B|-------------------------------------------------|-1---1---1---1---1---1---1---1---1---1---1---1---|


G|-------------------------------------------|-------------------------------------------------|
D|-------------------------------------------|-------------------------------------------------|
A|-------------------------------------------|-------------------------------------------------|
E|-------------------------------------------|-0---0---0---0---0---0---0---0---0---0---0---0---|
B|-4----4---4---4---4---4----4---4---4---4---|-------------------------------------------------|


G|-------------------------------------------------|-------------------------------------------------|
D|-------------------------------------------------|-------------------------------------------------|
A|-------------------------------------------------|-------------------------------------------------|
E|-0---0---0---0---0---0---0---0---0---0---0---0---|-------------------------------------------------|
B|-------------------------------------------------|-1---1---1---1---1---1---1---1---1---1---1---1---|


G|-------------------------------------------|-------------------------------------------------|
D|-------------------------------------------|-------------------------------------------------|
A|-------------------------------------------|-------------------------------------------------|
E|-------------------------------------------|-0---0---0---0---0---0---0---0---0---0---0---0---|
B|-4----4---4---4---4---4----4---4---4---4---|-------------------------------------------------|


G|-------------------------------------------------|-------------------------------------------------|
D|-------------------------------------------------|-------------------------------------------------|
A|-------------------------------------------------|-------------------------------------------------|
E|-0---0---0---0---0---0---0---0---0---0---0---0---|-------------------------------------------------|
B|-------------------------------------------------|-1---1---1---1---1---1---1---1---1---1---1---1---|


G|-------------------------------------------|--------------------|--------------------|
D|-------------------------------------------|--------------------|--------------------|
A|-------------------------------------------|--------------------|--------------------|
E|-------------------------------------------|--------------------|--------------------|
B|-4----4---4---4---4---4----4---4---4---4---|-5-----5---7----8---|-7-----7---8----10--|


G|--------------------|------------------------|--------------------|--------------------|
D|--------------------|------------------------|--------------------|--------------------|
A|--------------------|------------------------|--------------------|--------------------|
E|--------------------|------------------------|--------------------|--------------------|
B|-8-----8---10---12--|-10---8---7----5---3----|-5-----5---7----8---|-7-----7---8----10--|


G|--------------------|-------------|--------------------|--------------------|--------------------|
D|--------------------|-------------|--------------------|--------------------|--------------------|
A|--------------------|-------------|--------------------|--------------------|--------------------|
E|--------------------|-------------|--------------------|--------------------|--------------------|
B|-4-----4---4----4---|-5-----1-----|-5-----5---7----8---|-7-----7---8----10--|-8-----8---10---12--|


G|------------------------|--------------------|--------------------|--------------------|
D|------------------------|--------------------|--------------------|--------------------|
A|------------------------|--------------------|--------------------|--------------------|
E|------------------------|--------------------|--------------------|--------------------|
B|-10---8---7----5---3----|-5-----5---7----8---|-7-----7---8----10--|-4-----4---4----4---|


G|-------------|---------------------------------|---------------------------------|
D|-------------|---------------------------------|---------------------------------|
A|-------------|---------------------------------|---------------------------------|
E|-------------|---------------------------------|---------------------------------|
B|-5-----1-----|-5---5---5---5---5---5---5---5---|-5---5---5---5---5---5---5---1---|


G|--------------------------------|-----------------------------|---------------------------------|
D|--------------------------------|-----------------------------|---------------------------------|
A|--------------------------------|-----------------------------|---------------------------------|
E|--------------------------------|-----------------------------|---------------------------------|
B|-1---1---1--1--1---1---1----4---|-4---4---4--4--4---4---4-----|-5---5---5---5---5---5---5---5---|


G|---------------------------------|--------------------------------|-----------------------------|
D|---------------------------------|--------------------------------|-----------------------------|
A|---------------------------------|--------------------------------|-----------------------------|
E|---------------------------------|--------------------------------|-----------------------------|
B|-5---5---5---5---5---5---5---1---|-1---1---1--1--1---1---1----4---|-4---4---4--4--4---4---4-----|


G|---------------------------------|---------------------------------|--------------------------------|
D|---------------------------------|---------------------------------|--------------------------------|
A|---------------------------------|---------------------------------|--------------------------------|
E|---------------------------------|---------------------------------|--------------------------------|
B|-5---5---5---5---5---5---5---5---|-5---5---5---5---5---5---5---1---|-1---1---1--1--1---1---1----4---|


G|-----------------------------|---------------------------------|---------------------------------|
D|-----------------------------|---------------------------------|---------------------------------|
A|-----------------------------|---------------------------------|---------------------------------|
E|-----------------------------|---------------------------------|---------------------------------|
B|-4---4---4--4--4---4---4-----|-5---5---5---5---5---5---5---5---|-5---5---5---5---5---5---5---1---|


G|--------------------------------|-----------------------------|---------------------------------|
D|--------------------------------|-----------------------------|---------------------------------|
A|--------------------------------|-----------------------------|---------------------------------|
E|--------------------------------|-----------------------------|---------------------------------|
B|-1---1---1--1--1---1---1----4---|-4---4---4--4--4---4---4-----|-5---5---5---5---5---5---5---5---|


G|---------------------------------|--------------------------------|-----------------------------|
D|---------------------------------|--------------------------------|-----------------------------|
A|---------------------------------|--------------------------------|-----------------------------|
E|---------------------------------|--------------------------------|-----------------------------|
B|-5---5---5---5---5---5---5---1---|-1---1---1--1--1---1---1----4---|-4---4---4--4--4---4---4-----|


G|---------------------------------|---------------------------------|--------------------------------|
D|---------------------------------|---------------------------------|--------------------------------|
A|---------------------------------|---------------------------------|--------------------------------|
E|---------------------------------|---------------------------------|--------------------------------|
B|-5---5---5---5---5---5---5---5---|-5---5---5---5---5---5---5---1---|-1---1---1--1--1---1---1----4---|


G|-----------------------------|
D|-----------------------------|
A|-----------------------------|
E|-----------------------------|
B|-4---4---4--4--4---4---4-----|





Track 7: Drums

B|------4----4----4----|-5---5---5---5---5---5---5---5---5---5---5---5---|-4---4---4---4---4---4---4---4---4---4---4---4---|
B|---------------------|-------------5-----------5-----------5---4---4---|-4-----------4-----------4-----------4-----------|
B|---------------------|-------------------------------------------------|-------------------------------------------------|
B|---------------------|-------------------------------------------------|-------------------------------------------------|
B|------4----4----4----|-5-----------------------------------------------|-------------------------------------------------|
B|---------------------|-------------------------------------------------|-------------------------------------------------|


B|-3---3---3---3---3---3---3---3---3---3---3---3---|-4---4---4---4---4---4---4---4---4---4---4---4---|
B|-------------3-----------3-----------3---3---3---|-4-----------4-----------4-----------4-----------|
B|-------------------------------------------------|-------------------------------------------------|
B|-------------------------------------------------|-------------------------------------------------|
B|-3-----------------------------------------------|-------------------------------------------------|
B|-------------------------------------------------|-------------------------------------------------|


B|-5---5---5---5---5---5---5---5---5---5---5---5---|-4---4---4---4---4---4---4---4---4---4---4---4---|
B|-------------1-----------1-----------1-----------|-7-----------7-----------7-----------7-----------|
B|-------------------------------------------------|-------------------------------------------------|
B|-------------------------------------------------|-------------------------------------------------|
B|-6-----------------------------------------------|-------------------------------------------------|
B|-------------------------------------------------|-------------------------------------------------|


B|-6---6---6---6---6---6---6---6---6---6---6---6---|-5---5---5---5---5---5---5-----|
B|-------------9-----------9-----------9-----------|-4---4---4---4---4---4---5-----|
B|-------------------------------------------------|-------------------------------|
B|-------------------------------------------------|-------------------------------|
B|-9-----------------------------------------------|-------------------------5-----|
B|-------------------------------------------------|-------------------------------|


B|-5----5--------5----5-------5---5---|-5----5--------5----5-------5---5---|-5----5--------5----5-------5---0---|
B|----------5-------------5-----------|----------5-------------5-----------|----------5-------------5-----------|
B|------------------------------------|------------------------------------|------------------------------------|
B|----------5----5--------5-----------|-5--------5----5--------5-----------|-5--------5----5--------5-----------|
B|-5----------------------------------|------------------------------------|------------------------------------|
B|------------------------------------|------------------------------------|------------------------------------|


B|-5----5--------5----5-------5---5---|-5----5--------5----5-------5---5---|-5----5--------5----5-------5---5---|
B|----------5-------------5-----------|----------5-------------5-----------|----------5-------------5-----------|
B|------------------------------------|------------------------------------|------------------------------------|
B|-5--------5----5--------5-----------|----------5----5--------5-----------|-5--------5----5--------5-----------|
B|------------------------------------|-5----------------------------------|------------------------------------|
B|------------------------------------|------------------------------------|------------------------------------|


B|-5----5--------5----5--------|-5----5---------------5----5---------------|-5------------------5---|
B|----------5-------------5----|----------5---5---5------------5---5---5---|-----------5------------|
B|-----------------------------|-------------------------------------------|------------------------|
B|-5--------5----5--------5----|-5--------5-----------5--------5-----------|------5----5----5-------|
B|-----------------------------|-------------------------------------------|-5----------------------|
B|-----------------------------|-------------------------------------------|------------------------|


B|-5------------------5---|-5------------------5---|-5--------5--5--5------5---5----|
B|-----------5------------|-----------5------------|-------------------5------------|
B|------------------------|------------------------|--------------------------------|
B|-5----5----5----5-------|-5----5----5----5-------|-5----5------------5-------5----|
B|------------------------|------------------------|--------------------------------|
B|------------------------|------------------------|--------------------------------|


B|-5------------------5---|-5------------------5---|-5------------------5---|-5--------5--5--5------5-------5---|
B|-----------5------------|-----------5------------|-----------5------------|-------------------5-------5-------|
B|------------------------|------------------------|------------------------|-----------------------------------|
B|------5----5----5-------|------5----5----5-------|------5----5----5-------|-5----5------------5-------5-------|
B|-5----------------------|-5----------------------|-5----------------------|-----------------------------------|
B|------------------------|------------------------|------------------------|-----------------------------------|


B|-5------------------5---|-5------------------5---|-5------------------5---|-5--------5--5--5------5---5----|
B|-----------5------------|-----------5------------|-----------5------------|-------------------5------------|
B|------------------------|------------------------|------------------------|--------------------------------|
B|------5----5----5-------|-5----5----5----5-------|-5----5----5----5-------|-5----5------------5-------5----|
B|-5----------------------|------------------------|------------------------|--------------------------------|
B|------------------------|------------------------|------------------------|--------------------------------|


B|-5------------------5---|-5------------------5---|-5------------------5---|-5--------5--5--5------5-------5---|
B|-----------5------------|-----------5------------|-----------5------------|-------------------5-------5-------|
B|------------------------|------------------------|------------------------|-----------------------------------|
B|------5----5----5-------|------5----5----5-------|------5----5----5-------|-5----5------------5-------5-------|
B|-5----------------------|-5----------------------|-5----------------------|-----------------------------------|
B|------------------------|------------------------|------------------------|-----------------------------------|


B|-5----5--------5----5-------5---5---|-5----5--------5----5-------5---5---|-5----5--------5----5---------|
B|----------5-------------5-----------|----------5-------------5-----------|----------5--------------5----|
B|------------------------------------|------------------------------------|------------------------------|
B|----------5----5--------5-----------|----------5----5--------------------|-5--------5----5---------5----|
B|-5----------------------------------|-5----------------------------------|------------------------------|
B|------------------------------------|------------------------------------|------------------------------|


B|-5----5---------------5----5------------|-5----5--------5----5-------5---5---|-5----5--------5----5-------5---5---|
B|----------5---5---5------------5----5---|----------5-------------5-----------|----------5-------------5-----------|
B|----------------------------------------|------------------------------------|------------------------------------|
B|----------------------------------------|----------5----5--------5-----------|----------5----5--------5-----------|
B|-5--------5-----------5----5---5--------|-5----------------------------------|-5----------------------------------|
B|----------------------------------------|------------------------------------|------------------------------------|


B|-5----5--------5----5--------|-5----5---------------5----5---------------|-5----5--------5----5-------5---5---|
B|----------5-------------5----|----------5---5---5------------5---5---5---|----------5-------------5-----------|
B|-----------------------------|-------------------------------------------|------------------------------------|
B|-5--------5----5--------5----|-------------------------------------------|----------5----5--------5-----------|
B|-----------------------------|-5--------5-----------5--------5-----------|-5----------------------------------|
B|-----------------------------|-------------------------------------------|------------------------------------|


B|-5----5--------5----5-------5---5---|-5----5--------5----5---------|-5----5---------------5----5------------|
B|----------5-------------5-----------|----------5--------------5----|----------5---5---5------------5----5---|
B|------------------------------------|------------------------------|----------------------------------------|
B|----------5----5--------------------|-5--------5----5---------5----|----------------------------------------|
B|-5----------------------------------|------------------------------|-5--------5-----------5----5---5--------|
B|------------------------------------|------------------------------|----------------------------------------|


B|-5----5--------5----5-------5---5---|-5----5--------5----5-------5---5---|-5----5--------5----5--------|
B|----------5-------------5-----------|----------5-------------5-----------|----------5-------------5----|
B|------------------------------------|------------------------------------|-----------------------------|
B|----------5----5--------5-----------|----------5----5--------5-----------|-5--------5----5--------5----|
B|-5----------------------------------|-5----------------------------------|-----------------------------|
B|------------------------------------|------------------------------------|-----------------------------|


B|-5----5---------------5----5---------------|-5------------------5---|-5------------------5---|
B|----------5---5---5------------5---5---5---|-----------5------------|-----------5------------|
B|-------------------------------------------|------------------------|------------------------|
B|-------------------------------------------|------5----5----5-------|-5----5----5----5-------|
B|-5--------5-----------5--------5-----------|-5----------------------|------------------------|
B|-------------------------------------------|------------------------|------------------------|


B|-5------------------5---|-5--------5--5--5------5---5----|-5------------------5---|
B|-----------5------------|-------------------5------------|-----------5------------|
B|------------------------|--------------------------------|------------------------|
B|-5----5----5----5-------|-5----5------------5-------5----|------5----5----5-------|
B|------------------------|--------------------------------|-5----------------------|
B|------------------------|--------------------------------|------------------------|


B|-5------------------5---|-5------------------5---|-5--------5--5--5------5-------5---|
B|-----------5------------|-----------5------------|-------------------5-------5-------|
B|------------------------|------------------------|-----------------------------------|
B|------5----5----5-------|------5----5----5-------|-5----5------------5-------5-------|
B|-5----------------------|-5----------------------|-----------------------------------|
B|------------------------|------------------------|-----------------------------------|


B|-5------------------5---|-5------------------5---|-5------------------5---|-5--------5--5--5------5---5----|
B|-----------5------------|-----------5------------|-----------5------------|-------------------5------------|
B|------------------------|------------------------|------------------------|--------------------------------|
B|------5----5----5-------|-5----5----5----5-------|-5----5----5----5-------|-5----5------------5-------5----|
B|-5----------------------|------------------------|------------------------|--------------------------------|
B|------------------------|------------------------|------------------------|--------------------------------|


B|-5------------------5---|-5------------------5---|-5------------------5---|-5--------5--5--5------5-------5---|
B|-----------5------------|-----------5------------|-----------5------------|-------------------5-------5-------|
B|------------------------|------------------------|------------------------|-----------------------------------|
B|------5----5----5-------|------5----5----5-------|------5----5----5-------|-5----5------------5-------5-------|
B|-5----------------------|-5----------------------|-5----------------------|-----------------------------------|
B|------------------------|------------------------|------------------------|-----------------------------------|


B|-5--5--5--5-------5---5--------|-5---5--------5---5-------5---|-5---5-------5---5---5-------5---|
B|-------------5------------5----|---------5------------5-------|---------5---------------5-------|
B|-------------------------------|------------------------------|---------------------------------|
B|-------------5----5-------5----|-5-------5----5-------5-------|-5-------5-------5-------5-------|
B|-5-----------------------------|------------------------------|---------------------------------|
B|-------------------------------|------------------------------|---------------------------------|


B|-5--5--5-------5---5---5-------5---|-5---5-------5---5---5-------5---|-5---5--------5---5-------5---|
B|-----------5---------------5-------|---------5---------------5-------|---------5------------5-------|
B|-----------------------------------|---------------------------------|------------------------------|
B|-5---------5-------5-------5-------|---------5-------5-------5-------|-5-------5----5-------5-------|
B|-----------------------------------|-5-------------------------------|------------------------------|
B|-----------------------------------|---------------------------------|------------------------------|


B|-5---5-------5---5---5-------5---|-5--5--5-------5---5---5-------5---|-5---5-------5---5---5-------5---|
B|---------5---------------5-------|-----------5---------------5-------|---------5---------------5-------|
B|---------------------------------|-----------------------------------|---------------------------------|
B|-5-------5-------5-------5-------|-5---------5-------5-------5-------|---------5-------5-------5-------|
B|---------------------------------|-----------------------------------|-5-------------------------------|
B|---------------------------------|-----------------------------------|---------------------------------|


B|-5---5--------5---5-------5---|-5---5-------5---5---5-------5---|-5--5--5-------5---5---5-------5---|
B|---------5------------5-------|---------5---------------5-------|-----------5---------------5-------|
B|------------------------------|---------------------------------|-----------------------------------|
B|-5-------5----5-------5-------|-5-------5-------5-------5-------|-5---------5-------5-------5-------|
B|------------------------------|---------------------------------|-----------------------------------|
B|------------------------------|---------------------------------|-----------------------------------|


B|-5---5-------5---5---5-------5---|-5---5--------5---5-------5---|-5---5-------5---5---5-------5---|
B|---------5---------------5-------|---------5------------5-------|---------5---------------5-------|
B|---------------------------------|------------------------------|---------------------------------|
B|---------5-------5-------5-------|-5-------5----5-------5-------|-5-------5-------5-------5-------|
B|-5-------------------------------|------------------------------|---------------------------------|
B|---------------------------------|------------------------------|---------------------------------|


B|-5--5--5-------5---5---5-------5---|-5---5-------5---5---5-------5---|-5---5--------5---5-------5---|
B|-----------5---------------5-------|---------5---------------5-------|---------5------------5-------|
B|-----------------------------------|---------------------------------|------------------------------|
B|-5---------5-------5-------5-------|---------5-------5-------5-------|-5-------5----5-------5-------|
B|-----------------------------------|-5-------------------------------|------------------------------|
B|-----------------------------------|---------------------------------|------------------------------|


B|-5---5-------5---5---5-------5---|-5--5--5-------5---5---5-------5---|-5---5-------5---5---5-------5---|
B|---------5---------------5-------|-----------5---------------5-------|---------5---------------5-------|
B|---------------------------------|-----------------------------------|---------------------------------|
B|-5-------5-------5-------5-------|-5---------5-------5-------5-------|---------5-------5-------5-------|
B|---------------------------------|-----------------------------------|-5-------------------------------|
B|---------------------------------|-----------------------------------|---------------------------------|


B|-5---5--------5---5-------5---|-5---5-------5---5---5-------5---|-5--5--5-------5---5---5-------5---|
B|---------5------------5-------|---------5---------------5-------|-----------5---------------5-------|
B|------------------------------|---------------------------------|-----------------------------------|
B|-5-------5----5-------5-------|-5-------5-------5-------5-------|-5---------5-------5-------5-------|
B|------------------------------|---------------------------------|-----------------------------------|
B|------------------------------|---------------------------------|-----------------------------------|