Menu:

 

Search:

 

soilwork - as we speak:

 



Title: As We Speak
Artist: 
Album: Natural Born Chaos
Author: 


Track 1: Gtr. I

 B|----------------------------|------------------------------------------|-----------------------------------------|
F#|----------------------------|------------------------------------------|-----------------------------------------|
 D|----------------------------|------------------------------------------|-----------------------------------------|
 A|-----5----------------2-----|---------2--5--5-----2--5--5--5--5--5--5--|-5--5--5--5--5--3------3------3------3---|
 E|-----5----------------2-----|------------------5-----------------------|----------------3------3------3------3---|
 B|-0-0-3----0--0--0--0--0-----|------------------------------------------|----------------1---1--1---1--1---1--1---|


 B|----------------------------------|--------------------|------------------------------------------|
F#|----------------------------------|--------------------|------------------------------------------|
 D|----------------------------------|--------------------|------------------------------------------|
 A|----3-----------------------------|---------5-----9----|---------2--5--5-----2--5--5--5--5--5--5--|
 E|----3---------5------5---5--------|---------5-----9----|------------------5-----------------------|
 B|-1--1---1--1------5---------------|----15---3-----7----|------------------------------------------|


 B|-----------------------------------------|----------------------------------|--------------------|
F#|-----------------------------------------|----------------------------------|--------------------|
 D|-----------------------------------------|----------------------------------|--------------------|
 A|-5--5--5--5--5--3------3------3------3---|----3-----------------------------|---------5-----9----|
 E|----------------3------3------3------3---|----3---------5------5---5--------|---------5-----9----|
 B|----------------1---1--1---1--1---1--1---|-1--1---1--1------5---------------|----15---3-----7----|


 B|------------------------------------------|-----------------------------------------|
F#|------------------------------------------|-----------------------------------------|
 D|------------------------------------------|-----------------------------------------|
 A|---------2--5--5-----2--5--5--5--5--5--5--|-5--5--5--5--5--3------3------3------3---|
 E|------------------5-----------------------|----------------3------3------3------3---|
 B|------------------------------------------|----------------1---1--1---1--1---1--1---|


 B|----------------------------------|--------------------|------------------------------------------|
F#|----------------------------------|--------------------|------------------------------------------|
 D|----------------------------------|--------------------|------------------------------------------|
 A|----3-----------------------------|---------5-----9----|----9-------------------------------------|
 E|----3---------5------5---5--------|---------5-----9----|----9-------------------------------------|
 B|-1--1---1--1------5---------------|----15---3-----7----|----7----0--0--0--0--0--0--0--0--0--0--0--|


 B|----2----2-----2------|-----------------------------------|----3----3-----3------|
F#|----5----5-----5------|-----------------------------------|----5----5-----5------|
 D|----4----4-----4------|-----------------------------------|----5----5-----5------|
 A|----2----2-----2------|-----------------------------------|----5----5-----5------|
 E|----2----2-----2------|-----------------------------------|----3----3-----3------|
 B|-0--0----0-----0---0--|----0---0---0---0---0---0---0---0--|----0----0-----0---0--|


 B|-----------------------------|----5----5-----5------|-----------------------------------|
F#|-----------------------------|----7----7-----7------|-----------------------------------|
 D|-----------------------------|----7----7-----7------|-----------------------------------|
 A|-----------------------------|----7----7-----7------|-----------------------------------|
 E|-----------------------------|----5----5-----5------|-----------------------------------|
 B|----0---0---0----0----0---0--|----0----0-----0---0--|----0---0---0---0---0---0---0---0--|


 B|----------------------|------------------------------------------|----2----2-----2------|
F#|----------------------|------------------------------------------|----5----5-----5------|
 D|----9----9-----9---9--|----9-------------------------------------|----4----4-----4------|
 A|----7----7-----7---7--|----7-------------------------------------|----2----2-----2------|
 E|----5----5-----5---4--|----4-------------------------------------|----2----2-----2------|
 B|----------------------|---------0--0--0--0--0--0--0--0--0--0--0--|-0--0----0-----0---0--|


 B|-----------------------------------|----3----3-----3------|-----------------------------|
F#|-----------------------------------|----5----5-----5------|-----------------------------|
 D|-----------------------------------|----5----5-----5------|-----------------------------|
 A|-----------------------------------|----5----5-----5------|-----------------------------|
 E|-----------------------------------|----3----3-----3------|-----------------------------|
 B|----0---0---0---0---0---0---0---0--|----0----0-----0---0--|----0---0---0----0----0---0--|


 B|----5----5-----5------|-----------------------------------|-----------------------------------|
F#|----7----7-----7------|-----------------------------------|-----------------------------------|
 D|----7----7-----7------|-----------------------------------|-----------------------------------|
 A|----7----7-----7------|-----------------------------------|-----------------------------------|
 E|----5----5-----5------|------------7---7---7---5----------|----9---9---9---10--------------4--|
 B|----0----0-----0---0--|----0---0-------------------0---0--|--------------------0---3---0------|


 B|------------------------------------------|-----------------------------------------|
F#|------------------------------------------|-----------------------------------------|
 D|------------------------------------------|-----------------------------------------|
 A|---------2--5--5-----2--5--5--5--5--5--5--|-5--5--5--5--5--3------3------3------3---|
 E|----4-------------5-----------------------|----------------3------3------3------3---|
 B|------------------------------------------|----------------1---1--1---1--1---1--1---|


 B|----------------------------------|--------------------|------------------------------------------|
F#|----------------------------------|--------------------|------------------------------------------|
 D|----------------------------------|--------------------|------------------------------------------|
 A|----3-----------------------------|---------5-----9----|---------2--5--5-----2--5--5--5--5--5--5--|
 E|----3---------5------5---5--------|---------5-----9----|------------------5-----------------------|
 B|-1--1---1--1------5---------------|----15---3-----7----|------------------------------------------|


 B|-----------------------------------------|----------------------------------|--------------------|
F#|-----------------------------------------|----------------------------------|--------------------|
 D|-----------------------------------------|----------------------------------|--------------------|
 A|-5--5--5--5--5--3------3------3------3---|----3-----------------------------|---------5-----9----|
 E|----------------3------3------3------3---|----3---------5------5---5--------|---------5-----9----|
 B|----------------1---1--1---1--1---1--1---|-1--1---1--1------5---------------|----15---3-----7----|


 B|----------------------------------------|----------------------|-----------------------------------|
F#|----------------------------------------|----------------------|-----------------------------------|
 D|----------------------------------------|----------------------|-----------------------------------|
 A|----------------------------------------|----------------------|-----------------------------------|
 E|----------------------------------------|----------------------|-----------------------------------|
 B|---------0--0--0--0--0--0--0--0--0---0--|-------------------0--|----0---0---0---0---0---0---0---0--|


 B|----------------------|-----------------------------|----------------------|-----------------------------------|
F#|----------------------|-----------------------------|----------------------|-----------------------------------|
 D|----------------------|-----------------------------|----------------------|-----------------------------------|
 A|----------------------|-----------------------------|----------------------|-----------------------------------|
 E|----------------------|-----------------------------|----------------------|-----------------------------------|
 B|-------------------0--|----0---0---0----0----0---0--|-------------------0--|----0---0---0---0---0---0---0---0--|


 B|----------------------|----------------------------------------|----------------------|
F#|----------------------|----------------------------------------|----------------------|
 D|----9----9-----9---9--|----9-----------------------------------|----------------------|
 A|----7----7-----7---7--|----7-----------------------------------|----------------------|
 E|----5----5-----5---4--|----4-----------------------------------|----------------------|
 B|----------------------|---------0--0--0--0--0--0--0--0--0---0--|-------------------0--|


 B|-----------------------------------|----------------------|-----------------------------|
F#|-----------------------------------|----------------------|-----------------------------|
 D|-----------------------------------|----------------------|-----------------------------|
 A|-----------------------------------|----------------------|-----------------------------|
 E|-----------------------------------|----------------------|-----------------------------|
 B|----0---0---0---0---0---0---0---0--|-------------------0--|----0---0---0----0----0---0--|


 B|----------------------|-----------------------------------|----------------------|
F#|----------------------|-----------------------------------|----------------------|
 D|----------------------|-----------------------------------|----9----9-----9---9--|
 A|----------------------|-----------------------------------|----7----7-----7---7--|
 E|----------------------|-----------------------------------|----5----5-----5---4--|
 B|-------------------0--|----0---0---0---0---0---0---0---0--|----------------------|


 B|------------------------------------------|----2----2-----2------|-----------------------------------|
F#|------------------------------------------|----5----5-----5------|-----------------------------------|
 D|----9-------------------------------------|----4----4-----4------|-----------------------------------|
 A|----7-------------------------------------|----2----2-----2------|-----------------------------------|
 E|----4-------------------------------------|----2----2-----2------|-----------------------------------|
 B|---------0--0--0--0--0--0--0--0--0--0--0--|-0--0----0-----0---0--|----0---0---0---0---0---0---0---0--|


 B|----3----3-----3------|-----------------------------|----5----5-----5------|-----------------------------------|
F#|----5----5-----5------|-----------------------------|----7----7-----7------|-----------------------------------|
 D|----5----5-----5------|-----------------------------|----7----7-----7------|-----------------------------------|
 A|----5----5-----5------|-----------------------------|----7----7-----7------|-----------------------------------|
 E|----3----3-----3------|-----------------------------|----5----5-----5------|-----------------------------------|
 B|----0----0-----0---0--|----0---0---0----0----0---0--|----0----0-----0---0--|----0---0---0---0---0---0---0---0--|


 B|----------------------|------------------------------------------|----2----2-----2------|
F#|----------------------|------------------------------------------|----5----5-----5------|
 D|----9----9-----9---9--|----9-------------------------------------|----4----4-----4------|
 A|----7----7-----7---7--|----7-------------------------------------|----2----2-----2------|
 E|----5----5-----5---4--|----4-------------------------------------|----2----2-----2------|
 B|----------------------|---------0--0--0--0--0--0--0--0--0--0--0--|-0--0----0-----0---0--|


 B|-----------------------------------|----3----3-----3------|-----------------------------|
F#|-----------------------------------|----5----5-----5------|-----------------------------|
 D|-----------------------------------|----5----5-----5------|-----------------------------|
 A|-----------------------------------|----5----5-----5------|-----------------------------|
 E|-----------------------------------|----3----3-----3------|-----------------------------|
 B|----0---0---0---0---0---0---0---0--|----0----0-----0---0--|----0---0---0----0----0---0--|


 B|----5----5-----5------|-----------------------------------|-----------------------------------|
F#|----7----7-----7------|-----------------------------------|-----------------------------------|
 D|----7----7-----7------|-----------------------------------|-----------------------------------|
 A|----7----7-----7------|-----------------------------------|-----------------------------------|
 E|----5----5-----5------|------------7---7---7---5----------|----9---9---9---10--------------4--|
 B|----0----0-----0---0--|----0---0-------------------0---0--|--------------------0---3---0------|


 B|--------------------------------|-----------------------------------|-----------------------------------|
F#|--------------------------------|-----------------------------------|-----------------------------------|
 D|-----------------3---3---3------|------------3---3---3---3----------|----3---3-----------4---4---4------|
 A|-----------------4---4---4------|------------4---4---4---4----------|----4---4-----------4---4---4------|
 E|----4---------------------------|-----------------------------------|------------5---5---------------5--|
 B|---------2---2---------------2--|----2---2-------------------2---2--|-----------------------------------|


 B|-----------------------------------|-----------------------------------|-----------------------------------|
F#|-----------------------------------|-----------------------------------|-----------------------------------|
 D|------------4---4---4---4----------|----4---4-----------3---3---3------|------------3---3---3---3----------|
 A|------------4---4---4---4----------|----4---4-----------4---4---4------|------------4---4---4---4----------|
 E|----5---5-------------------5---5--|-----------------------------------|-----------------------------------|
 B|-----------------------------------|------------2---2---------------2--|----2---2-------------------2---2--|


 B|-----------------------------------|-----------------------------------|--------------------------------|
F#|-----------------------------------|-----------------------------------|--------------------------------|
 D|----3---3-----------4---4---4------|------------4---6---6---6-------9--|----9------------3---3---3------|
 A|----4---4-----------4---4---4------|------------4---4---4---4-------9--|----9------------4---4---4------|
 E|------------5---5---------------5--|----5---5-------------------5---7--|----7---------------------------|
 B|-----------------------------------|-----------------------------------|---------2---2---------------2--|


 B|-----------------------------------|-----------------------------------|-----------------------------------|
F#|-----------------------------------|-----------------------------------|-----------------------------------|
 D|------------3---3---3---3----------|----3---3-----------4---4---4------|------------4---4---4---4----------|
 A|------------4---4---4---4----------|----4---4-----------4---4---4------|------------4---4---4---4----------|
 E|-----------------------------------|------------5---5---------------5--|----5---5-------------------5---5--|
 B|----2---2-------------------2---2--|-----------------------------------|-----------------------------------|


 B|-----------------------------------|-----------------------------------|-----------------------------------|
F#|-----------------------------------|-----------------------------------|-----------------------------------|
 D|----4---4-----------3---3---3------|------------3---3---3---3----------|----3---3-----------4---4---4------|
 A|----4---4-----------4---4---4------|------------4---4---4---4----------|----4---4-----------4---4---4------|
 E|-----------------------------------|-----------------------------------|------------5---5---------------5--|
 B|------------2---2---------------2--|----2---2-------------------2---2--|-----------------------------------|


 B|-----------------------------------|--------------------------------|-----------------------------------|
F#|-----------------------------------|--------------------------------|-----------------------------------|
 D|------------4---6---6---6-------9--|----9------------3---3---3------|------------3---3---3---3----------|
 A|------------4---4---4---4-------9--|----9------------4---4---4------|------------4---4---4---4----------|
 E|----5---5-------------------5---7--|----7---------------------------|-----------------------------------|
 B|-----------------------------------|---------2---2---------------2--|----2---2-------------------2---2--|


 B|-----------------------------------|-----------------------------------|-----------------------------------|
F#|-----------------------------------|-----------------------------------|-----------------------------------|
 D|----3---3-----------4---4---4------|------------4---4---4---4----------|----4---4-----------3---3---3------|
 A|----4---4-----------4---4---4------|------------4---4---4---4----------|----4---4-----------4---4---4------|
 E|------------5---5---------------5--|----5---5-------------------5---5--|-----------------------------------|
 B|-----------------------------------|-----------------------------------|------------2---2---------------2--|


 B|-----------------------------------|-----------------------------------|-----------------------------------|
F#|-----------------------------------|-----------------------------------|-----------------------------------|
 D|------------3---3---3---3----------|----3---3-----------4---4---4------|------------4---6---6---6-------9--|
 A|------------4---4---4---4----------|----4---4-----------4---4---4------|------------4---4---4---4-------9--|
 E|-----------------------------------|------------5---5---------------5--|----5---5-------------------5---7--|
 B|----2---2-------------------2---2--|-----------------------------------|-----------------------------------|


 B|--------------------------|----------------------------|--------------------------18--19--21|
F#|--------------------------|----------------------------|--------------18--19--21------------|
 D|----9---------------------|----------------------------|------------------------------------|
 A|----9---------8----9---11-|------11--11--11--11---11---|------------------------------------|
 E|----7---------------------|----------------------------|------------------------------------|
 B|--------------------------|----------------------------|------------------------------------|


 B|----21--21--19--21----21--21---|---------19--18-----------------|--------------------18------------19-|
F#|-------------------------------|-----------------19--14---------|----------------19------------19-----|
 D|-------------------------------|-------------------------15--12-|----21--21--21----------21-21--------|
 A|-------------------------------|--------------------------------|-------------------------------------|
 E|-------------------------------|--------------------------------|-------------------------------------|
 B|-------------------------------|--------------------------------|-------------------------------------|


 B|--------------18------------19-----------|----18------18------18--------------17------17|
F#|----------19------------19------------19-|----------------19------19--17--19------19----|
 D|----21-21---------21-21---------21-21----|--------21------------------------------------|
 A|-----------------------------------------|----------------------------------------------|
 E|-----------------------------------------|----------------------------------------------|
 B|-----------------------------------------|----------------------------------------------|


 B|-----------------------|----------------|----------------|--------------------|
F#|----19--17--19--19-----|---------19-----|---------19-----|--------------------|
 D|-----------------------|----------------|----------------|--------------------|
 A|-----------------------|----------------|----------------|--------------------|
 E|-----------------------|----------------|----------------|----17---17---19----|
 B|-----------------------|----------------|----------------|--------------------|


 B|----------------|----------------|----------------|----------------|--------------------------------------|
F#|----------------|----------------|----------------|----------------|--------------------------------------|
 D|----------------|----------------|----------------|----------------|--------------------------------------|
 A|----------------|----------------|----------------|----------------|--------------------------------------|
 E|----16---16-----|---------16-----|----------------|----------------|---------------------------------7----|
 B|----------------|----------------|----------------|----------------|---------0---0---0---0---0---0--------|


 B|----------------------------|-----------------|----------------|----------------|
F#|----------------------------|-----------------|----------------|----------------|
 D|----------------------------|-----------------|----------------|----------------|
 A|----------------------------|-----------------|----------------|----------------|
 E|----------------------------|-----------------|----------------|----------------|
 B|------0---0---0---0---------|-----------------|----------------|----------------|


 B|---------------------------------|-------------------------------------------------|
F#|---------------------------------|-------------------------------------------------|
 D|---------------------------------|-------------------------------------------------|
 A|---------5----5----5----9--9--9--|-9--9--9--9--9--2--5--5-----2--5--5--5--5--5--5--|
 E|---------5----5----5----9--9--9--|-9--9--9--9--9-----------5-----------------------|
 B|----15---3----3----3----7--7--7--|-7--7--7--7--7-----------------------------------|


 B|-----------------------------------------|----------------------------------|--------------------|
F#|-----------------------------------------|----------------------------------|--------------------|
 D|-----------------------------------------|----------------------------------|--------------------|
 A|-5--5--5--5--5--3------3------3------3---|----3-----------------------------|---------5-----9----|
 E|----------------3------3------3------3---|----3---------5------5---5--------|---------5-----9----|
 B|----------------1---1--1---1--1---1--1---|-1--1---1--1------5---------------|----15---3-----7----|


 B|------------------------------------------|-----------------------------------------|
F#|------------------------------------------|-----------------------------------------|
 D|------------------------------------------|-----------------------------------------|
 A|---------2--5--5-----2--5--5--5--5--5--5--|-5--5--5--5--5--3------3------3------3---|
 E|------------------5-----------------------|----------------3------3------3------3---|
 B|------------------------------------------|----------------1---1--1---1--1---1--1---|


 B|----------------------------------|--------------------|------------------------------------------|
F#|----------------------------------|--------------------|------------------------------------------|
 D|----------------------------------|--------------------|------------------------------------------|
 A|----3-----------------------------|---------5-----9----|---------2--5--5-----2--5--5--5--5--5--5--|
 E|----3---------5------5---5--------|---------5-----9----|------------------5-----------------------|
 B|-1--1---1--1------5---------------|----15---3-----7----|------------------------------------------|


 B|-----------------------------------------|----------------------------------|--------------------|
F#|-----------------------------------------|----------------------------------|--------------------|
 D|-----------------------------------------|----------------------------------|--------------------|
 A|-5--5--5--5--5--3------3------3------3---|----3-----------------------------|---------5-----9----|
 E|----------------3------3------3------3---|----3---------5------5---5--------|---------5-----9----|
 B|----------------1---1--1---1--1---1--1---|-1--1---1--1------5---------------|----15---3-----7----|


 B|------------------------------------------|-----------------------------------------|
F#|------------------------------------------|-----------------------------------------|
 D|------------------------------------------|-----------------------------------------|
 A|---------2--5--5-----2--5--5--5--5--5--5--|-5--5--5--5--5--3------3------3------3---|
 E|------------------5-----------------------|----------------3------3------3------3---|
 B|------------------------------------------|----------------1---1--1---1--1---1--1---|


 B|----------------------------------|--------------------|----------------------------------|
F#|----------------------------------|--------------------|----------------------------------|
 D|----------------------------------|--------------------|----------------------------------|
 A|----3-----------------------------|---------5-----9----|----------------------------------|
 E|----3---------5------5---5--------|---------5-----9----|-------------7--------------------|
 B|-1--1---1--1------5---------------|----15---3-----7----|---------0-0------0--0--0--0------|





Track 2: Synths (Rhythm)

 B|--------|----------------|--------------------|---------10-----|--------------------|
F#|--------|---------5------|---------10----6----|----------------|---------8-----7----|
 D|--------|----------------|--------------------|---------7------|--------------------|
 A|--------|---------2------|---------7-----3----|----------------|---------5-----4----|
 E|--------|----------------|--------------------|----------------|--------------------|
 B|--------|----------------|--------------------|----------------|--------------------|


 B|----------------|--------------------|---------10-----|--------------------|----------------|
F#|---------5------|---------10----6----|----------------|---------8-----7----|---------5------|
 D|----------------|--------------------|---------7------|--------------------|----------------|
 A|---------2------|---------7-----3----|----------------|---------5-----4----|---------2------|
 E|----------------|--------------------|----------------|--------------------|----------------|
 B|----------------|--------------------|----------------|--------------------|----------------|


 B|--------------------|---------10-----|--------------------|---------0------|----2----2------|
F#|---------10----6----|----------------|---------8-----7----|---------5------|----5----5------|
 D|--------------------|---------7------|--------------------|---------4------|----4----4------|
 A|---------7-----3----|----------------|---------5-----4----|----------------|----------------|
 E|--------------------|----------------|--------------------|----------------|----------------|
 B|--------------------|----------------|--------------------|----------------|----------------|


 B|---------2------|----3----3------|---------3------|----5----5------|---------5------|
F#|---------5------|----5----5------|---------5------|----3----3------|---------3------|
 D|---------4------|----5----5------|---------5------|----2----2------|---------2------|
 A|----------------|----------------|----------------|----------------|----------------|
 E|----------------|----------------|----------------|----------------|----------------|
 B|----------------|----------------|----------------|----------------|----------------|


 B|----------------|---------0------|----2----2------|---------2------|----3----3------|
F#|----------------|---------5------|----5----5------|---------5------|----5----5------|
 D|----------------|---------4------|----4----4------|---------4------|----5----5------|
 A|----------------|----------------|----------------|----------------|----------------|
 E|----------------|----------------|----------------|----------------|----------------|
 B|----------------|----------------|----------------|----------------|----------------|


 B|---------3------|----5----5------|--------|--------|----------------|--------------------|
F#|---------5------|----3----3------|--------|--------|---------5------|---------10----6----|
 D|---------5------|----2----2------|--------|--------|----------------|--------------------|
 A|----------------|----------------|--------|--------|---------2------|---------7-----3----|
 E|----------------|----------------|--------|--------|----------------|--------------------|
 B|----------------|----------------|--------|--------|----------------|--------------------|


 B|---------10-----|--------------------|----------------|--------------------|---------10-----|
F#|----------------|---------8-----7----|---------5------|---------10----6----|----------------|
 D|---------7------|--------------------|----------------|--------------------|---------7------|
 A|----------------|---------5-----4----|---------2------|---------7-----3----|----------------|
 E|----------------|--------------------|----------------|--------------------|----------------|
 B|----------------|--------------------|----------------|--------------------|----------------|


 B|--------------------|---------0------|----2----2------|---------2------|----3----3------|
F#|---------8-----7----|---------5------|----5----5------|---------5------|----5----5------|
 D|--------------------|---------4------|----4----4------|---------4------|----5----5------|
 A|---------5-----4----|----------------|----------------|----------------|----------------|
 E|--------------------|----------------|----------------|----------------|----------------|
 B|--------------------|----------------|----------------|----------------|----------------|


 B|---------3------|----5----5------|---------5------|----------------|---------0------|
F#|---------5------|----3----3------|---------3------|----------------|---------5------|
 D|---------5------|----2----2------|---------2------|----------------|---------4------|
 A|----------------|----------------|----------------|----------------|----------------|
 E|----------------|----------------|----------------|----------------|----------------|
 B|----------------|----------------|----------------|----------------|----------------|


 B|----2----2------|---------2------|----3----3------|---------3------|----5----5------|
F#|----5----5------|---------5------|----5----5------|---------5------|----3----3------|
 D|----4----4------|---------4------|----5----5------|---------5------|----2----2------|
 A|----------------|----------------|----------------|----------------|----------------|
 E|----------------|----------------|----------------|----------------|----------------|
 B|----------------|----------------|----------------|----------------|----------------|


 B|---------5------|----------------|---------0------|----2----2------|---------2------|
F#|---------3------|----------------|---------5------|----5----5------|---------5------|
 D|---------2------|----------------|---------4------|----4----4------|---------4------|
 A|----------------|----------------|----------------|----------------|----------------|
 E|----------------|----------------|----------------|----------------|----------------|
 B|----------------|----------------|----------------|----------------|----------------|


 B|----3----3------|---------3------|----5----5------|---------5------|----------------|
F#|----5----5------|---------5------|----3----3------|---------3------|----------------|
 D|----5----5------|---------5------|----2----2------|---------2------|----------------|
 A|----------------|----------------|----------------|----------------|----------------|
 E|----------------|----------------|----------------|----------------|----------------|
 B|----------------|----------------|----------------|----------------|----------------|


 B|---------0------|----2----2------|---------2------|----3----3------|---------3------|
F#|---------5------|----5----5------|---------5------|----5----5------|---------5------|
 D|---------4------|----4----4------|---------4------|----5----5------|---------5------|
 A|----------------|----------------|----------------|----------------|----------------|
 E|----------------|----------------|----------------|----------------|----------------|
 B|----------------|----------------|----------------|----------------|----------------|


 B|----5----5------|--------|--------|--------|--------|--------|--------|--------|
F#|----3----3------|--------|--------|--------|--------|--------|--------|--------|
 D|----2----2------|--------|--------|--------|--------|--------|--------|--------|
 A|----------------|--------|--------|--------|--------|--------|--------|--------|
 E|----------------|--------|--------|--------|--------|--------|--------|--------|
 B|----------------|--------|--------|--------|--------|--------|--------|--------|


 B|--------|--------|--------|---------6------|---------6------|---------7------|---------7------|
F#|--------|--------|--------|---------5------|---------5------|---------7------|---------7------|
 D|--------|--------|--------|---------6------|---------6------|---------7------|---------7------|
 A|--------|--------|--------|---------8------|---------8------|---------9------|---------9------|
 E|--------|--------|--------|----------------|----------------|----------------|----------------|
 B|--------|--------|--------|----------------|----------------|----------------|----------------|


 B|---------6------|---------6------|---------7------|---------7------|---------6------|
F#|---------5------|---------5------|---------7------|---------7------|---------5------|
 D|---------6------|---------6------|---------7------|---------7------|---------6------|
 A|---------8------|---------8------|---------9------|---------9------|---------8------|
 E|----------------|----------------|----------------|----------------|----------------|
 B|----------------|----------------|----------------|----------------|----------------|


 B|---------6------|---------7------|---------7------|---------6------|---------6------|
F#|---------5------|---------7------|---------7------|---------5------|---------5------|
 D|---------6------|---------7------|---------7------|---------6------|---------6------|
 A|---------8------|---------9------|---------9------|---------8------|---------8------|
 E|----------------|----------------|----------------|----------------|----------------|
 B|----------------|----------------|----------------|----------------|----------------|


 B|---------7------|---------7------|--------|--------|--------|--------|--------|
F#|---------7------|---------7------|--------|--------|--------|--------|--------|
 D|---------7------|---------7------|--------|--------|--------|--------|--------|
 A|---------9------|---------9------|--------|--------|--------|--------|--------|
 E|----------------|----------------|--------|--------|--------|--------|--------|
 B|----------------|----------------|--------|--------|--------|--------|--------|


 B|--------|--------|--------|--------|--------|--------|--------|--------|--------|
F#|--------|--------|--------|--------|--------|--------|--------|--------|--------|
 D|--------|--------|--------|--------|--------|--------|--------|--------|--------|
 A|--------|--------|--------|--------|--------|--------|--------|--------|--------|
 E|--------|--------|--------|--------|--------|--------|--------|--------|--------|
 B|--------|--------|--------|--------|--------|--------|--------|--------|--------|


 B|--------|--------|----------------|----------------|----------------|--------------------|
F#|--------|--------|---------17-----|---------17-----|---------17-----|---------10----6----|
 D|--------|--------|----------------|----------------|----------------|--------------------|
 A|--------|--------|---------14-----|---------14-----|---------14-----|---------7-----3----|
 E|--------|--------|----------------|----------------|----------------|--------------------|
 B|--------|--------|----------------|----------------|----------------|--------------------|


 B|---------10-----|--------------------|----------------|--------------------|---------10-----|
F#|----------------|---------8-----7----|---------5------|---------10----6----|----------------|
 D|---------7------|--------------------|----------------|--------------------|---------7------|
 A|----------------|---------5-----4----|---------2------|---------7-----3----|----------------|
 E|----------------|--------------------|----------------|--------------------|----------------|
 B|----------------|--------------------|----------------|--------------------|----------------|


 B|--------------------|----------------|--------------------|---------10-----|--------------------|
F#|---------8-----7----|---------5------|---------10----6----|----------------|---------8-----7----|
 D|--------------------|----------------|--------------------|---------7------|--------------------|
 A|---------5-----4----|---------2------|---------7-----3----|----------------|---------5-----4----|
 E|--------------------|----------------|--------------------|----------------|--------------------|
 B|--------------------|----------------|--------------------|----------------|--------------------|


 B|----------------|--------------------|---------10-----|--------------------|----------------|
F#|---------5------|---------10----6----|----------------|---------8-----7----|---------5------|
 D|----------------|--------------------|---------7------|--------------------|----------------|
 A|---------2------|---------7-----3----|----------------|---------5-----4----|---------2------|
 E|----------------|--------------------|----------------|--------------------|----------------|
 B|----------------|--------------------|----------------|--------------------|----------------|


 B|--------------------|---------10-----|--------------------|--------|
F#|---------10----6----|----------------|---------8-----7----|--------|
 D|--------------------|---------7------|--------------------|--------|
 A|---------7-----3----|----------------|---------5-----4----|--------|
 E|--------------------|----------------|--------------------|--------|
 B|--------------------|----------------|--------------------|--------|





Track 3: Synths Lead

 B|--------|--------|--------|--------|--------|---------12-------12------------------|
F#|--------|--------|--------|--------|--------|---------------12-------10-10-10-10---|
 D|--------|--------|--------|--------|--------|------------9--------9----------------|
 A|--------|--------|--------|--------|--------|--------------------------------------|
 E|--------|--------|--------|--------|--------|--------------------------------------|
 B|--------|--------|--------|--------|--------|--------------------------------------|


 B|---------13-------13-12---------------|---------10----------10-------10-10---|------------------------------|
F#|---------------13-------13-13-13-13---|---------------10-------8--10---------|---------8----7----8---7---8--|
 D|------------10------------------------|------------7-----7-------------------|------------------------------|
 A|--------------------------------------|--------------------------------------|------------------------------|
 E|--------------------------------------|--------------------------------------|------------------------------|
 B|--------------------------------------|--------------------------------------|------------------------------|


 B|----------12-------12------------------|---------13-------13-12---------------|
F#|-7--------------12-------10-10-10-10---|---------------13-------13-13-13-13---|
 D|------7------9--------9----------------|------------10------------------------|
 A|---------------------------------------|--------------------------------------|
 E|---------------------------------------|--------------------------------------|
 B|---------------------------------------|--------------------------------------|


 B|---------10----------10-------10-10---|--------------12-----------|------------------|
F#|---------------10-------8--10---------|---------12--------10---12-|------------------|
 D|------------7-----7-------------------|---------------------------|------------------|
 A|--------------------------------------|---------------------------|------------------|
 E|--------------------------------------|---------------------------|------------------|
 B|--------------------------------------|---------------------------|------------------|


 B|--------|--------|--------|--------|--------|--------|--------|--------|--------|
F#|--------|--------|--------|--------|--------|--------|--------|--------|--------|
 D|--------|--------|--------|--------|--------|--------|--------|--------|--------|
 A|--------|--------|--------|--------|--------|--------|--------|--------|--------|
 E|--------|--------|--------|--------|--------|--------|--------|--------|--------|
 B|--------|--------|--------|--------|--------|--------|--------|--------|--------|


 B|--------|--------|--------|--------|--------|--------|---------12-------12------------------|
F#|--------|--------|--------|--------|--------|--------|---------------12-------10-10-10-10---|
 D|--------|--------|--------|--------|--------|--------|------------9--------9----------------|
 A|--------|--------|--------|--------|--------|--------|--------------------------------------|
 E|--------|--------|--------|--------|--------|--------|--------------------------------------|
 B|--------|--------|--------|--------|--------|--------|--------------------------------------|


 B|---------13-------13-12---------------|---------10----------10-------10-10---|--------------12-----------|
F#|---------------13-------13-13-13-13---|---------------10-------8--10---------|---------12--------10---12-|
 D|------------10------------------------|------------7-----7-------------------|---------------------------|
 A|--------------------------------------|--------------------------------------|---------------------------|
 E|--------------------------------------|--------------------------------------|---------------------------|
 B|--------------------------------------|--------------------------------------|---------------------------|


 B|---------12-------12------------------|---------13-------13-12---------------|---------10----------10-------10-10---|
F#|----12---------12-------10-10-10-10---|---------------13-------13-13-13-13---|---------------10-------8--10---------|
 D|------------9--------9----------------|------------10------------------------|------------7-----7-------------------|
 A|--------------------------------------|--------------------------------------|--------------------------------------|
 E|--------------------------------------|--------------------------------------|--------------------------------------|
 B|--------------------------------------|--------------------------------------|--------------------------------------|


 B|--------------12-----------|------------------|--------|--------|--------|--------|
F#|---------12--------10---12-|----12------------|--------|--------|--------|--------|
 D|---------------------------|------------------|--------|--------|--------|--------|
 A|---------------------------|------------------|--------|--------|--------|--------|
 E|---------------------------|------------------|--------|--------|--------|--------|
 B|---------------------------|------------------|--------|--------|--------|--------|


 B|--------|--------|--------|--------|--------|--------|--------|--------|--------|
F#|--------|--------|--------|--------|--------|--------|--------|--------|--------|
 D|--------|--------|--------|--------|--------|--------|--------|--------|--------|
 A|--------|--------|--------|--------|--------|--------|--------|--------|--------|
 E|--------|--------|--------|--------|--------|--------|--------|--------|--------|
 B|--------|--------|--------|--------|--------|--------|--------|--------|--------|


 B|--------|--------|--------|--------|--------|--------|--------|--------|--------|
F#|--------|--------|--------|--------|--------|--------|--------|--------|--------|
 D|--------|--------|--------|--------|--------|--------|--------|--------|--------|
 A|--------|--------|--------|--------|--------|--------|--------|--------|--------|
 E|--------|--------|--------|--------|--------|--------|--------|--------|--------|
 B|--------|--------|--------|--------|--------|--------|--------|--------|--------|


 B|--------|--------|--------|--------|--------|--------|--------|--------|--------|
F#|--------|--------|--------|--------|--------|--------|--------|--------|--------|
 D|--------|--------|--------|--------|--------|--------|--------|--------|--------|
 A|--------|--------|--------|--------|--------|--------|--------|--------|--------|
 E|--------|--------|--------|--------|--------|--------|--------|--------|--------|
 B|--------|--------|--------|--------|--------|--------|--------|--------|--------|


 B|--------|--------|--------|--------|--------|--------|--------|--------|--------|
F#|--------|--------|--------|--------|--------|--------|--------|--------|--------|
 D|--------|--------|--------|--------|--------|--------|--------|--------|--------|
 A|--------|--------|--------|--------|--------|--------|--------|--------|--------|
 E|--------|--------|--------|--------|--------|--------|--------|--------|--------|
 B|--------|--------|--------|--------|--------|--------|--------|--------|--------|


 B|--------|--------|--------|--------|--------|--------|--------|--------|--------|
F#|--------|--------|--------|--------|--------|--------|--------|--------|--------|
 D|--------|--------|--------|--------|--------|--------|--------|--------|--------|
 A|--------|--------|--------|--------|--------|--------|--------|--------|--------|
 E|--------|--------|--------|--------|--------|--------|--------|--------|--------|
 B|--------|--------|--------|--------|--------|--------|--------|--------|--------|


 B|--------|--------|--------|--------|--------|--------|--------|--------|--------|
F#|--------|--------|--------|--------|--------|--------|--------|--------|--------|
 D|--------|--------|--------|--------|--------|--------|--------|--------|--------|
 A|--------|--------|--------|--------|--------|--------|--------|--------|--------|
 E|--------|--------|--------|--------|--------|--------|--------|--------|--------|
 B|--------|--------|--------|--------|--------|--------|--------|--------|--------|


 B|--------|--------|--------|--------|--------|--------|--------|--------|--------|
F#|--------|--------|--------|--------|--------|--------|--------|--------|--------|
 D|--------|--------|--------|--------|--------|--------|--------|--------|--------|
 A|--------|--------|--------|--------|--------|--------|--------|--------|--------|
 E|--------|--------|--------|--------|--------|--------|--------|--------|--------|
 B|--------|--------|--------|--------|--------|--------|--------|--------|--------|


 B|--------|--------|--------|--------|--------|--------|---------12-------12------------------|
F#|--------|--------|--------|--------|--------|--------|---------------12-------10-10-10-10---|
 D|--------|--------|--------|--------|--------|--------|------------9--------9----------------|
 A|--------|--------|--------|--------|--------|--------|--------------------------------------|
 E|--------|--------|--------|--------|--------|--------|--------------------------------------|
 B|--------|--------|--------|--------|--------|--------|--------------------------------------|


 B|---------13-------13-12---------------|---------10----------10-------10-10---|--------------12-----------|
F#|---------------13-------13-13-13-13---|---------------10-------8--10---------|---------12--------10---12-|
 D|------------10------------------------|------------7-----7-------------------|---------------------------|
 A|--------------------------------------|--------------------------------------|---------------------------|
 E|--------------------------------------|--------------------------------------|---------------------------|
 B|--------------------------------------|--------------------------------------|---------------------------|


 B|---------12-------12------------------|---------13-------13-12---------------|---------10----------10-------10-10---|
F#|----12---------12-------10-10-10-10---|---------------13-------13-13-13-13---|---------------10-------8--10---------|
 D|------------9--------9----------------|------------10------------------------|------------7-----7-------------------|
 A|--------------------------------------|--------------------------------------|--------------------------------------|
 E|--------------------------------------|--------------------------------------|--------------------------------------|
 B|--------------------------------------|--------------------------------------|--------------------------------------|


 B|--------------12-----------|---------12-------12------------------|---------13-------13-12---------------|
F#|---------12--------10---12-|----12---------12-------10-10-10-10---|---------------13-------13-13-13-13---|
 D|---------------------------|------------9--------9----------------|------------10------------------------|
 A|---------------------------|--------------------------------------|--------------------------------------|
 E|---------------------------|--------------------------------------|--------------------------------------|
 B|---------------------------|--------------------------------------|--------------------------------------|


 B|---------10----------10-------10-10---|--------------12-----------|---------12-------12------------------|
F#|---------------10-------8--10---------|---------12--------10---12-|----12---------12-------10-10-10-10---|
 D|------------7-----7-------------------|---------------------------|------------9--------9----------------|
 A|--------------------------------------|---------------------------|--------------------------------------|
 E|--------------------------------------|---------------------------|--------------------------------------|
 B|--------------------------------------|---------------------------|--------------------------------------|


 B|---------13-------13-12---------------|---------10----------10-------10-10---|--------------12-----------|
F#|---------------13-------13-13-13-13---|---------------10-------8--10---------|---------12--------10---12-|
 D|------------10------------------------|------------7-----7-------------------|---------------------------|
 A|--------------------------------------|--------------------------------------|---------------------------|
 E|--------------------------------------|--------------------------------------|---------------------------|
 B|--------------------------------------|--------------------------------------|---------------------------|


 B|---------12-------12------------------|---------13-------13-12---------------|---------10----------10-------10-10---|
F#|----12---------12-------10-10-10-10---|---------------13-------13-13-13-13---|---------------10-------8--10---------|
 D|------------9--------9----------------|------------10------------------------|------------7-----7-------------------|
 A|--------------------------------------|--------------------------------------|--------------------------------------|
 E|--------------------------------------|--------------------------------------|--------------------------------------|
 B|--------------------------------------|--------------------------------------|--------------------------------------|


 B|--------------12-----------|------------------|
F#|---------12--------10---12-|----12------------|
 D|---------------------------|------------------|
 A|---------------------------|------------------|
 E|---------------------------|------------------|
 B|---------------------------|------------------|





Track 4: Gtr. II

 B|--------|--------|--------|--------|--------|--------|--------|--------|--------|
F#|--------|--------|--------|--------|--------|--------|--------|--------|--------|
 D|--------|--------|--------|--------|--------|--------|--------|--------|--------|
 A|--------|--------|--------|--------|--------|--------|--------|--------|--------|
 E|--------|--------|--------|--------|--------|--------|--------|--------|--------|
 B|--------|--------|--------|--------|--------|--------|--------|--------|--------|


 B|--------|--------|--------|--------|------------------------------------------|
F#|--------|--------|--------|--------|------------------------------------------|
 D|--------|--------|--------|--------|------------------------------------------|
 A|--------|--------|--------|--------|------------------------------------------|
 E|--------|--------|--------|--------|------------------------------------------|
 B|--------|--------|--------|--------|---------0--0--0--0--0--0--0--0--0--0--0--|


 B|----------------------|-----------------------------------|----------------------|
F#|----------------------|-----------------------------------|----------------------|
 D|----------------------|-----------------------------------|----------------------|
 A|----2----2-----2------|-----------------------------------|----2----2-----2------|
 E|----2----2-----2------|-----------------------------------|----3----3-----3------|
 B|-0--0----0-----0---0--|----0---0---0---0---0---0---0---0--|----0----0-----0---0--|


 B|-----------------------------|----------------------|-----------------------------------|
F#|-----------------------------|----------------------|-----------------------------------|
 D|-----------------------------|----------------------|-----------------------------------|
 A|-----------------------------|----4----4-----4------|-----------------------------------|
 E|-----------------------------|----5----5-----5------|-----------------------------------|
 B|----0---0---0----0----0---0--|----0----0-----0---0--|----0---0---0---0---0---0---0---0--|


 B|----------------------|------------------------------------------|----------------------|
F#|----------------------|------------------------------------------|----------------------|
 D|----9----9-----9---9--|----9-------------------------------------|----------------------|
 A|----7----7-----7---7--|----7-------------------------------------|----2----2-----2------|
 E|----5----5-----5---4--|----4-------------------------------------|----2----2-----2------|
 B|----------------------|---------0--0--0--0--0--0--0--0--0--0--0--|-0--0----0-----0---0--|


 B|-----------------------------------|----------------------|-----------------------------|
F#|-----------------------------------|----------------------|-----------------------------|
 D|-----------------------------------|----------------------|-----------------------------|
 A|-----------------------------------|----2----2-----2------|-----------------------------|
 E|-----------------------------------|----3----3-----3------|-----------------------------|
 B|----0---0---0---0---0---0---0---0--|----0----0-----0---0--|----0---0---0----0----0---0--|


 B|----------------------|---------------------|--------|--------|--------|--------|
F#|----------------------|---------------------|--------|--------|--------|--------|
 D|----------------------|---------------------|--------|--------|--------|--------|
 A|----4----4-----4------|---------------------|--------|--------|--------|--------|
 E|----5----5-----5------|---------------------|--------|--------|--------|--------|
 B|----0----0-----0---0--|----0---0------------|--------|--------|--------|--------|


 B|--------|--------|--------|--------|--------|--------|--------|--------|--------|
F#|--------|--------|--------|--------|--------|--------|--------|--------|--------|
 D|--------|--------|--------|--------|--------|--------|--------|--------|--------|
 A|--------|--------|--------|--------|--------|--------|--------|--------|--------|
 E|--------|--------|--------|--------|--------|--------|--------|--------|--------|
 B|--------|--------|--------|--------|--------|--------|--------|--------|--------|


 B|--------|--------|--------|--------|--------|--------|--------|--------|--------|
F#|--------|--------|--------|--------|--------|--------|--------|--------|--------|
 D|--------|--------|--------|--------|--------|--------|--------|--------|--------|
 A|--------|--------|--------|--------|--------|--------|--------|--------|--------|
 E|--------|--------|--------|--------|--------|--------|--------|--------|--------|
 B|--------|--------|--------|--------|--------|--------|--------|--------|--------|


 B|--------|--------|--------|------------------------------------------|----------------------|
F#|--------|--------|--------|------------------------------------------|----------------------|
 D|--------|--------|--------|------------------------------------------|----------------------|
 A|--------|--------|--------|------------------------------------------|----2----2-----2------|
 E|--------|--------|--------|------------------------------------------|----2----2-----2------|
 B|--------|--------|--------|---------0--0--0--0--0--0--0--0--0--0--0--|-0--0----0-----0---0--|


 B|-----------------------------------|----------------------|-----------------------------|
F#|-----------------------------------|----------------------|-----------------------------|
 D|-----------------------------------|----------------------|-----------------------------|
 A|-----------------------------------|----2----2-----2------|-----------------------------|
 E|-----------------------------------|----3----3-----3------|-----------------------------|
 B|----0---0---0---0---0---0---0---0--|----0----0-----0---0--|----0---0---0----0----0---0--|


 B|----------------------|-----------------------------------|----------------------|
F#|----------------------|-----------------------------------|----------------------|
 D|----------------------|-----------------------------------|----9----9-----9---9--|
 A|----4----4-----4------|-----------------------------------|----7----7-----7---7--|
 E|----------------------|-----------------------------------|----5----5-----5---4--|
 B|----2----2-----2---0--|----0---0---0---0---0---0---0---0--|----------------------|


 B|------------------------------------------|----------------------|-----------------------------------|
F#|------------------------------------------|----------------------|-----------------------------------|
 D|----9-------------------------------------|----------------------|-----------------------------------|
 A|----7-------------------------------------|----2----2-----2------|-----------------------------------|
 E|----4-------------------------------------|----2----2-----2------|-----------------------------------|
 B|---------0--0--0--0--0--0--0--0--0--0--0--|-0--0----0-----0---0--|----0---0---0---0---0---0---0---0--|


 B|----------------------|-----------------------------|----------------------|---------------------|
F#|----------------------|-----------------------------|----------------------|---------------------|
 D|----------------------|-----------------------------|----------------------|---------------------|
 A|----2----2-----2------|-----------------------------|----4----4-----4------|---------------------|
 E|----3----3-----3------|-----------------------------|----------------------|---------------------|
 B|----0----0-----0---0--|----0---0---0----0----0---0--|----2----2-----2---0--|----0---0------------|


 B|--------|--------|--------|--------|--------|--------|--------|--------|--------|
F#|--------|--------|--------|--------|--------|--------|--------|--------|--------|
 D|--------|--------|--------|--------|--------|--------|--------|--------|--------|
 A|--------|--------|--------|--------|--------|--------|--------|--------|--------|
 E|--------|--------|--------|--------|--------|--------|--------|--------|--------|
 B|--------|--------|--------|--------|--------|--------|--------|--------|--------|


 B|--------|--------|--------|--------|--------|--------|--------|--------|--------|
F#|--------|--------|--------|--------|--------|--------|--------|--------|--------|
 D|--------|--------|--------|--------|--------|--------|--------|--------|--------|
 A|--------|--------|--------|--------|--------|--------|--------|--------|--------|
 E|--------|--------|--------|--------|--------|--------|--------|--------|--------|
 B|--------|--------|--------|--------|--------|--------|--------|--------|--------|


 B|--------|--------|--------|--------|--------|--------|--------|--------|--------|
F#|--------|--------|--------|--------|--------|--------|--------|--------|--------|
 D|--------|--------|--------|--------|--------|--------|--------|--------|--------|
 A|--------|--------|--------|--------|--------|--------|--------|--------|--------|
 E|--------|--------|--------|--------|--------|--------|--------|--------|--------|
 B|--------|--------|--------|--------|--------|--------|--------|--------|--------|


 B|--------|--------|----------------|----------------|----------------|-------------------------------------------|
F#|--------|--------|----------------|----------------|----------------|---------19------19--------------17------17|
 D|--------|--------|----------------|----------------|----------------|-------------18------18--16--18------18----|
 A|--------|--------|----------------|----------------|----------------|-------------------------------------------|
 E|--------|--------|----------------|----------------|----------------|-------------------------------------------|
 B|--------|--------|----------------|----------------|----------------|-------------------------------------------|


 B|-----------------------------|-----------------------------------|-----------------------|
F#|-----------------------------|-----------------------------------|-----------------------|
 D|----18--16--18--18----16--16-|----16--16--16--16--16--16--15--15-|----15--15--16----15---|
 A|-----------------------------|-----------------------------------|-----------------------|
 E|-----------------------------|-----------------------------------|-----------------------|
 B|-----------------------------|-----------------------------------|-----------------------|


 B|--------------------|-------------------19--19-|----19--19--19----19--19--18----|
F#|--------------------|--------------------------|--------------------------------|
 D|--------------------|----15---15----15---------|------------------------------15|
 A|----16---16---18----|--------------------------|--------------------------------|
 E|--------------------|--------------------------|--------------------------------|
 B|--------------------|--------------------------|--------------------------------|


 B|------------16------16--18--16-----|-----------------------------|--------------------------------------|
F#|--------------------------------15-|----15---15--17--17---17--19-|----19--------------------------------|
 D|----18--16------16-----------------|-----------------------------|--------------------------------------|
 A|-----------------------------------|-----------------------------|---------------------------------5----|
 E|-----------------------------------|-----------------------------|--------------------------------------|
 B|-----------------------------------|-----------------------------|---------0---0---0---0---0---0--------|


 B|----------------------------|-------------------|--------|--------|--------|--------|
F#|----------------------------|-------------------|--------|--------|--------|--------|
 D|----------------------------|-------------------|--------|--------|--------|--------|
 A|----------------------------|-------------------|--------|--------|--------|--------|
 E|----------------------------|-------------------|--------|--------|--------|--------|
 B|------0---0---0---0---------|-------------------|--------|--------|--------|--------|


 B|--------|--------|--------|--------|--------|--------|--------|--------|--------|
F#|--------|--------|--------|--------|--------|--------|--------|--------|--------|
 D|--------|--------|--------|--------|--------|--------|--------|--------|--------|
 A|--------|--------|--------|--------|--------|--------|--------|--------|--------|
 E|--------|--------|--------|--------|--------|--------|--------|--------|--------|
 B|--------|--------|--------|--------|--------|--------|--------|--------|--------|


 B|--------|--------|--------|--------|--------|--------|----------------------------------|
F#|--------|--------|--------|--------|--------|--------|----------------------------------|
 D|--------|--------|--------|--------|--------|--------|----------------------------------|
 A|--------|--------|--------|--------|--------|--------|-------------5--------------------|
 E|--------|--------|--------|--------|--------|--------|----------------------------------|
 B|--------|--------|--------|--------|--------|--------|---------0-0------0--0--0--0------|





Track 5: Rhythm Guitar (On Solo)

 B|--------|--------|--------|--------|--------|--------|--------|--------|--------|
F#|--------|--------|--------|--------|--------|--------|--------|--------|--------|
 D|--------|--------|--------|--------|--------|--------|--------|--------|--------|
 A|--------|--------|--------|--------|--------|--------|--------|--------|--------|
 E|--------|--------|--------|--------|--------|--------|--------|--------|--------|
 B|--------|--------|--------|--------|--------|--------|--------|--------|--------|


 B|--------|--------|--------|--------|--------|--------|--------|--------|--------|
F#|--------|--------|--------|--------|--------|--------|--------|--------|--------|
 D|--------|--------|--------|--------|--------|--------|--------|--------|--------|
 A|--------|--------|--------|--------|--------|--------|--------|--------|--------|
 E|--------|--------|--------|--------|--------|--------|--------|--------|--------|
 B|--------|--------|--------|--------|--------|--------|--------|--------|--------|


 B|--------|--------|--------|--------|--------|--------|--------|--------|--------|
F#|--------|--------|--------|--------|--------|--------|--------|--------|--------|
 D|--------|--------|--------|--------|--------|--------|--------|--------|--------|
 A|--------|--------|--------|--------|--------|--------|--------|--------|--------|
 E|--------|--------|--------|--------|--------|--------|--------|--------|--------|
 B|--------|--------|--------|--------|--------|--------|--------|--------|--------|


 B|--------|--------|--------|--------|--------|--------|--------|--------|--------|
F#|--------|--------|--------|--------|--------|--------|--------|--------|--------|
 D|--------|--------|--------|--------|--------|--------|--------|--------|--------|
 A|--------|--------|--------|--------|--------|--------|--------|--------|--------|
 E|--------|--------|--------|--------|--------|--------|--------|--------|--------|
 B|--------|--------|--------|--------|--------|--------|--------|--------|--------|


 B|--------|--------|--------|--------|--------|--------|--------|--------|--------|
F#|--------|--------|--------|--------|--------|--------|--------|--------|--------|
 D|--------|--------|--------|--------|--------|--------|--------|--------|--------|
 A|--------|--------|--------|--------|--------|--------|--------|--------|--------|
 E|--------|--------|--------|--------|--------|--------|--------|--------|--------|
 B|--------|--------|--------|--------|--------|--------|--------|--------|--------|


 B|--------|--------|--------|--------|--------|--------|--------|--------|--------|
F#|--------|--------|--------|--------|--------|--------|--------|--------|--------|
 D|--------|--------|--------|--------|--------|--------|--------|--------|--------|
 A|--------|--------|--------|--------|--------|--------|--------|--------|--------|
 E|--------|--------|--------|--------|--------|--------|--------|--------|--------|
 B|--------|--------|--------|--------|--------|--------|--------|--------|--------|


 B|--------|--------|--------|--------|--------|--------|--------|--------|--------|
F#|--------|--------|--------|--------|--------|--------|--------|--------|--------|
 D|--------|--------|--------|--------|--------|--------|--------|--------|--------|
 A|--------|--------|--------|--------|--------|--------|--------|--------|--------|
 E|--------|--------|--------|--------|--------|--------|--------|--------|--------|
 B|--------|--------|--------|--------|--------|--------|--------|--------|--------|


 B|--------|--------|--------|--------|--------|--------|--------|--------|--------|
F#|--------|--------|--------|--------|--------|--------|--------|--------|--------|
 D|--------|--------|--------|--------|--------|--------|--------|--------|--------|
 A|--------|--------|--------|--------|--------|--------|--------|--------|--------|
 E|--------|--------|--------|--------|--------|--------|--------|--------|--------|
 B|--------|--------|--------|--------|--------|--------|--------|--------|--------|


 B|--------|--------|--------|--------|--------|--------|--------|--------|--------|
F#|--------|--------|--------|--------|--------|--------|--------|--------|--------|
 D|--------|--------|--------|--------|--------|--------|--------|--------|--------|
 A|--------|--------|--------|--------|--------|--------|--------|--------|--------|
 E|--------|--------|--------|--------|--------|--------|--------|--------|--------|
 B|--------|--------|--------|--------|--------|--------|--------|--------|--------|


 B|--------|--------|--------|--------|--------|--------|--------|--------|--------|
F#|--------|--------|--------|--------|--------|--------|--------|--------|--------|
 D|--------|--------|--------|--------|--------|--------|--------|--------|--------|
 A|--------|--------|--------|--------|--------|--------|--------|--------|--------|
 E|--------|--------|--------|--------|--------|--------|--------|--------|--------|
 B|--------|--------|--------|--------|--------|--------|--------|--------|--------|


 B|--------|--------|--------|--------------------------|-------------------------|
F#|--------|--------|--------|--------------------------|-------------------------|
 D|--------|--------|--------|--------------------------|-------------------------|
 A|--------|--------|--------|--------------------------|-------------------------|
 E|--------|--------|--------|--------------------------|-------------------------|
 B|--------|--------|--------|---------2---2---------2--|----2---2---------2---2--|


 B|-----------------------------|-------------------------|-----------------------------|
F#|-----------------------------|-------------------------|-----------------------------|
 D|-----------------------------|-------------------------|-----------------------------|
 A|-----------------------------|-------------------------|-----------------------------|
 E|------------5---5---------5--|----5---5---------5---5--|----5---5--------------------|
 B|----2---2--------------------|-------------------------|------------2---2---------2--|


 B|-------------------------|-----------------------------|-------------------------|
F#|-------------------------|-----------------------------|-------------------------|
 D|-------------------------|-----------------------------|-------------------------|
 A|-------------------------|-----------------------------|-------------------------|
 E|-------------------------|------------5---5---------5--|----5---5---------5---5--|
 B|----2---2---------2---2--|----2---2--------------------|-------------------------|


 B|-----------------------------------|-----------------------------------|-----------------------------------|
F#|-----------------------------------|-----------------------------------|-----------------------------------|
 D|-----------------------------------|-----------------------------------|------------7---7---7---7---7---7--|
 A|------------4---4---4---4---4---4--|----4---4---4---4---4---4---4---4--|----4---4---4---4---4---4---4---4--|
 E|----5---5---4---4---4---4---4---4--|----4---4---4---4---4---4---4---4--|----4---4---5---5---5---5---5---5--|
 B|------------2---2---2---2---2---2--|----2---2---2---2---2---2---2---2--|----2---2--------------------------|


 B|-----------------------------------|-----------------------------------|-----------------------------------|
F#|-----------------------------------|-----------------------------------|-----------------------------------|
 D|----7---7---7---7---7---7---7---7--|----7---7--------------------------|-----------------------------------|
 A|----4---4---4---4---4---4---4---4--|----4---4---4---4---4---4---4---4--|----4---4---4---4---4---4---4---4--|
 E|----5---5---5---5---5---5---5---5--|----5---5---4---4---4---4---4---4--|----4---4---4---4---4---4---4---4--|
 B|-----------------------------------|------------2---2---2---2---2---2--|----2---2---2---2---2---2---2---2--|


 B|-----------------------------------|-----------------------------------|---------------------|
F#|-----------------------------------|-----------------------------------|---------------------|
 D|------------7---7---7---7---7---7--|----7---7---7---7---7---7---7---7--|----7---7------------|
 A|----4---4---4---4---4---4---4---4--|----4---4---4---4---4---4---4---4--|----4---4------------|
 E|----4---4---5---5---5---5---5---5--|----5---5---5---5---5---5---5---5--|----5---5------------|
 B|----2---2--------------------------|-----------------------------------|---------------------|


 B|--------|--------|--------|--------|--------|--------|--------|--------|--------|
F#|--------|--------|--------|--------|--------|--------|--------|--------|--------|
 D|--------|--------|--------|--------|--------|--------|--------|--------|--------|
 A|--------|--------|--------|--------|--------|--------|--------|--------|--------|
 E|--------|--------|--------|--------|--------|--------|--------|--------|--------|
 B|--------|--------|--------|--------|--------|--------|--------|--------|--------|


 B|--------|--------|--------|--------|--------|--------|--------|--------|--------|
F#|--------|--------|--------|--------|--------|--------|--------|--------|--------|
 D|--------|--------|--------|--------|--------|--------|--------|--------|--------|
 A|--------|--------|--------|--------|--------|--------|--------|--------|--------|
 E|--------|--------|--------|--------|--------|--------|--------|--------|--------|
 B|--------|--------|--------|--------|--------|--------|--------|--------|--------|


 B|--------|--------|--------|--------|
F#|--------|--------|--------|--------|
 D|--------|--------|--------|--------|
 A|--------|--------|--------|--------|
 E|--------|--------|--------|--------|
 B|--------|--------|--------|--------|





Track 6: Untitled

G|--------|--------|--------|--------|--------|--------|--------|--------|--------|
D|--------|--------|--------|--------|--------|--------|--------|--------|--------|
A|--------|--------|--------|--------|--------|--------|--------|--------|--------|
E|--------|--------|--------|--------|--------|--------|--------|--------|--------|


G|--------|--------|--------|--------|--------|--------|--------|--------|--------|
D|--------|--------|--------|--------|--------|--------|--------|--------|--------|
A|--------|--------|--------|--------|--------|--------|--------|--------|--------|
E|--------|--------|--------|--------|--------|--------|--------|--------|--------|


G|--------|--------|--------|--------|--------|--------|--------|--------|--------|
D|--------|--------|--------|--------|--------|--------|--------|--------|--------|
A|--------|--------|--------|--------|--------|--------|--------|--------|--------|
E|--------|--------|--------|--------|--------|--------|--------|--------|--------|


G|--------|--------|--------|--------|--------|--------|--------|--------|--------|
D|--------|--------|--------|--------|--------|--------|--------|--------|--------|
A|--------|--------|--------|--------|--------|--------|--------|--------|--------|
E|--------|--------|--------|--------|--------|--------|--------|--------|--------|


G|--------|--------|--------|--------|--------|--------|--------|--------|--------|
D|--------|--------|--------|--------|--------|--------|--------|--------|--------|
A|--------|--------|--------|--------|--------|--------|--------|--------|--------|
E|--------|--------|--------|--------|--------|--------|--------|--------|--------|


G|--------|--------|--------|--------|--------|--------|--------|--------|--------|
D|--------|--------|--------|--------|--------|--------|--------|--------|--------|
A|--------|--------|--------|--------|--------|--------|--------|--------|--------|
E|--------|--------|--------|--------|--------|--------|--------|--------|--------|


G|--------|--------|--------|--------|--------|--------|--------|--------|--------|
D|--------|--------|--------|--------|--------|--------|--------|--------|--------|
A|--------|--------|--------|--------|--------|--------|--------|--------|--------|
E|--------|--------|--------|--------|--------|--------|--------|--------|--------|


G|--------|--------|--------|--------|--------|--------|--------|--------|--------|
D|--------|--------|--------|--------|--------|--------|--------|--------|--------|
A|--------|--------|--------|--------|--------|--------|--------|--------|--------|
E|--------|--------|--------|--------|--------|--------|--------|--------|--------|


G|--------|--------|--------|--------|--------|--------|--------|--------|--------|
D|--------|--------|--------|--------|--------|--------|--------|--------|--------|
A|--------|--------|--------|--------|--------|--------|--------|--------|--------|
E|--------|--------|--------|--------|--------|--------|--------|--------|--------|


G|--------|--------|--------|--------|--------|--------|--------|--------|--------|
D|--------|--------|--------|--------|--------|--------|--------|--------|--------|
A|--------|--------|--------|--------|--------|--------|--------|--------|--------|
E|--------|--------|--------|--------|--------|--------|--------|--------|--------|


G|--------|--------|--------|--------|--------|--------|--------|--------|--------|
D|--------|--------|--------|--------|--------|--------|--------|--------|--------|
A|--------|--------|--------|--------|--------|--------|--------|--------|--------|
E|--------|--------|--------|--------|--------|--------|--------|--------|--------|


G|--------|--------|--------|--------|--------|--------|--------|--------|--------|
D|--------|--------|--------|--------|--------|--------|--------|--------|--------|
A|--------|--------|--------|--------|--------|--------|--------|--------|--------|
E|--------|--------|--------|--------|--------|--------|--------|--------|--------|


G|--------|--------|--------|--------|--------|--------|--------|--------|--------|
D|--------|--------|--------|--------|--------|--------|--------|--------|--------|
A|--------|--------|--------|--------|--------|--------|--------|--------|--------|
E|--------|--------|--------|--------|--------|--------|--------|--------|--------|


G|--------|--------|--------|--------|--------|--------|--------|--------|--------|
D|--------|--------|--------|--------|--------|--------|--------|--------|--------|
A|--------|--------|--------|--------|--------|--------|--------|--------|--------|
E|--------|--------|--------|--------|--------|--------|--------|--------|--------|


G|--------|--------|--------|--------|--------|--------|
D|--------|--------|--------|--------|--------|--------|
A|--------|--------|--------|--------|--------|--------|
E|--------|--------|--------|--------|--------|--------|