Menu:

 

Search:

 

sodom - persecution mania:

 



#----------------------------------PLEASE NOTE---------------------------------#
#This file is the author's own work and represents their interpretation of the #
#song. You may only use this file for private study, scholarship, or research. #
#------------------------------------------------------------------------------#

  Visit MetalTabs.com for more metal tablature
  
Sodom "Persecution Mania" from PERSECUTION MANIA (1987)

Tabbed by Kramer
E-mail: Pantera9560@aol.com

Riff 1 8x
A---------3-3-2-2------------------
E-0-0-0-0---------3-3-3-3-2-2-3-3--

Play E5 chord 4x

Riff 2A 3x then E5 chord
D-------------------------------------------------2---------
A-----------5-----7-----8---7---------------5-----0-----3---
E-00000000--3-----5-----6---5-----00000000--3-----------1---

Riff 3 twice
A-8877----887766556655----66554433---
E-----5566------------3344-----------

Riff 4 twice
G---------------------5----------------------------------
D---------------------3---------------------------3------
A-000000000000000000----------000000000000000000--1------

Riff 3 twice
Riff 4 twice

Riff 2B twice
G-------------------------------------------------2---------
D-----------5-----7-----8---7---------------5-----0-----3---
A-00000000--3-----5-----6---5-----00000000--3-----------1---

Riff 2A twice
Riff 2B twice
Riff 2A twice then E5 chord
Riff 1 8x then E6 chord

  Visit MetalTabs.com for more metal tablature