Menu:

 

Search:

 

sodom - nuclear winter:

 



#----------------------------------PLEASE NOTE---------------------------------#
#This file is the author's own work and represents their interpretation of the #
#song. You may only use this file for private study, scholarship, or research. #
#------------------------------------------------------------------------------#

  Visit MetalTabs.com for more metal tablature
  
Band: Sodom
Album: Persecution Mania
Song: Nuclear Winter
Copyright (c) Steamhammer 1987
Version 1.0 - 1-9-2005
Transcribed By: Steve - MetalThrashingMad
Email: Thrasher502@hotmail.com

* - palm mute                    /
s - slide                       /
~ - vibrato                    /   - bend  up as indicated
h - hammer on
p - pull off                   \
t - right hand tapping          \
( ) - sustained note             \ - bend down as indicated
[] - side note
% - end riff
nh - natural harmonic            |
ph - pinched harmonic            |
tr - trill                       | - pre-bend as indicated
# - percussive note
.+ - continue to next staff      - - - - - hold note as indicated
Suffixes for bends:
5 - half step
1 - whole step
1.5 - step and a half
2 - two steps
2.5 - two and a half steps
[w/bar] - use tremolo bar

Gitarre- Frank "Blackfire" Gosdzik
Tuning E A D G B E
--------------------------------------------------------------------------------
One day I will tab ALL the Persecution Mania tracks, mmwwuuhahahah. As if
anyone cared about simple ol' Sodom anymore. It's not as if they are hard or
anything. If you have solos for any Sodom stuff that'd be neato. Once again,
if you find a mistake, or have a better idea of how a riff goes, e-mail me,
blah blah blah.


[play 4 times][0:00]
|-----------------------------------------------|
|-----------------------------------------------|
|-----------------------------------------------|
|-6----7----6----7------------------------------|
|-4-4444-4444-4444-444---------------------4--5-|
|----------------------3p2-0-0-2-0-0-2--0--2--3-|
    ***  ***  ***  ***     * *   * *    *

|-----------------------------------------------|
|-----------------------------------------------|
|-----------------------------------------------|
|-6----7----6----7------------------------------|
|-4-4444-4444-4444-444---------------------4--3-|
|----------------------3p2-0-0-2-0-0-2--0--2--1-%
    ***  ***  ***  ***     * *   * *    *

|-----------------------------------------------|
|-----------------------------------------------|
|-----------------------------------------------|
|-6----7----6----7------------------------------|
|-4-4444-4444-4444-444---------------------4--5-|
|----------------------3p2-0-0-2-0-0-2--0--2--3-%
    ***  ***  ***  ***     * *   * *    *

[play 4 times][0:25]
|-----------------------------------------------|
|-----------------------------------------------|
|-----------------------------------------------|
|-6----7----6----7------------------------------|
|-4-4444-4444-4444-444---------------------4--5-|
|----------------------3p2-0-0-2-0-0-2--0--2--3-|
    ***  ***  ***  ***     * *   * *    *

|-----------------------------------------------|
|-----------------------------------------------|
|-----------------------------------------------|
|-6----7----6----7------------------------------|
|-4-4444-4444-4444-444---------------------4--3-|
|----------------------3p2-0-0-2-0-0-2--0--2--1-%
    ***  ***  ***  ***     * *   * *    *

[play 4 times][0:42]
|--------------------------------------------------------------|
|--------------------------------------------------------------|
|--------------------------------------------------------------|
|--------------------------------------------------------------|
|-2----------------1---------------------------------2h3-2h3-4-|
|-0-0000-0000-0000---0000-0000-0000-1-0000-0000-0000---------2-%
    **** **** ****   **** **** ****   **** **** ****

[0:58]
|-------|
|-------|
|-------|
|-------|
|-5~~~~-|
|-3~~~~-|

[play 2 times][1:01]
|-----------------------------------------------|
|-----------------------------------------------|
|-----------------------------------------------|
|-6----7----6----7------------------------------|
|-4-4444-4444-4444-444---------------------4--5-|
|----------------------3p2-0-0-2-0-0-2--0--2--3-|
    ***  ***  ***  ***     * *   * *    *

|-----------------------------------------------|
|-----------------------------------------------|
|-----------------------------------------------|
|-6----7----6----7------------------------------|
|-4-4444-4444-4444-444---------------------4--3-|
|----------------------3p2-0-0-2-0-0-2--0--2--1-%
    ***  ***  ***  ***     * *   * *    *

[play 4 times][1:17]
|--------------------------------------------------------------|
|--------------------------------------------------------------|
|--------------------------------------------------------------|
|--------------------------------------------------------------|
|-2----------------1---------------------------------2h3-2h3-4-|
|-0-0000-0000-0000---0000-0000-0000-1-0000-0000-0000---------2-%
    **** **** ****   **** **** ****   **** **** ****

[1:33]
|-------|
|-------|
|-------|
|-------|
|-5~~~~-|
|-3~~~~-|

[play 5 times][1:36]
|---------------------------------------------------------------|
|---------------------------------------------------------------|
|---------------------------------------------------------------|
|---------------------------------------------------4s5-----5s4-|
|---4s5-----5s4-----4s5-----5s3-----4s5-----5s4-----2s3-3-3-3s2-|
|-s-2s3-3-3-3s2-2-2-2s3-3-3-3s1-1-1-2s3-3-3-3s2-2-2-------------|
        * *     * *     * *     * *     * *     * *     * *

[play 4 times][2:01]                                             [play 4 times]
|-------------------------------------------------------------| |------|[2:21]
|-------------------------------------------------------------| |------|
|-------------------------------------------------------------| |------|
|-------------------------------------------------4s5-----5s4-| |------|
|-4s5-----5s4-----4s3-----3s2-----4s5-----5s4-----2s3-3-3-3s2-| |------|
|-2s3-3-3-3s2-2-2-2s1-1-1-1p0-0-0-2s3-3-3-3s2-2-2-------------% |-3333-|
      * *     * *     * *     * *     * *     * *     * *         ****

|----------------------------------------------------------------------------|
|----------------------------------------------------------------------------|
|----------------------------------------------------------------------------|
|----------------------------------------------------------------------------|
|----------------------------------------------------------------------------|
|-3333-3333-3333-2222-2222-1111-1111-0000-0000-0000-0000-0000-0000-0000-0000-|
  **** **** **** **** **** **** **** **** **** **** **** **** **** **** ****

[play 2 times][2:43                   [play 2 times]
|------------------------------------|--------------------------------------|
|------------------------------------|--------------------------------------|
|------------------------------------|--------------------------------------|
|------------------------------------|--------------------------------4---5-|
|-------------------------------4--5-|-0000-0000-2-00-0000-3-00-0000--2---3-|
|-0000-0000-2-00-0000-3-00-0000-2--3-%--------------------------------------|

[play 2 times]                        [play 2 times]
|------------------------------------|--------------------------------------|
|------------------------------------|--------------------------------------|
|------------------------------------|--------------------------------------|
|------------------------------------|--------------------------------4---5-|
|-------------------------------4--5-|-0000-0000-2-00-0000-3-00-0000--2---3-|
|-0000-0000-2-00-0000-3-00-0000-2--3-%--------------------------------------|
[play 2 times]                        [play 2 times]
|------------------------------------|--------------------------------------|
|------------------------------------|--------------------------------------|
|------------------------------------|--------------------------------------|
|------------------------------------|--------------------------------4---5-|
|-------------------------------4--5-|-0000-0000-2-00-0000-3-00-0000--2---3-|
|-0000-0000-2-00-0000-3-00-0000-2--3-%--------------------------------------|


[play 27 times][3:13]
|-----------------| |-------------------------------------------|
|-----------------| |-------------------------------------------|
|-----------------| |-------------------------------------------|
|-----------------| |-------------------------------------------|
|-----------------| |-----------------------------------------2-|
|-0-0-0-0-0-0-000-% |-0000-0000-0000-0000-0000-0000-0000-0000-0-|
  * * * * * * ***     **** **** **** **** **** **** **** **** *

[play 2 times][3:55]                  [play 2 times]
|------------------------------------|--------------------------------------|
|------------------------------------|--------------------------------------|
|------------------------------------|--------------------------------------|
|------------------------------------|--------------------------------4---5-|
|-------------------------------4--5-|-0000-0000-2-00-0000-3-00-0000--2---3-|
|-0000-0000-2-00-0000-3-00-0000-2--3-%--------------------------------------|

[play 2 times]                        [play 2 times]
|------------------------------------|--------------------------------------|
|------------------------------------|--------------------------------------|
|------------------------------------|--------------------------------------|
|------------------------------------|--------------------------------4---5-|
|-------------------------------4--5-|-0000-0000-2-00-0000-3-00-0000--2---3-|
|-0000-0000-2-00-0000-3-00-0000-2--3-%--------------------------------------|
[play 2 times]                        [play 2 times]
|------------------------------------|--------------------------------------|
|------------------------------------|--------------------------------------|
|------------------------------------|--------------------------------------|
|------------------------------------|--------------------------------4---5-|
|-------------------------------4--5-|-0000-0000-2-00-0000-3-00-0000--2---3-|
|-0000-0000-2-00-0000-3-00-0000-2--3-%--------------------------------------|

[play 2 times][4:20]
|------------------------------------| |------|
|------------------------------------| |------|
|------------------------------------| |------|
|------------------------------------| |------|
|-------------------------------4--5-| |-2----|
|-0000-0000-2-00-0000-3-00-0000-2--3-% |-0~~~-%

[play 4 times][4:49]
|-----------------------------------------------|
|-----------------------------------------------|
|-----------------------------------------------|
|-6----7----6----7------------------------------|
|-4-4444-4444-4444-444---------------------4--5-|
|----------------------3p2-0-0-2-0-0-2--0--2--3-|
    ***  ***  ***  ***     * *   * *    *

|-----------------------------------------------|
|-----------------------------------------------|
|-----------------------------------------------|
|-6----7----6----7------------------------------|
|-4-4444-4444-4444-444---------------------4--3-|
|----------------------3p2-0-0-2-0-0-2--0--2--1-%
    ***  ***  ***  ***     * *   * *    *

[play 4 times][5:06]
|--------------------------------------------------------------|
|--------------------------------------------------------------|
|--------------------------------------------------------------|
|--------------------------------------------------------------|
|-2----------------1---------------------------------2h3-2h3-4-|
|-0-0000-0000-0000---0000-0000-0000-1-0000-0000-0000---------2-%
    **** **** ****   **** **** ****   **** **** ****

[5:22]      [5:23]
|------------|
|------------|
|------------|
|------------|
|-5~~~~-2222-|
|-3~~~~-0000-|
        ****

END

  Visit MetalTabs.com for more metal tablature