Menu:

 

Search:

 

sodom - iron fist:

 



#----------------------------------PLEASE NOTE---------------------------------#
#This file is the author's own work and represents their interpretation of the #
#song. You may only use this file for private study, scholarship, or research. #
#------------------------------------------------------------------------------#

  Visit MetalTabs.com for more metal tablature
  
Band:   Sodom
Album: Persecution Mania
Song:  Iron Fist (Motorhead Cover)

Copyright (c) Steamhammer 1987


Transcribed By: Agent-Orange


Tunning E A D G B E

Riff A x2
|-----------------------------------------|
|-----------------------------------------|
|-----------------------------------------|
|---9--9--9--9--9-9-9--9--8----5----2-----|
|---7--7--7--7--7-7-7--7--6----3----0-----|
|-----------------------------------------|

Riff B x4
|-----------------------------------------|
|-----------------------------------------|
|-----------------------------------------|
|---9--9-9-9-9--9--9-9-9-9--8----5----2---|
|---7--7-7-7-7--7--7-7-7-7--6----3----0---|
|-----------------------------------------|

Riff C x2
|----------------------------------------|
|----------------------------------------|
|----------------------------------------|
|---9--9-9-9-9--9--9-9-9-9--9--9-9-9-9---|
|---7--7-7-7-7--7--7-7-7-7--7--7-7-7-7---|
|----------------------------------------|

|------------------------------------------------------|
|------------------------------------------------------|
|------------------------------------------------------|
|---9--9-9-9-9--9--9-9-9-9--9--9-9-9-9---8----5----2---|
|---7--7-7-7-7--7--7-7-7-7--7--7-7-7-7---6----3----0---|
|------------------------------------------------------|

Riff D x1
|---------------------------------------------|
|---------------------------------------------|
|---------------------------------------------|
|---7-----------3------------9------------5---|
|---5-----------1------------7------------3---|
|---------------------------------------------|

|------------------------------------------|
|------------------------------------------|
|------------------------------------------|
|---7-----------3------------9-9-9-5-5-5---|
|---5-----------1------------7-7-7-3-3-3---|
|------------------------------------------|

Riff C x3
Riff D x1

Riff E x5
|----------------------------------------|
|----------------------------------------|
|----------------------------------------|
|---9--9-9-9-9--9--9-9-9-9--9--9-9-9-9---|
|---7--7-7-7-7--7--7-7-7-7--7--7-7-7-7---|
|----------------------------------------|

Riff D x1
Riff C x3
Riff D x1
Riff E x5
Riff D x1

Outro
|-----------------------------------------|
|-----------------------------------------|
|-----------------------------------------|
|---9--9--7----9--9--9----9-9-7---9-9-7---|
|---7--7--5----7--7--5----7-7-5---7-7-5---|
|-----------------------------------------|


END

  Visit MetalTabs.com for more metal tablature