Menu:

 

Search:

 

sodom - ausgebombt bass:

 



#----------------------------------PLEASE NOTE---------------------------------#
#This file is the author's own work and represents their interpretation of the #
#song. You may only use this file for private study, scholarship, or research. #
#------------------------------------------------------------------------------#

  Visit MetalTabs.com for more metal tablature
  
Band: Sodom
Album:  Agent Orange
Song: Ausgebombt

Transcribed By: sodomaniac
Email: torbenauras@aol.com

Riff1
G-----------------------------------|
D-----------------------------------|
A-----------------------------------|
E--7-7-7-7-5-5-5-7-7-7-7--10--9--5--|

Riff2
G------------------------------------------------------------------|
D------------------------------------------------------------------|
A------------------------------------------------------------------|
E--3-3-3-3-5-5-5-3-3-3-3--8--7--5--3-3-3-3-5-5-5-3-3-3-3--8--7--5--|

Riff3
G---------------------------|
D---------------------------|
A---------------------------|
E--4-4-4-5-5-5-4-4-4-7-7-7--|

End
G------------|
D------------|
A------------|
E--10--9--5--|

Order:
Riff1 x10
Riff2 x1
Riff1 x8
Riff2 x1
Riff1 x12
Riff2 x1
Riff1 x4
Riff3 x4
Riff1 x6
Riff2 x1
Riff1 x4
End   x3

  Visit MetalTabs.com for more metal tablature