Menu:

 

Search:

 

slipknot - welcome:

 



Title: Welcome
Artist: 
Album: Volume 3: The Subliminal Verses
Author: Slipknot


Track 1: Distortion 1

C#|----------------------------------------|--------------------|--------------------|
G#|----------------------------------------|--------------------|--------------------|
 E|----------------------------------------|--------------------|--------------------|
 B|----------------------------------------|--------------------|--------------------|
F#|-------------------------0--------------|-2---1---0----------|-------2---1---0----|
 B|-0--0--0--0--1--1--1--1--0--------0--0--|-2---1---0----------|-------2---1---0----|


C#|------------------------------|-------------|----------------------------------------|
G#|------------------------------|-------------|----------------------------------------|
 E|------------------------------|-------------|----------------------------------------|
 B|------------------------------|-------------|----------------------------------------|
F#|-------0----------------------|-------------|-------------------------0--------------|
 B|-------0----0--0--1--1--1--1--|-0-----------|-0--0--0--0--1--1--1--1--0--------0--0--|


C#|--------------------|--------------------|---------------------------------|--------------------------------|
G#|--------------------|--------------------|---------------------------------|--------------------------------|
 E|--------------------|--------------------|---------------------------------|--------------------------------|
 B|--------------------|--------------------|---------------------------------|--------------------------------|
F#|-2---1---0----------|-------2---1---0----|-------0-------------------------|-0------------------------------|
 B|-2---1---0----------|-------2---1---0----|-------0-------0--0--1--1--1--1--|-0--------0--0--4---1---0----0--|


C#|---------------------------------|---------------------------------|---------------------------------|
G#|---------------------------------|---------------------------------|---------------------------------|
 E|---------------------------------|---------------------------------|---------------------------------|
 B|---------------------------------|---------------------------------|---------------------------------|
F#|---------------------------------|---------------------------------|---------------------------------|
 B|-4---1---0----0--4---1---0----0--|-4---1---0----0--4---1---0----0--|-4---1---0----0--4---1---0----0--|


C#|--------------------|-------------------------------|-------------------------------------|
G#|--------------------|-------------------------------|-------------------------------------|
 E|--------------------|-------------------------------|-------------------------------------|
 B|--------------------|-------------------------------|-------------------------------------|
F#|--------------------|----------0--2---1---0------0--|-2---1---0------0--2---1---0------0--|
 B|-4---1---0----------|----------0--2---1---0------0--|-2---1---0------0--2---1---0------0--|


C#|-------------------------------------|-------------------------------------|-------------------------------------|
G#|-------------------------------------|-------------------------------------|-------------------------------------|
 E|-------------------------------------|-------------------------------------|-------------------------------------|
 B|-------------------------------------|-------------------------------------|-------------------------------------|
F#|-2---1---0------0--2---1---0------0--|-2---1---0------0--2---1---0------0--|-2---1---0------0--2---1---0------0--|
 B|-2---1---0------0--2---1---0------0--|-2---1---0------0--2---1---0------0--|-2---1---0------0--2---1---0------0--|


C#|-------------------------------------|-------------------------------------|-------------------------------------|
G#|-------------------------------------|-------------------------------------|-------------------------------------|
 E|-------------------------------------|-------------------------------------|-------------------------------------|
 B|-------------------------------------|-------------------------------------|-------------------------------------|
F#|-2---1---0------0--2---1---0------0--|-2---1---0------0--2---1---0------0--|-2---1---0------0--2---1---0---------|
 B|-2---1---0------0--2---1---0------0--|-2---1---0------0--2---1---0------0--|-2---1---0------0--2---1---0------0--|


C#|-------------------------------|-----------------------------|-----------------------------------------------|
G#|-------------------------------|-----------------------------|-----------------------------------------------|
 E|-------------------------------|-----------------------------|-----------------------------------------------|
 B|-------------------------------|-----------------------------|-----------------------------------------------|
F#|-------------------------------|-0--------------2---1---0----|-----------------------------------------------|
 B|-17----0--0--0--0--1--1--1--1--|-0--------0--0--2---1---0----|-----0--0--1--1--1--1--0--0--0--0--1--1--1--1--|


C#|-----------------------------|-----------------------------------------------|-----------------------------|
G#|-----------------------------|-----------------------------------------------|-----------------------------|
 E|-----------------------------|-----------------------------------------------|-----------------------------|
 B|-----------------------------|-----------------------------------------------|-----------------------------|
F#|-0--------------2---1---0----|-----------------------------------------------|-0--------------2---1---0----|
 B|-0--------0--0--2---1---0----|-----0--0--1--1--1--1--0--0--0--0--1--1--1--1--|-0--------0--0--2---1---0----|


C#|-----------------------------------------------|-----------------------------|--------------------------------|
G#|-----------------------------------------------|-----------------------------|--------------------------------|
 E|-----------------------------------------------|-----------------------------|--------------------------------|
 B|-----------------------------------------------|-----------------------------|--------------------------------|
F#|-----------------------------------------------|-0--------------2---1---0----|-------------------2---1---0----|
 B|-----0--0--1--1--1--1--0--0--0--0--1--1--1--1--|-0--------0--0--2---1---0----|-----0--0--1---0---2---1---0----|


C#|---------------------------------|-----------------------------|---------------------------------|
G#|---------------------------------|-----------------------------|---------------------------------|
 E|---------------------------------|-----------------------------|---------------------------------|
 B|---------------------------------|-----------------------------|---------------------------------|
F#|-------0-------------------------|-0--------------2---1---0----|-------0-------------------------|
 B|-------0-------0--0--1--1--1--1--|-0--------0--0--2---1---0----|-------0-------0--0--1--1--1--1--|


C#|-----------------------------|---------------------------------|-----------------------------|
G#|-----------------------------|---------------------------------|-----------------------------|
 E|-----------------------------|---------------------------------|-----------------------------|
 B|-----------------------------|---------------------------------|-----------------------------|
F#|-0--------------2---1---0----|-------0-------------------------|-0--------------2---1---0----|
 B|-0--------0--0--2---1---0----|-------0-------0--0--1--1--1--1--|-0--------0--0--2---1---0----|


C#|---------------------------------|--------------------------------|---------------------------------|
G#|---------------------------------|--------------------------------|---------------------------------|
 E|---------------------------------|--------------------------------|---------------------------------|
 B|---------------------------------|--------------------------------|---------------------------------|
F#|-------0-------------------------|-0--------------0---0---0---0---|-0---0---0---0-------------------|
 B|-------0-------0--0--1--1--1--1--|-0--------0--0--0---0---0---0---|-0---0---0---0---0---0---4---3---|


C#|---------------------------------|---------------------------------|---------------------------------|
G#|---------------------------------|---------------------------------|---------------------------------|
 E|---------------------------------|---------------------------------|---------------------------------|
 B|---------------------------------|---------------------------------|---------------------------------|
F#|---------3---2---2---------------|---------------------------------|---------3---2---2---------------|
 B|-3---0---------------0---2---1---|-1---0---6---5---0---0---4---3---|-3---0---------------0---2---1---|


C#|---------------------------------|---------------------------------|---------------------------------|
G#|---------------------------------|---------------------------------|---------------------------------|
 E|---------------------------------|---------------------------------|---------------------------------|
 B|---------------------------------|---------------------------------|---------------------------------|
F#|---------------------------------|---------3---2---2---------------|---------------------------------|
 B|-1---0---6---5---0---0---4---3---|-3---0---------------0---2---1---|-1---0---6---5---0---0---4---3---|


C#|---------------------------------|-----------------------------------|-------------------------------------|
G#|---------------------------------|-----------------------------------|-------------------------------------|
 E|---------------------------------|-----------------------------------|-------------------------------------|
 B|---------------------------------|-----------------------------------|-------------------------------------|
F#|---------3---2---2---------------|-----------------2---1---0------0--|-2---1---0------0--2---1---0------0--|
 B|-3---0---------------0---2---1---|-1---0---6---5---2---1---0------0--|-2---1---0------0--2---1---0------0--|


C#|-------------------------------------|-------------------------------------|-------------------------------|
G#|-------------------------------------|-------------------------------------|-------------------------------|
 E|-------------------------------------|-------------------------------------|-------------------------------|
 B|-------------------------------------|-------------------------------------|-------------------------------|
F#|-2---1---0------0--2---1---0------0--|-2---1---0------0--2---1---0---------|-------------------------------|
 B|-2---1---0------0--2---1---0------0--|-2---1---0------0--2---1---0------0--|-17----0--0--0--0--1--1--1--1--|


C#|-----------------------------|-----------------------------------------------|-----------------------------|
G#|-----------------------------|-----------------------------------------------|-----------------------------|
 E|-----------------------------|-----------------------------------------------|-----------------------------|
 B|-----------------------------|-----------------------------------------------|-----------------------------|
F#|-0--------------2---1---0----|-----------------------------------------------|-0--------------2---1---0----|
 B|-0--------0--0--2---1---0----|-----0--0--1--1--1--1--0--0--0--0--1--1--1--1--|-0--------0--0--2---1---0----|


C#|-----------------------------------------------|-----------------------------|-----------------------------------------------|
G#|-----------------------------------------------|-----------------------------|-----------------------------------------------|
 E|-----------------------------------------------|-----------------------------|-----------------------------------------------|
 B|-----------------------------------------------|-----------------------------|-----------------------------------------------|
F#|-----------------------------------------------|-0--------------2---1---0----|-----------------------------------------------|
 B|-----0--0--1--1--1--1--0--0--0--0--1--1--1--1--|-0--------0--0--2---1---0----|-----0--0--1--1--1--1--0--0--0--0--1--1--1--1--|


C#|-----------------------------|------------------------------------|---------------------------------|
G#|-----------------------------|------------------------------------|---------------------------------|
 E|-----------------------------|------------------------------------|---------------------------------|
 B|-----------------------------|------------------------------------|---------------------------------|
F#|-0--------------2---1---0----|-----------------------2---1---0----|-------0-------------------------|
 B|-0--------0--0--2---1---0----|-----0--0--1--1--0--0--2---1---0----|-------0-------0--0--1--1--1--1--|


C#|-----------------------------|---------------------------------|-----------------------------|
G#|-----------------------------|---------------------------------|-----------------------------|
 E|-----------------------------|---------------------------------|-----------------------------|
 B|-----------------------------|---------------------------------|-----------------------------|
F#|-0--------------2---1---0----|-------0-------------------------|-0--------------2---1---0----|
 B|-0--------0--0--2---1---0----|-------0-------0--0--1--1--1--1--|-0--------0--0--2---1---0----|


C#|---------------------------------|-----------------------------|---------------------------------|
G#|---------------------------------|-----------------------------|---------------------------------|
 E|---------------------------------|-----------------------------|---------------------------------|
 B|---------------------------------|-----------------------------|---------------------------------|
F#|-------0-------------------------|-0--------------2---1---0----|-------0-------------------------|
 B|-------0-------0--0--1--1--1--1--|-0--------0--0--2---1---0----|-------0-------0--0--1--1--1--1--|


C#|--------------------------------|---------------------------------|---------------------------------|
G#|--------------------------------|---------------------------------|---------------------------------|
 E|--------------------------------|---------------------------------|---------------------------------|
 B|--------------------------------|---------------------------------|---------------------------------|
F#|-0--------------0---0---0---0---|-0---0---0---0-------------------|---------3---2---2---------------|
 B|-0--------0--0--0---0---0---0---|-0---0---0---0---0---0---4---3---|-3---0---------------0---2---1---|


C#|---------------------------------|---------------------------------|---------------------------------|
G#|---------------------------------|---------------------------------|---------------------------------|
 E|---------------------------------|---------------------------------|---------------------------------|
 B|---------------------------------|---------------------------------|---------------------------------|
F#|---------------------------------|---------3---2---2---------------|---------------------------------|
 B|-1---0---6---5---0---0---4---3---|-3---0---------------0---2---1---|-1---0---6---5---0---0---4---3---|


C#|---------------------------------|---------------------------------|---------------------------------|
G#|---------------------------------|---------------------------------|---------------------------------|
 E|---------------------------------|---------------------------------|---------------------------------|
 B|---------------------------------|---------------------------------|---------------------------------|
F#|---------3---2---2---------------|---------------------------------|---------3---2---2---------------|
 B|-3---0---------------0---2---1---|-1---0---6---5---0---0---4---3---|-3---0---------------0---2---1---|


C#|-----------------------------------|-------------------------------------|-------------------------------------|
G#|-----------------------------------|-------------------------------------|-------------------------------------|
 E|-----------------------------------|---------5---5-4---4-----------------|-------------------------------------|
 B|-------------------------4---4-3---|-3-------5---5-4---4-------2---2-1---|-1-------6---6-5-----------4---4-3---|
F#|-----------------0---0---4---4-3---|-3---0---3---3-2---2---0---2---2-1---|-1---0---6---6-5---0---0---4---4-3---|
 B|-1---0---6---5---0---0---4---4-3---|-3---0-----------------0---2---2-1---|-1---0---6---6-5---0---0---4---4-3---|


C#|-------------------------------------|-------------------------------------|-------------------------------------|
G#|-------------------------------------|-------------------------------------|-------------------------------------|
 E|---------5---5-4---4-----------------|-------------------------------------|---------5---5-4---4-----------------|
 B|-3-------5---5-4---4-------2---2-1---|-1-------6---6-5-----------4---4-3---|-3-------5---5-4---4-------2---2-1---|
F#|-3---0---3---3-2---2---0---2---2-1---|-1---0---6---6-5---0---0---4---4-3---|-3---0---3---3-2---2---0---2---2-1---|
 B|-3---0-----------------0---2---2-1---|-1---0---6---6-5---0---0---4---4-3---|-3---0-----------------0---2---2-1---|


C#|-------------------------------------|-------------------------------------|-------------------------------------|
G#|-------------------------------------|-------------------------------------|-------------------------------------|
 E|-------------------------------------|---------5---5-4---4-----------------|-------------------------------------|
 B|-1-------6---6-5-----------4---4-3---|-3-------5---5-4---4-------2---2-1---|-1-------6---6-5-----------4---4-3---|
F#|-1---0---6---6-5---0---0---4---4-3---|-3---0---3---3-2---2---0---2---2-1---|-1---0---6---6-5---0---0---4---4-3---|
 B|-1---0---6---6-5---0---0---4---4-3---|-3---0-----------------0---2---2-1---|-1---0---6---6-5---0---0---4---4-3---|


C#|-------------------------------------|-------------------------------------|-------------------------------------|
G#|-------------------------------------|-------------------------------------|-------------------------------------|
 E|---------5---5-4---4-----------------|-------------------------------------|---------5---5-4---4-----------------|
 B|-3-------5---5-4---4-------2---2-1---|-1-------6---6-5-----------4---4-3---|-3-------5---5-4---4-------2---2-1---|
F#|-3---0---3---3-2---2---0---2---2-1---|-1---0---6---6-5---0---0---4---4-3---|-3---0---3---3-2---2---0---2---2-1---|
 B|-3---0-----------------0---2---2-1---|-1---0---6---6-5---0---0---4---4-3---|-3---0-----------------0---2---2-1---|


C#|-------------------------------------|-------------------------------------|-------------------------------------|
G#|-------------------------------------|-------------------------------------|-------------------------------------|
 E|-------------------------------------|---------5---5-4---4-----------------|-------------------------------------|
 B|-1-------6---6-5-----------4---4-3---|-3-------5---5-4---4-------2---2-1---|-1-------6---6-5-----------4---4-3---|
F#|-1---0---6---6-5---0---0---4---4-3---|-3---0---3---3-2---2---0---2---2-1---|-1---0---6---6-5---0---0---4---4-3---|
 B|-1---0---6---6-5---0---0---4---4-3---|-3---0-----------------0---2---2-1---|-1---0---6---6-5---0---0---4---4-3---|


C#|-------------------------------------|-------------------------------------------|
G#|-------------------------------------|-------------------------------------------|
 E|---------5---5-4---4-----------------|-------------------------------------------|
 B|-3-------5---5-4---4-------2---2-1---|-1-------6---6-5---------------------------|
F#|-3---0---3---3-2---2---0---2---2-1---|-1---0---6---6-5---------------------------|
 B|-3---0-----------------0---2---2-1---|-1---0---6---6-5---0--0--0--0--1--1--1--1--|


C#|-----------------------------|--------|------------------------|---------------------------------|
G#|-----------------------------|--------|------------------------|---------------------------------|
 E|-----------------------------|--------|------------------------|---------------------------------|
 B|-----------------------------|--------|------------------------|---------------------------------|
F#|-0--------------2---1---0----|--------|-2---1---0----------0---|---------------------------------|
 B|-0--------0--0--2---1---0----|--------|-2---1---0----------0---|-----0--0--1--1--1--1--0---------|


C#|-------------------------------|-----------------------------|--------|------------------------|
G#|-------------------------------|-----------------------------|--------|------------------------|
 E|-------------------------------|-----------------------------|--------|------------------------|
 B|-------------------------------|-----------------------------|--------|------------------------|
F#|-------------------------------|-0--------------2---1---0----|--------|-2---1---0----------0---|
 B|-------0--0--0--0--1--1--1--1--|-0--------0--0--2---1---0----|--------|-2---1---0----------0---|


C#|---------------------------------|-17-15-17-15-------------------------------------15-17-15-|
G#|---------------------------------|-------------15----17-15-17-18-17-15----15-17-18----------|
 E|---------------------------------|----------------17-------------------17-------------------|
 B|---------------------------------|----------------------------------------------------------|
F#|-----------------------0---------|----------------------------------------------------------|
 B|-----0--0--1--1--1--1--0---------|----------------------------------------------------------|


C#|-17-15----------------------------------------------------|-15-12----------12-15-12-15-12----------12-15-15-12-|
G#|-------18-17-15----15-17-17-15----18-17-15----15-15-14-15-|-------13----13----------------13----13-------------|
 E|----------------17-------------17----------17-------------|----------12----------------------13----------------|
 B|----------------------------------------------------------|----------------------------------------------------|
F#|----------------------------------------------------------|----------------------------------------------------|
 B|----------------------------------------------------------|----------------------------------------------------|


C#|-18-15-------------15-18-18-15----------15-18-18-15-|-17-15-17-15----------------------------------------15-17-15-|
G#|-------15-------15-------------------15-------------|-------------18-17-15----15-17-18-17-15----15-17-18----------|
 E|----------15-15----------------15-16----------------|----------------------17----------------17-------------------|
 B|----------------------------------------------------|-------------------------------------------------------------|
F#|----------------------------------------------------|-------------------------------------------------------------|
 B|----------------------------------------------------|-------------------------------------------------------------|


C#|-17-15-------------------------------------------|-22-17----------17-22-17-21-18----------18-21-18-|
G#|-------18-17-15----15-17-18-17-15----16-15-19-15-|-------18----18----------------20----20----------|
 E|----------------17----------------17-------------|----------19----------------------21-------------|
 B|-------------------------------------------------|-------------------------------------------------|
F#|-------------------------------------------------|-------------------------------------------------|
 B|-------------------------------------------------|-------------------------------------------------|


C#|-18-15----------15-18-15-15-12----------12-15-12-|-15-----|-15-----|-15-----|-------------|
G#|-------17----17----------------14----14----------|--------|--------|--------|-------------|
 E|----------18----------------------15-------------|--------|--------|--------|-------------|
 B|-------------------------------------------------|--------|--------|--------|-------------|
F#|-------------------------------------------------|--------|--------|--------|-------------|
 B|-------------------------------------------------|--------|--------|--------|-10----10----|


C#|-----------------------------------------7--8--|-12----------------------------------------------|
G#|-------------------------7--5--7--5--8---------|----15-13-15-13-12----------13-15-13-12----------|
 E|-------------7--5--7--5------------------------|-------------------14-12-14--------------12--12--|
 B|-7--5--7--5------------------------------------|-------------------------------------------------|
F#|-----------------------------------------------|-------------------------------------------------|
 B|-----------------------------------------------|-------------------------------------------------|


C#|------------------------------|--------|--------------------|---------------------------------|
G#|---------15-------------------|--------|--------------------|---------------------------------|
 E|-----15----------14-----------|--------|--------------------|---------------------------------|
 B|-11----------10-------10--12--|-12-----|--------------------|---------------------------------|
F#|------------------------------|--------|-2---1---0----------|-------------3---3---0---1---2---|
 B|------------------------------|--------|-2---1---0----------|-----3---4-----------0---1---2---|


C#|--------------------|---------------------------------|--------------------|---------------------------------|
G#|--------------------|---------------------------------|--------------------|---------------------------------|
 E|--------------------|---------------------------------|--------------------|---------------------------------|
 B|--------------------|---------------------------------|--------------------|---------------------------------|
F#|-2---1---0----------|-------------3---3---0---1---2---|-2---1---0----------|-------------3---3---0---1---2---|
 B|-2---1---0----------|-----3---4-----------0---1---2---|-2---1---0----------|-----3---4-----------0---1---2---|


C#|---------------------------|---------------------------------|---------------------------|
G#|---------------------------|---------------------------------|---------------------------|
 E|---------------------------|---------------------------------|---------------------------|
 B|---------------------------|---------------------------------|---------------------------|
F#|-2---1---0----2---1---0----|-------------3---3---0---1---2---|-2---1---0----2---1---0----|
 B|-2---1---0----2---1---0----|-----3---4-----------0---1---2---|-2---1---0----2---1---0----|


C#|------------------------------|---------------------------|------------------------------|
G#|------------------------------|---------------------------|------------------------------|
 E|------------------------------|---------------------------|------------------------------|
 B|------------------------------|---------------------------|------------------------------|
F#|-------------3---3---0---0----|-2---1---0----2---1---0----|-------------3---3---0---0----|
 B|-----3---4-----------0---0----|-2---1---0----2---1---0----|-----3---4-----------0---0----|


C#|---------------------------|------------------------------|---------------------------|
G#|---------------------------|------------------------------|---------------------------|
 E|---------------------------|------------------------------|---------------------------|
 B|---------------------------|------------------------------|---------------------------|
F#|-2---1---0----2---1---0----|-------------3---3---0---0----|-2---1---0----2---1---0----|
 B|-2---1---0----2---1---0----|-----3---4-----------0---0----|-2---1---0----2---1---0----|


C#|---------------------------------|---------------------------|---------------------------|
G#|---------------------------------|---------------------------|---------------------------|
 E|---------------------------------|---------------------------|---------------------------|
 B|---------------------------------|---------------------------|---------------------------|
F#|-------------3---3---0---0---0---|-2---1---0----2---1---0----|-2---1---0----2---1---0----|
 B|-----3---4-----------0---0---0---|-2---1---0----2---1---0----|-2---1---0----2---1---0----|


C#|---------------------------|---------------------------|---------------------------|
G#|---------------------------|---------------------------|---------------------------|
 E|---------------------------|---------------------------|---------------------------|
 B|---------------------------|---------------------------|---------------------------|
F#|-2---1---0----2---1---0----|-2---1---0----2---1---0----|-2---1---0----2---1---0----|
 B|-2---1---0----2---1---0----|-2---1---0----2---1---0----|-2---1---0----2---1---0----|


C#|---------------------------|---------------------------|---------------------------|
G#|---------------------------|---------------------------|---------------------------|
 E|---------------------------|---------------------------|---------------------------|
 B|---------------------------|---------------------------|---------------------------|
F#|-2---1---0----2---1---0----|-2---1---0----2---1---0----|-2---1---0----2---1---0----|
 B|-2---1---0----2---1---0----|-2---1---0----2---1---0----|-2---1---0----2---1---0----|


C#|---------------------------------|-------------------------------------|-------------------------------------|
G#|---------------------------------|-------------------------------------|-------------------------------------|
 E|---------------------------------|---------7---7-6---6-------5---5-4---|-4-----------------------------------|
 B|---------------------------------|---------7---7-6---6-------5---5-4---|-4-------2---2-1---1-------7---7-6---|
F#|-8---8---8---8---8---8---8---8---|-3---3---5---5-4---4---0---3---3-2---|-2---0---2---2-1---1---0---7---7-6---|
 B|-8---8---8---8---8---8---8---8---|-3---3-----------------0-------------|-----0---2---2-1---1---0---7---7-6---|


C#|-------------------------------------|-------------------------------------|-------------------------------------|
G#|-------------------------------------|-------------------------------------|-------------------------------------|
 E|---------7---7-6---6-------5---5-4---|-4-----------------------------------|---------7---7-6---6-------5---5-4---|
 B|---------7---7-6---6-------5---5-4---|-4-------2---2-1---1-------7---7-6---|---------7---7-6---6-------5---5-4---|
F#|-3---3---5---5-4---4---0---3---3-2---|-2---0---2---2-1---1---0---7---7-6---|-3---3---5---5-4---4---0---3---3-2---|
 B|-3---3-----------------0-------------|-----0---2---2-1---1---0---7---7-6---|-3---3-----------------0-------------|


C#|-------------------------------------|-------------------------------------|-------------------------------------|
G#|-------------------------------------|-------------------------------------|-------------------------------------|
 E|-4-----------------------------------|---------7---7-6---6-------5---5-4---|-4-----------------------------------|
 B|-4-------2---2-1---1-------7---7-6---|---------7---7-6---6-------5---5-4---|-4-------2---2-1---1-------7---7-6---|
F#|-2---0---2---2-1---1---0---7---7-6---|-3---3---5---5-4---4---0---3---3-2---|-2---0---2---2-1---1---0---7---7-6---|
 B|-----0---2---2-1---1---0---7---7-6---|-3---3-----------------0-------------|-----0---2---2-1---1---0---7---7-6---|


C#|-------------------------------------|-------------------------------------|-------------------------------------|
G#|-------------------------------------|-------------------------------------|-------------------------------------|
 E|---------7---7-6---6-------5---5-4---|-4-----------------------------------|---------7---7-6---6-------5---5-4---|
 B|---------7---7-6---6-------5---5-4---|-4-------2---2-1---1-------7---7-6---|---------7---7-6---6-------5---5-4---|
F#|-3---3---5---5-4---4---0---3---3-2---|-2---0---2---2-1---1---0---7---7-6---|-3---3---5---5-4---4---0---3---3-2---|
 B|-3---3-----------------0-------------|-----0---2---2-1---1---0---7---7-6---|-3---3-----------------0-------------|


C#|-------------------------------------|-------------------------------------|-------------------------------------|
G#|-------------------------------------|-------------------------------------|-------------------------------------|
 E|-4-----------------------------------|---------7---7-6---6-------5---5-4---|-4-----------------------------------|
 B|-4-------2---2-1---1-------7---7-6---|---------7---7-6---6-------5---5-4---|-4-------2---2-1---1-------7---7-6---|
F#|-2---0---2---2-1---1---0---7---7-6---|-3---3---5---5-4---4---0---3---3-2---|-2---0---2---2-1---1---0---7---7-6---|
 B|-----0---2---2-1---1---0---7---7-6---|-3---3-----------------0-------------|-----0---2---2-1---1---0---7---7-6---|


C#|-------------------------------------|-------------------------------------|-------------------------------------|
G#|-------------------------------------|-------------------------------------|-------------------------------------|
 E|---------7---7-6---6-------5---5-4---|-4-----------------------------------|---------------------------5---5-4---|
 B|---------7---7-6---6-------5---5-4---|-4-------2---2-1---1-------7---7-6---|---------4---4-3---3-------5---5-4---|
F#|-3---3---5---5-4---4---0---3---3-2---|-2---0---2---2-1---1---0---7---7-6---|-0---0---4---4-3---3---0---3---3-2---|
 B|-3---3-----------------0-------------|-----0---2---2-1---1---0---7---7-6---|-0---0---4---4-3---3---0-------------|


C#|-------------------------------------|-------------------------------------|-------------------------------------|
G#|-------------------------------------|-------------------------------------|-------------------------------------|
 E|-4-----------------------------------|---------------------------5---5-4---|-4-----------------------------------|
 B|-4-------2---2-1---1-------6---6-5---|---------4---4-3---3-------5---5-4---|-4-------2---2-1---1-------6---6-5---|
F#|-2---0---2---2-1---1---0---6---6-5---|-0---0---4---4-3---3---0---3---3-2---|-2---0---2---2-1---1---0---6---6-5---|
 B|-----0---2---2-1---1---0---6---6-5---|-0---0---4---4-3---3---0-------------|-----0---2---2-1---1---0---6---6-5---|


C#|-------------------------------------|-------------------------------------|-------------------------------------|
G#|-------------------------------------|-------------------------------------|-------------------------------------|
 E|---------------------------5---5-4---|-4-----------------------------------|---------------------------5---5-4---|
 B|---------4---4-3---3-------5---5-4---|-4-------2---2-1---1-------6---6-5---|---------4---4-3---3-------5---5-4---|
F#|-0---0---4---4-3---3---0---3---3-2---|-2---0---2---2-1---1---0---6---6-5---|-0---0---4---4-3---3---0---3---3-2---|
 B|-0---0---4---4-3---3---0-------------|-----0---2---2-1---1---0---6---6-5---|-0---0---4---4-3---3---0-------------|


C#|-------------------------------------|-------------------------------------|-------------------------------------|
G#|-------------------------------------|-------------------------------------|-------------------------------------|
 E|-4-----------------------------------|---------------------------5---5-4---|-4-----------------------------------|
 B|-4-------2---2-1---1-------6---6-5---|---------4---4-3---3-------5---5-4---|-4-------2---2-1---1-------6---6-5---|
F#|-2---0---2---2-1---1---0---6---6-5---|-0---0---4---4-3---3---0---3---3-2---|-2---0---2---2-1---1---0---6---6-5---|
 B|-----0---2---2-1---1---0---6---6-5---|-0---0---4---4-3---3---0-------------|-----0---2---2-1---1---0---6---6-5---|


C#|-------------------------------------|-------------------------------------|-------------------------------------|
G#|-------------------------------------|-------------------------------------|-------------------------------------|
 E|---------------------------5---5-4---|-4-----------------------------------|---------------------------5---5-4---|
 B|---------4---4-3---3-------5---5-4---|-4-------2---2-1---1-------6---6-5---|---------4---4-3---3-------5---5-4---|
F#|-0---0---4---4-3---3---0---3---3-2---|-2---0---2---2-1---1---0---6---6-5---|-0---0---4---4-3---3---0---3---3-2---|
 B|-0---0---4---4-3---3---0-------------|-----0---2---2-1---1---0---6---6-5---|-0---0---4---4-3---3---0-------------|


C#|-------------------------------------|-------------------------------------|-------------------------------------|
G#|-------------------------------------|-------------------------------------|-------------------------------------|
 E|-4-----------------------------------|---------------------------5---5-4---|-4-----------------------------------|
 B|-4-------2---2-1---1-------6---6-5---|---------4---4-3---3-------5---5-4---|-4-------2---2-1---1-------6---6-5---|
F#|-2---0---2---2-1---1---0---6---6-5---|-0---0---4---4-3---3---0---3---3-2---|-2---0---2---2-1---1---0---6---6-5---|
 B|-----0---2---2-1---1---0---6---6-5---|-0---0---4---4-3---3---0-------------|-----0---2---2-1---1---0---6---6-5---|


C#|----------------|---------------------------------|----------------|---------------------------------|
G#|----------------|---------------------------------|----------------|---------------------------------|
 E|----------------|---------------------------------|----------------|---------------------------------|
 B|---------0------|-0-------------------------------|---------0------|-0-------------------------------|
F#|-2---1---0------|-0-----------3---3---0---1---2---|-2---1---0------|-0-----------3---3---0---1---2---|
 B|-2---1---0------|-0---3---4-----------0---1---2---|-2---1---0------|-0---3---4-----------0---1---2---|


C#|----------------|---------------------------------|----------------|---------------------------------|
G#|----------------|---------------------------------|----------------|---------------------------------|
 E|----------------|---------------------------------|----------------|---------------------------------|
 B|---------0------|-0-------------------------------|---------0------|-0-------------------------------|
F#|-2---1---0------|-0-----------3---3---0---1---2---|-2---1---0------|-0-----------3---3---0---1---2---|
 B|-2---1---0------|-0---3---4-----------0---1---2---|-2---1---0------|-0---3---4-----------0---1---2---|


C#|---------------------------|
G#|---------------------------|
 E|---------------------------|
 B|----------------------0----|
F#|-2---1---0----2---1---0----|
 B|-2---1---0----2---1---0----|





Track 2: Distortion 2

C#|--------|--------|--------|--------|--------|--------|--------|--------|--------|
G#|--------|--------|--------|--------|--------|--------|--------|--------|--------|
 E|--------|--------|--------|--------|--------|--------|--------|--------|--------|
 B|--------|--------|--------|--------|--------|--------|--------|--------|--------|
F#|--------|--------|--------|--------|--------|--------|--------|--------|--------|
 B|--------|--------|--------|--------|--------|--------|--------|--------|--------|


C#|--------|--------|--------|--------|--------|--------|--------|--------|--------|
G#|--------|--------|--------|--------|--------|--------|--------|--------|--------|
 E|--------|--------|--------|--------|--------|--------|--------|--------|--------|
 B|--------|--------|--------|--------|--------|--------|--------|--------|--------|
F#|--------|--------|--------|--------|--------|--------|--------|--------|--------|
 B|--------|--------|--------|--------|--------|--------|--------|--------|--------|


C#|--------|--------|--------|--------|--------|--------|--------|--------|--------|
G#|--------|--------|--------|--------|--------|--------|--------|--------|--------|
 E|--------|--------|--------|--------|--------|--------|--------|--------|--------|
 B|--------|--------|--------|--------|--------|--------|--------|--------|--------|
F#|--------|--------|--------|--------|--------|--------|--------|--------|--------|
 B|--------|--------|--------|--------|--------|--------|--------|--------|--------|


C#|--------|--------|--------|--------|--------|--------|--------|--------|--------|
G#|--------|--------|--------|--------|--------|--------|--------|--------|--------|
 E|--------|--------|--------|--------|--------|--------|--------|--------|--------|
 B|--------|--------|--------|--------|--------|--------|--------|--------|--------|
F#|--------|--------|--------|--------|--------|--------|--------|--------|--------|
 B|--------|--------|--------|--------|--------|--------|--------|--------|--------|


C#|--------|--------|--------|--------|--------|--------|--------|--------|--------|
G#|--------|--------|--------|--------|--------|--------|--------|--------|--------|
 E|--------|--------|--------|--------|--------|--------|--------|--------|--------|
 B|--------|--------|--------|--------|--------|--------|--------|--------|--------|
F#|--------|--------|--------|--------|--------|--------|--------|--------|--------|
 B|--------|--------|--------|--------|--------|--------|--------|--------|--------|


C#|--------|--------|--------|--------|--------|--------|--------|--------|--------|
G#|--------|--------|--------|--------|--------|--------|--------|--------|--------|
 E|--------|--------|--------|--------|--------|--------|--------|--------|--------|
 B|--------|--------|--------|--------|--------|--------|--------|--------|--------|
F#|--------|--------|--------|--------|--------|--------|--------|--------|--------|
 B|--------|--------|--------|--------|--------|--------|--------|--------|--------|


C#|--------|--------|--------|--------|--------|--------|--------|--------|--------|
G#|--------|--------|--------|--------|--------|--------|--------|--------|--------|
 E|--------|--------|--------|--------|--------|--------|--------|--------|--------|
 B|--------|--------|--------|--------|--------|--------|--------|--------|--------|
F#|--------|--------|--------|--------|--------|--------|--------|--------|--------|
 B|--------|--------|--------|--------|--------|--------|--------|--------|--------|


C#|--------|--------|--------|--------|--------|--------|--------|--------|--------|
G#|--------|--------|--------|--------|--------|--------|--------|--------|--------|
 E|--------|--------|--------|--------|--------|--------|--------|--------|--------|
 B|--------|--------|--------|--------|--------|--------|--------|--------|--------|
F#|--------|--------|--------|--------|--------|--------|--------|--------|--------|
 B|--------|--------|--------|--------|--------|--------|--------|--------|--------|


C#|--------|--------|--------|--------|--------|--------|--------|--------|--------|
G#|--------|--------|--------|--------|--------|--------|--------|--------|--------|
 E|--------|--------|--------|--------|--------|--------|--------|--------|--------|
 B|--------|--------|--------|--------|--------|--------|--------|--------|--------|
F#|--------|--------|--------|--------|--------|--------|--------|--------|--------|
 B|--------|--------|--------|--------|--------|--------|--------|--------|--------|


C#|--------|--------|--------|--------|--------|--------|--------|--------|--------|
G#|--------|--------|--------|--------|--------|--------|--------|--------|--------|
 E|--------|--------|--------|--------|--------|--------|--------|--------|--------|
 B|--------|--------|--------|--------|--------|--------|--------|--------|--------|
F#|--------|--------|--------|--------|--------|--------|--------|--------|--------|
 B|--------|--------|--------|--------|--------|--------|--------|--------|--------|


C#|--------|--------|--------|--------|--------|--------|--------|--------|--------|
G#|--------|--------|--------|--------|--------|--------|--------|--------|--------|
 E|--------|--------|--------|--------|--------|--------|--------|--------|--------|
 B|--------|--------|--------|--------|--------|--------|--------|--------|--------|
F#|--------|--------|--------|--------|--------|--------|--------|--------|--------|
 B|--------|--------|--------|--------|--------|--------|--------|--------|--------|


C#|--------|--------|--------|--------------------|---------------------------------|
G#|--------|--------|--------|--------------------|---------------------------------|
 E|--------|--------|--------|--------------------|---------------------------------|
 B|--------|--------|--------|--------------------|---------------------------------|
F#|--------|--------|--------|-2---1---0----------|-------------3---3---0---1---2---|
 B|--------|--------|--------|-2---1---0----------|-----3---4-----------0---1---2---|


C#|--------------------|---------------------------------|--------------------|---------------------------------|
G#|--------------------|---------------------------------|--------------------|---------------------------------|
 E|--------------------|---------------------------------|--------------------|---------------------------------|
 B|--------------------|---------------------------------|--------------------|---------------------------------|
F#|-2---1---0----------|-------------3---3---0---1---2---|-2---1---0----------|-------------3---3---0---1---2---|
 B|-2---1---0----------|-----3---4-----------0---1---2---|-2---1---0----------|-----3---4-----------0---1---2---|


C#|--------------------|---------------------------------|------------------------|
G#|--------------------|---------------------------------|------------------------|
 E|--------------------|---------------------------------|-5----------------------|
 B|--------------------|-----------------------------4---|---------------5--------|
F#|-2---1---0----------|-------------3---3---0---1-------|------3----7-------5----|
 B|-2---1---0----------|-----3---4-----------0---1-------|------------------------|


C#|------------------------|---------------------------|---------------------------|
G#|------------------------|---------------------------|---------------------------|
 E|---------7--------------|---------------------------|---------------------------|
 B|-----7------------------|---------10---12--14--12---|---------------------------|
F#|-5------------7----9----|-10--12--------------------|---------------------------|
 B|------------------------|---------------------------|-10--10--12--10--7----7----|


C#|--------------------|---------------------------------|--------------------|---------------------------------|
G#|--------------------|---------------------------------|--------------------|---------------------------------|
 E|--------------------|---------------------------------|--------------------|---------------------------------|
 B|--------------------|---------------------------------|--------------------|---------------------------------|
F#|-2---1---0----------|-------------3---3---0---1---2---|-2---1---0----------|-------------3---3---0---1---2---|
 B|-2---1---0----------|-----3---4-----------0---1---2---|-2---1---0----------|-----3---4-----------0---1---2---|


C#|--------|--------|--------|--------|--------|--------|--------|--------|--------|
G#|--------|--------|--------|--------|--------|--------|--------|--------|--------|
 E|--------|--------|--------|--------|--------|--------|--------|--------|--------|
 B|--------|--------|--------|--------|--------|--------|--------|--------|--------|
F#|--------|--------|--------|--------|--------|--------|--------|--------|--------|
 B|--------|--------|--------|--------|--------|--------|--------|--------|--------|


C#|--------|--------|--------|--------|--------|--------|--------|--------|--------|
G#|--------|--------|--------|--------|--------|--------|--------|--------|--------|
 E|--------|--------|--------|--------|--------|--------|--------|--------|--------|
 B|--------|--------|--------|--------|--------|--------|--------|--------|--------|
F#|--------|--------|--------|--------|--------|--------|--------|--------|--------|
 B|--------|--------|--------|--------|--------|--------|--------|--------|--------|


C#|--------|--------|--------|--------|--------|--------|--------|--------|--------|
G#|--------|--------|--------|--------|--------|--------|--------|--------|--------|
 E|--------|--------|--------|--------|--------|--------|--------|--------|--------|
 B|--------|--------|--------|--------|--------|--------|--------|--------|--------|
F#|--------|--------|--------|--------|--------|--------|--------|--------|--------|
 B|--------|--------|--------|--------|--------|--------|--------|--------|--------|


C#|--------|--------|--------|--------|--------|--------|--------|--------|--------|
G#|--------|--------|--------|--------|--------|--------|--------|--------|--------|
 E|--------|--------|--------|--------|--------|--------|--------|--------|--------|
 B|--------|--------|--------|--------|--------|--------|--------|--------|--------|
F#|--------|--------|--------|--------|--------|--------|--------|--------|--------|
 B|--------|--------|--------|--------|--------|--------|--------|--------|--------|


C#|--------|--------|--------|--------|--------|--------|--------|--------|--------|
G#|--------|--------|--------|--------|--------|--------|--------|--------|--------|
 E|--------|--------|--------|--------|--------|--------|--------|--------|--------|
 B|--------|--------|--------|--------|--------|--------|--------|--------|--------|
F#|--------|--------|--------|--------|--------|--------|--------|--------|--------|
 B|--------|--------|--------|--------|--------|--------|--------|--------|--------|


C#|--------|--------|--------|--------|--------|--------|--------|--------|--------|
G#|--------|--------|--------|--------|--------|--------|--------|--------|--------|
 E|--------|--------|--------|--------|--------|--------|--------|--------|--------|
 B|--------|--------|--------|--------|--------|--------|--------|--------|--------|
F#|--------|--------|--------|--------|--------|--------|--------|--------|--------|
 B|--------|--------|--------|--------|--------|--------|--------|--------|--------|


C#|--------|--------|--------|--------|--------|--------|--------|--------|--------|
G#|--------|--------|--------|--------|--------|--------|--------|--------|--------|
 E|--------|--------|--------|--------|--------|--------|--------|--------|--------|
 B|--------|--------|--------|--------|--------|--------|--------|--------|--------|
F#|--------|--------|--------|--------|--------|--------|--------|--------|--------|
 B|--------|--------|--------|--------|--------|--------|--------|--------|--------|


C#|--------|--------|--------|
G#|--------|--------|--------|
 E|--------|--------|--------|
 B|--------|--------|--------|
F#|--------|--------|--------|
 B|--------|--------|--------|





Track 3: Untitled

G|--------|--------|--------|--------|--------|--------|--------|--------|--------|
D|--------|--------|--------|--------|--------|--------|--------|--------|--------|
A|--------|--------|--------|--------|--------|--------|--------|--------|--------|
E|--------|--------|--------|--------|--------|--------|--------|--------|--------|


G|--------|--------|--------|--------|--------|--------|--------|--------|--------|
D|--------|--------|--------|--------|--------|--------|--------|--------|--------|
A|--------|--------|--------|--------|--------|--------|--------|--------|--------|
E|--------|--------|--------|--------|--------|--------|--------|--------|--------|


G|--------|--------|--------|--------|--------|--------|--------|--------|--------|
D|--------|--------|--------|--------|--------|--------|--------|--------|--------|
A|--------|--------|--------|--------|--------|--------|--------|--------|--------|
E|--------|--------|--------|--------|--------|--------|--------|--------|--------|


G|--------|--------|--------|--------|--------|--------|--------|--------|--------|
D|--------|--------|--------|--------|--------|--------|--------|--------|--------|
A|--------|--------|--------|--------|--------|--------|--------|--------|--------|
E|--------|--------|--------|--------|--------|--------|--------|--------|--------|


G|--------|--------|--------|--------|--------|--------|--------|--------|--------|
D|--------|--------|--------|--------|--------|--------|--------|--------|--------|
A|--------|--------|--------|--------|--------|--------|--------|--------|--------|
E|--------|--------|--------|--------|--------|--------|--------|--------|--------|


G|--------|--------|--------|--------|--------|--------|--------|--------|--------|
D|--------|--------|--------|--------|--------|--------|--------|--------|--------|
A|--------|--------|--------|--------|--------|--------|--------|--------|--------|
E|--------|--------|--------|--------|--------|--------|--------|--------|--------|


G|--------|--------|--------|--------|--------|--------|--------|--------|--------|
D|--------|--------|--------|--------|--------|--------|--------|--------|--------|
A|--------|--------|--------|--------|--------|--------|--------|--------|--------|
E|--------|--------|--------|--------|--------|--------|--------|--------|--------|


G|--------|--------|--------|--------|--------|--------|--------|--------|--------|
D|--------|--------|--------|--------|--------|--------|--------|--------|--------|
A|--------|--------|--------|--------|--------|--------|--------|--------|--------|
E|--------|--------|--------|--------|--------|--------|--------|--------|--------|


G|--------|--------|--------|--------|--------|--------|--------|--------|--------|
D|--------|--------|--------|--------|--------|--------|--------|--------|--------|
A|--------|--------|--------|--------|--------|--------|--------|--------|--------|
E|--------|--------|--------|--------|--------|--------|--------|--------|--------|


G|--------|--------|--------|--------|--------|--------|--------|--------|--------|
D|--------|--------|--------|--------|--------|--------|--------|--------|--------|
A|--------|--------|--------|--------|--------|--------|--------|--------|--------|
E|--------|--------|--------|--------|--------|--------|--------|--------|--------|


G|--------|--------|--------|--------|--------|--------|--------|--------|--------|
D|--------|--------|--------|--------|--------|--------|--------|--------|--------|
A|--------|--------|--------|--------|--------|--------|--------|--------|--------|
E|--------|--------|--------|--------|--------|--------|--------|--------|--------|


G|--------|--------|--------|--------|--------|--------|--------|--------|--------|
D|--------|--------|--------|--------|--------|--------|--------|--------|--------|
A|--------|--------|--------|--------|--------|--------|--------|--------|--------|
E|--------|--------|--------|--------|--------|--------|--------|--------|--------|


G|--------|--------|--------|--------|--------|--------|--------|--------|--------|
D|--------|--------|--------|--------|--------|--------|--------|--------|--------|
A|--------|--------|--------|--------|--------|--------|--------|--------|--------|
E|--------|--------|--------|--------|--------|--------|--------|--------|--------|


G|--------|--------|--------|--------|--------|--------|--------|--------|--------|
D|--------|--------|--------|--------|--------|--------|--------|--------|--------|
A|--------|--------|--------|--------|--------|--------|--------|--------|--------|
E|--------|--------|--------|--------|--------|--------|--------|--------|--------|


G|--------|--------|--------|--------|--------|--------|--------|--------|--------|
D|--------|--------|--------|--------|--------|--------|--------|--------|--------|
A|--------|--------|--------|--------|--------|--------|--------|--------|--------|
E|--------|--------|--------|--------|--------|--------|--------|--------|--------|


G|--------|--------|--------|--------|--------|--------|--------|--------|--------|
D|--------|--------|--------|--------|--------|--------|--------|--------|--------|
A|--------|--------|--------|--------|--------|--------|--------|--------|--------|
E|--------|--------|--------|--------|--------|--------|--------|--------|--------|


G|--------|--------|--------|--------|--------|--------|--------|--------|--------|
D|--------|--------|--------|--------|--------|--------|--------|--------|--------|
A|--------|--------|--------|--------|--------|--------|--------|--------|--------|
E|--------|--------|--------|--------|--------|--------|--------|--------|--------|


G|--------|--------|--------|--------|--------|--------|--------|--------|--------|
D|--------|--------|--------|--------|--------|--------|--------|--------|--------|
A|--------|--------|--------|--------|--------|--------|--------|--------|--------|
E|--------|--------|--------|--------|--------|--------|--------|--------|--------|


G|--------|--------|--------|--------|--------|--------|--------|--------|--------|
D|--------|--------|--------|--------|--------|--------|--------|--------|--------|
A|--------|--------|--------|--------|--------|--------|--------|--------|--------|
E|--------|--------|--------|--------|--------|--------|--------|--------|--------|


G|--------|--------|--------|--------|--------|--------|--------|--------|--------|
D|--------|--------|--------|--------|--------|--------|--------|--------|--------|
A|--------|--------|--------|--------|--------|--------|--------|--------|--------|
E|--------|--------|--------|--------|--------|--------|--------|--------|--------|


G|--------|--------|--------|--------|
D|--------|--------|--------|--------|
A|--------|--------|--------|--------|
E|--------|--------|--------|--------|