Menu:

 

Search:

 

slipknot - wait and bleed:

 



Title: Wait and Bleed
Artist: 
Album: Slipknot
Author: Shawn M. Crahan, Paul Gray, Nathan Jordison, and Corey Taylor


Track 1: Gtr. 1 (Mick w/heavy dist.)

C#|---------------------------------|---------------------------------|---------------------------------|
G#|---------------------------------|---------------------------------|---------------------------------|
 E|---------------------------------|---------------------------------|---------------------------------|
 B|-------------7-------7-------1---|-----1-------8-------8-----------|-------------7-------7-------1---|
F#|-----5---------------------------|-----------------------------5---|-----5-----------7---------------|
 B|-0-------0-------7-------7-------|-1-------1-------8-------8-------|-0-------0---------------7-------|


C#|---------------------------------|---------------------------------|---------------------------------|
G#|---------------------------------|---------------------------------|---------------------------------|
 E|---------------------------------|---------------------------------|---------------------------------|
 B|-----1---------------8-----------|-------------7-------7-------1---|-----1-------8-------8-----------|
F#|-------------8-----------8---5---|-----5---------------------------|-----------------------------5---|
 B|-1-------1-------8-------8-------|-0-------0-------7-------7-------|-1-------1-------8-------8-------|


C#|---------------------------------|---------------------------------|---------------------------------|
G#|---------------------------------|---------------------------------|---------------------------------|
 E|---------------------------------|---------------------------------|---------------------------------|
 B|-------------7-------7-------1---|-----1---------------8-----------|-------------7-------7-------1---|
F#|-----5-----------7---------------|-------------8-----------8---5---|-----5---------------------------|
 B|-0-------0---------------7-------|-1-------1-------8-------8-------|-0-------0-------7-------7-------|


C#|---------------------------------|---------------------------------|---------------------------------|
G#|---------------------------------|---------------------------------|---------------------------------|
 E|---------------------------------|---------------------------------|---------------------------------|
 B|-----1-------8-------8-----------|-------------7-------7-------1---|-----1---------------8-----------|
F#|-----------------------------5---|-----5-----------7---------------|-------------8-----------8---5---|
 B|-1-------1-------8-------8-------|-0-------0---------------7-------|-1-------1-------8-------8-------|


C#|---------------------------------|---------------------------------|---------------------------------|
G#|---------------------------------|---------------------------------|---------------------------------|
 E|---------------------------------|---------------------------------|---------------------------------|
 B|-------------7-------7-------1---|-----1-------8-------8-----------|-------------7-------7-------1---|
F#|-----5---------------------------|-----------------------------5---|-----5-----------7---------------|
 B|-0-------0-------7-------7-------|-1-------1-------8-------8-------|-0-------0---------------7-------|


C#|---------------------------------|-------------------------------------|-------------------------------------|
G#|---------------------------------|-------------------------------------|-------------------------------------|
 E|---------------------------------|-------------------------------------|-------------------------------------|
 B|-----1---------------8-------8---|-------------------------------------|-------------------------------------|
F#|-------------8-----------8-------|-0--1--0-------0--1--0-----------5---|-0--1--0-------0--1--0-----------5---|
 B|-1-------1-------8-------8-------|-0--1--0-------0--1--0---0---6-------|-0--1--0-------0--1--0---0---6-------|


C#|-------------------------------------|----------------------------------|-------------------------------------|
G#|-------------------------------------|----------------------------------|-------------------------------------|
 E|-------------------------------------|----------------------------------|-------------------------------------|
 B|-------------------------------------|----------------------------------|-------------------------------------|
F#|-0--1--0-------0--1--0-----------5---|-0--1--0-------0--1--0------------|-0--1--0-------0--1--0---1---4---1---|
 B|-0--1--0-------0--1--0---0---6-------|-0--1--0-------0--1--0------------|-0--1--0-------0--1--0---1---4---1---|


C#|-------------------------------------|-------------------------------------|-------------------------------------|
G#|-------------------------------------|-------------------------------------|-------------------------------------|
 E|-------------------------------------|-------------------------------------|-------------------------------------|
 B|-------------------------------------|-------------------------------------|-------------------------------------|
F#|-0--1--0-------0--1--0---1---4---1---|-0--1--0-------0--1--0---1---4---1---|-0--1--0-------0--1--0---1---4---1---|
 B|-0--1--0-------0--1--0---1---4---1---|-0--1--0-------0--1--0---1---4---1---|-0--1--0-------0--1--0---1---4---1---|


C#|-------------------------------------|-------------------------------------|-------------------------------------|
G#|-------------------------------------|-------------------------------------|-------------------------------------|
 E|-------------------------------------|-------------------------------------|-------------------------------------|
 B|-------------------------------------|-------------------------------------|-------------------------------------|
F#|-0--1--0-------0--1--0---1---4---1---|-0--1--0-------0--1--0---1---4---1---|-0--1--0-------0--1--0---1---4---1---|
 B|-0--1--0-------0--1--0---1---4---1---|-0--1--0-------0--1--0---1---4---1---|-0--1--0-------0--1--0---1---4---1---|


C#|-------------------------------------|-------------------------------------|-------------------------------------|
G#|-------------------------------------|-------------------------------------|-------------------------------------|
 E|-------------------------------------|-------------------------------------|-------------------------------------|
 B|-------------------------------------|-------------------------------------|-------------------------------------|
F#|-0--1--0-------0--1--0---1---4---1---|-0--1--0-------0--1--0---1---4---1---|-0--1--0-------0--1--0---1---4---1---|
 B|-0--1--0-------0--1--0---1---4---1---|-0--1--0-------0--1--0---1---4---1---|-0--1--0-------0--1--0---1---4---1---|


C#|-------------------------------------|-------------------------------------|-------------------------------------|
G#|-------------------------------------|-------------------------------------|-------------------------------------|
 E|-------------------------------------|-------------------------------------|-------------------------------------|
 B|-------------------------------------|-------------------------------------|-------------------------------------|
F#|-0--1--0-------0--1--0---1---4---1---|-0--1--0-------0--1--0---1---4---1---|-0--1--0-------0--1--0---1---4---1---|
 B|-0--1--0-------0--1--0---1---4---1---|-0--1--0-------0--1--0---1---4---1---|-0--1--0-------0--1--0---1---4---1---|


C#|-------------------------------------|-------------------------------------|-------------------------------------|
G#|-------------------------------------|-------------------------------------|-------------------------------------|
 E|-------------------------------------|-------------------------------------|-------------------------------------|
 B|-------------------------------------|-------------------------------------|-------------------------------------|
F#|-0--1--0-------0--1--0---1---4---1---|-0--1--0-------0--1--0---1---4---1---|-0--1--0-------0--1--0---1---4---1---|
 B|-0--1--0-------0--1--0---1---4---1---|-0--1--0-------0--1--0---1---4---1---|-0--1--0-------0--1--0---1---4---1---|


C#|---------------------------------|---------------------------------|---------------------------------|
G#|---------------------------------|---------------------------------|---------------------------------|
 E|---------------------------------|---------------------------------|---------------------------------|
 B|-------------7-------7-------1---|-----1-------8-------8-----------|-------------7-------7-------1---|
F#|-----5---------------------------|-----------------------------5---|-----5-----------7---------------|
 B|-0-------0-------7-------7-------|-1-------1-------8-------8-------|-0-------0---------------7-------|


C#|---------------------------------|---------------------------------|---------------------------------|
G#|---------------------------------|---------------------------------|---------------------------------|
 E|---------------------------------|---------------------------------|---------------------------------|
 B|-----1---------------8-----------|-------------7-------7-------1---|-----1-------8-------8-----------|
F#|-------------8-----------8---5---|-----5---------------------------|-----------------------------5---|
 B|-1-------1-------8-------8-------|-0-------0-------7-------7-------|-1-------1-------8-------8-------|


C#|---------------------------------|---------------------------------|-------------------------------------|
G#|---------------------------------|---------------------------------|-------------------------------------|
 E|---------------------------------|---------------------------------|-------------------------------------|
 B|-------------7-------7-------1---|-----1---------------8-------8---|-------------------------------------|
F#|-----5-----------7---------------|-------------8-----------8-------|-0--1--0-------0--1--0---1---4---1---|
 B|-0-------0---------------7-------|-1-------1-------8-------8-------|-0--1--0-------0--1--0---1---4---1---|


C#|-------------------------------------|----------------------|-------------------------------------|
G#|-------------------------------------|----------------------|-------------------------------------|
 E|-------------------------------------|----------------------|-------------------------------------|
 B|-------------------------------------|----------------------|-------------------------------------|
F#|-0--1--0-------0--1--0---1---4---1---|-0--1--0--------------|-0--1--0-------0--1--0---1---4---1---|
 B|-0--1--0-------0--1--0---1---4---1---|-0--1--0--------------|-0--1--0-------0--1--0---1---4---1---|


C#|-------------------------------------|-------------------------------------|-------------------------------------|
G#|-------------------------------------|-------------------------------------|-------------------------------------|
 E|-------------------------------------|-------------------------------------|-------------------------------------|
 B|-------------------------------------|-------------------------------------|-------------------------------------|
F#|-0--1--0-------0--1--0---1---4---1---|-0--1--0-------0--1--0---1---4---1---|-0--1--0-------0--1--0---1---4---1---|
 B|-0--1--0-------0--1--0---1---4---1---|-0--1--0-------0--1--0---1---4---1---|-0--1--0-------0--1--0---1---4---1---|


C#|-------------------------------------|-------------------------------------|-------------------------------------|
G#|-------------------------------------|-------------------------------------|-------------------------------------|
 E|-------------------------------------|-------------------------------------|-------------------------------------|
 B|-------------------------------------|-------------------------------------|-------------------------------------|
F#|-0--1--0-------0--1--0---1---4---1---|-0--1--0-------0--1--0---1---4---1---|-0--1--0-------0--1--0---1---4---1---|
 B|-0--1--0-------0--1--0---1---4---1---|-0--1--0-------0--1--0---1---4---1---|-0--1--0-------0--1--0---1---4---1---|


C#|-------------------------------------|---------------------------------|---------------------------------|
G#|-------------------------------------|---------------------------------|---------------------------------|
 E|-------------------------------------|---------------------------------|---------------------------------|
 B|-------------------------------------|-------------7-------7-------1---|-----1-------8-------8-----------|
F#|-0--1--0-------0--1--0---1---4---1---|-----5---------------------------|-----------------------------5---|
 B|-0--1--0-------0--1--0---1---4---1---|-0-------0-------7-------7-------|-1-------1-------8-------8-------|


C#|---------------------------------|---------------------------------|---------------------------------|
G#|---------------------------------|---------------------------------|---------------------------------|
 E|---------------------------------|---------------------------------|---------------------------------|
 B|-------------7-------7-------1---|-----1---------------8-----------|-------------7-------7-------1---|
F#|-----5-----------7---------------|-------------8-----------8---5---|-----5---------------------------|
 B|-0-------0---------------7-------|-1-------1-------8-------8-------|-0-------0-------7-------7-------|


C#|---------------------------------|---------------------------------|---------------------------------|
G#|---------------------------------|---------------------------------|---------------------------------|
 E|---------------------------------|---------------------------------|---------------------------------|
 B|-----1-------8-------8-----------|-------------7-------7-------1---|-----1---------------8-------8---|
F#|-----------------------------5---|-----5-----------7---------------|-------------8-----------8-------|
 B|-1-------1-------8-------8-------|-0-------0---------------7-------|-1-------1-------8-------8-------|


C#|---------------------------------|---------------------------------|---------------------------------|
G#|---------------------------------|---------------------------------|---------------------------------|
 E|---------------------------------|---------------------------------|---------------------------------|
 B|-------------7-------7-------1---|-----1-------8-------8-----------|-------------7-------7-------1---|
F#|-----5---------------------------|-----------------------------5---|-----5-----------7---------------|
 B|-0-------0-------7-------7-------|-1-------1-------8-------8-------|-0-------0---------------7-------|


C#|---------------------------------|---------------------------------|---------------------------------|
G#|---------------------------------|---------------------------------|---------------------------------|
 E|---------------------------------|---------------------------------|---------------------------------|
 B|-----1---------------8-----------|-------------7-------7-------1---|-----1-------8-------8-----------|
F#|-------------8-----------8---5---|-----5---------------------------|-----------------------------5---|
 B|-1-------1-------8-------8-------|-0-------0-------7-------7-------|-1-------1-------8-------8-------|


C#|---------------------------------|-----------------------------------|-----------------------------------|
G#|---------------------------------|-----------------------------------|-----------------------------------|
 E|---------------------------------|-----------------------------------|-----------------------------------|
 B|-------------7-------7-------1---|-1---------------8---8---8---------|-----------------------------------|
F#|-----5-----------7---------------|-------------8---8---8---8---------|-----12----------------------------|
 B|-0-------0---------------7-------|-----1---1---8---8---8---8---0--13-|-15------0---0---12--12--0---0--13-|


C#|-----------------------------------|-----------------------------------|-----------------------------------|
G#|-----------------------------------|-----------------------------------|-----------------------------------|
 E|-----------------------------------|-----------------------------------|-----------------------------------|
 B|-----------------------------------|-----------------------------------|-----------------------------------|
F#|-----12----------------------------|-----12----------------------------|-----12----------------------0--1--|
 B|-15------0---0---12--12--0---0--13-|-15------0---0---12--12--0---0--13-|-15------0---0---12--12--0---0--1--|


C#|-------------------------------------|-------------------------------------|-------------------------------------|
G#|-------------------------------------|-------------------------------------|-------------------------------------|
 E|-------------------------------------|-------------------------------------|-------------------------------------|
 B|-----2-------------------------------|-----2-------------------------------|-----2-------------------------------|
F#|-3---0-----------0--1--0-------0--1--|-3---0-----------0--1--0-------0--1--|-3---0-----------0--1--0-------0--1--|
 B|-3-------0---0---0--1--0---0---0--1--|-3-------0---0---0--1--0---0---0--1--|-3-------0---0---0--1--0---0---0--1--|


C#|-------------------------------------|-------------------------------------|-------------------------------------|
G#|-------------------------------------|-------------------------------------|-------------------------------------|
 E|-------------------------------------|-------------------------------------|-------------------------------------|
 B|-----2-------------------------------|-----2-------------------------------|-----2-------------------------------|
F#|-3---0-----------0--1--0-------0--1--|-3---0-----------0--1--0-------0--1--|-3---0-----------0--1--0-------0--1--|
 B|-3-------0---0---0--1--0---0---0--1--|-3-------0---0---0--1--0---0---0--1--|-3-------0---0---0--1--0---0---0--1--|


C#|-------------------------------------|-------------------------------------|-------------------------------------|
G#|-------------------------------------|-------------------------------------|-------------------------------------|
 E|-------------------------------------|-------------------------------------|-------------------------------------|
 B|-----2-------------------------------|-----2-------------------------------|-----2-------------------------------|
F#|-3---0-----------0--1--0-------0--1--|-3---0-----------0--1--0-------0--1--|-3---0-----------0--1--0-------0--1--|
 B|-3-------0---0---0--1--0---0---0--1--|-3-------0---0---0--1--0---0---0--1--|-3-------0---0---0--1--0---0---0--1--|


C#|-------------------------------------|-------------------------------------|-----------------------------------|
G#|-------------------------------------|-------------------------------------|-----------------------------------|
 E|-------------------------------------|-------------------------------------|-----------------------------------|
 B|-----2-------------------------------|-----2-------------------------------|-----2-----------------------------|
F#|-3---0-----------0--1--0-------0--1--|-3---0-----------0--1--0-------0--1--|-3---0-----------0--1--0---3---0---|
 B|-3-------0---0---0--1--0---0---0--1--|-3-------0---0---0--1--0---0---0--1--|-3-------0---0---0--1--0---3-------|


C#|---------------------------------|---------------------------------|---------------------------------|
G#|---------------------------------|---------------------------------|---------------------------------|
 E|---------------------------------|---------------------------------|---------------------------------|
 B|---------------------------------|---------------------------------|---------------------------------|
F#|-0---0---0---7---7---7---7---1---|-1---1---1---1---1---1---1---1---|-0---0---0---7---7---7---7---1---|
 B|-0---0---0---7---7---7---7---1---|-1---1---1---1---1---1---1---1---|-0---0---0---7---7---7---7---1---|


C#|---------------------------------|---------------------------------|---------------------------------|
G#|---------------------------------|---------------------------------|---------------------------------|
 E|---------------------------------|---------------------------------|---------------------------------|
 B|---------------------------------|---------------------------------|---------------------------------|
F#|-1---1---1---1---1---1---1---1---|-0---0---0---7---7---7---7---1---|-1---1---1---1---1---1---1---1---|
 B|-1---1---1---1---1---1---1---1---|-0---0---0---7---7---7---7---1---|-1---1---1---1---1---1---1---1---|


C#|---------------------------------|---------------------------------|---------------------------------|
G#|---------------------------------|---------------------------------|---------------------------------|
 E|---------------------------------|---------------------------------|---------------------------------|
 B|---------------------------------|---------------------------------|---------------------------------|
F#|-0---0---0---7---7---7---7---1---|-1---1---1---1---1---1---1---1---|-0---0---0---7---7---7---7---1---|
 B|-0---0---0---7---7---7---7---1---|-1---1---1---1---1---1---1---1---|-0---0---0---7---7---7---7---1---|


C#|---------------------------------|---------------------------------|---------------------------------|
G#|---------------------------------|---------------------------------|---------------------------------|
 E|---------------------------------|---------------------------------|---------------------------------|
 B|---------------------------------|---------------------------------|---------------------------------|
F#|-1---1---1---1---1---1---1---1---|-0---0---0---7---7---7---7---1---|-1---1---1---1---1---1---1---1---|
 B|-1---1---1---1---1---1---1---1---|-0---0---0---7---7---7---7---1---|-1---1---1---1---1---1---1---1---|


C#|---------------------------------|---------------------------------|---------------------------------|
G#|---------------------------------|---------------------------------|---------------------------------|
 E|---------------------------------|---------------------------------|---------------------------------|
 B|---------------------------------|---------------------------------|---------------------------------|
F#|-0---0---0---7---7---7---7---1---|-1---1---1---1---1---1---1---1---|-0---0---0---7---7---7---7---1---|
 B|-0---0---0---7---7---7---7---1---|-1---1---1---1---1---1---1---1---|-0---0---0---7---7---7---7---1---|


C#|---------------------------------|-------------------------------------|-------------------------------|
G#|---------------------------------|-------------------------------------|-------------------------------|
 E|---------------------------------|-------------------------------------|-------------------------------|
 B|---------------------------------|-------------------------------------|-------------------------------|
F#|-1---1---1---1---1---1---1---1---|-0--1--0-------0--1--0-----------5---|-0--1--0-------0--1--0---------|
 B|-1---1---1---1---1---1---1---1---|-0--1--0-------0--1--0---0---6-------|-0--1--0-------0--1--0---------|


C#|-------------------------------------|-------------------------------------|-------------------------------------|
G#|-------------------------------------|-------------------------------------|-------------------------------------|
 E|-------------------------------------|-------------------------------------|-------------------------------------|
 B|-------------------------------------|-------------------------------------|-------------------------------------|
F#|-0--1--0-------0--1--0---1---4---1---|-0--1--0-------0--1--0---1---4---1---|-0--1--0-------0--1--0---1---4---1---|
 B|-0--1--0-------0--1--0---1---4---1---|-0--1--0-------0--1--0---1---4---1---|-0--1--0-------0--1--0---1---4---1---|


C#|----------------------------------|----------------------------------|----------------------------------|
G#|----------------------------------|----------------------------------|----------------------------------|
 E|----------------------------------|----------------------------------|----------------------------------|
 B|----------------------------------|----------------------------------|----------------------------------|
F#|-0--1--0----0--1--0---1---4---1---|-0--1--0----0--1--0---1---4---1---|-0--1--0----0--1--0---1---4---1---|
 B|-0--1--0----0--1--0---1---4---1---|-0--1--0----0--1--0---1---4---1---|-0--1--0----0--1--0---1---4---1---|


C#|----------------------------------|----------------------|
G#|----------------------------------|----------------------|
 E|----------------------------------|----------------------|
 B|----------------------------------|----------------------|
F#|-0--1--0----0--1--0---1---4---1---|-0--1--0--------------|
 B|-0--1--0----0--1--0---1---4---1---|-0--1--0--------------|





Track 2: Gtr. 2 (Jim w/heavy dist.)

C#|--------|--------|--------|--------|--------|--------|--------|--------|-----------------------------------|
G#|--------|--------|--------|--------|--------|--------|--------|--------|-----------------------------------|
 E|--------|--------|--------|--------|--------|--------|--------|--------|-14--14-14-14--14--14--14--14--14--|
 B|--------|--------|--------|--------|--------|--------|--------|--------|-12--12-12-12--12--12--12--12--12--|
F#|--------|--------|--------|--------|--------|--------|--------|--------|-12--12-12-12--12--12--12--12--12--|
 B|--------|--------|--------|--------|--------|--------|--------|--------|-----------------------------------|


C#|---------------------------------|-----------------------------------|-------------------------------------|
G#|---------------------------------|-----------------------------------|-------------------------------------|
 E|-14--14--14--14--14--14--14--14--|-14--14-14-14--14--14--14--14--14--|-14--14-14-14--14-14-14--14--14--14--|
 B|-12--12--12--12--12--12--12--12--|-12--12-12-12--12--12--12--12--12--|-12--12-12-12--12-12-12--12--12--12--|
F#|-12--12--12--12--12--12--12--12--|-12--12-12-12--12--12--12--12--12--|-12--12-12-12--12-12-12--12--12--12--|
 B|---------------------------------|-----------------------------------|-------------------------------------|


C#|-----------------------------------|-----------------------------------|-----------------------------------|
G#|-----------------------------------|-----------------------------------|-----------------------------------|
 E|-14--14-14-14--14--14--14--14--14--|-14--14-14-14--14--14--14--14--14--|-14--14-14-14--14--14--14--14--14--|
 B|-12--12-12-12--12--12--12--12--12--|-12--12-12-12--12--12--12--12--12--|-12--12-12-12--12--12--12--12--12--|
F#|-12--12-12-12--12--12--12--12--12--|-12--12-12-12--12--12--12--12--12--|-12--12-12-12--12--12--12--12--12--|
 B|-----------------------------------|-----------------------------------|-----------------------------------|


C#|----------------------------------|-------------------------------------|-------------------------------------|
G#|----------------------------------|-------------------------------------|-------------------------------------|
 E|-14--14--14--14-14-14--14---------|-------------------------------------|-------------------------------------|
 B|-12--12--12--12-12-12--12---------|-------------------------------------|-------------------------------------|
F#|-12--12--12--12-12-12--12---1--1--|-0--1--0-------0--1--0-----------5---|-0--1--0-------0--1--0-----------5---|
 B|----------------------------1--1--|-0--1--0-------0--1--0---0---6-------|-0--1--0-------0--1--0---0---6-------|


C#|--------|--------|--------|--------|--------|--------|--------|--------|--------|
G#|--------|--------|--------|--------|--------|--------|--------|--------|--------|
 E|--------|--------|--------|--------|--------|--------|--------|--------|--------|
 B|--------|--------|--------|--------|--------|--------|--------|--------|--------|
F#|--------|--------|--------|--------|--------|--------|--------|--------|--------|
 B|--------|--------|--------|--------|--------|--------|--------|--------|--------|


C#|--------|--------|--------|--------|--------|--------|--------|--------|--------|
G#|--------|--------|--------|--------|--------|--------|--------|--------|--------|
 E|--------|--------|--------|--------|--------|--------|--------|--------|--------|
 B|--------|--------|--------|--------|--------|--------|--------|--------|--------|
F#|--------|--------|--------|--------|--------|--------|--------|--------|--------|
 B|--------|--------|--------|--------|--------|--------|--------|--------|--------|


C#|---------------------------------|---------------------------------|-----------------------------------|
G#|---------------------------------|---------------------------------|-----------------------------------|
 E|---------14--14--14--14--14--14--|-14--14--14--14--14--14--14--14--|-14--14-14-14--14--14--14--14--14--|
 B|-0---0---12--12------12--12--12--|-12--12--12--12--12--12--12--12--|-12--12-12-12--12--12--12--12--12--|
F#|-0---0---12--12--12--12--12--12--|-12--12--12--12--12--12--12--12--|-12--12-12-12--12--12--12--12--12--|
 B|-0---0---------------------------|---------------------------------|-----------------------------------|


C#|---------------------------------------|---------------------------------|-----------------------------------|
G#|---------------------------------------|---------------------------------|-----------------------------------|
 E|-14--14-14-14-14-14-14-14--14--14--14--|-14--14--14--14--14--14--14--14--|-14--14-14-14--14--14--14--14--14--|
 B|-12--12-12-12-12-12-12-12--12------12--|-12--12--12--12--12--12--12--12--|-12--12-12-12--12------12--12--12--|
F#|-12--12-12-12-12-12-12-12--12--12--12--|-12--12--12--12--12--12--12--12--|-12--12-12-12--12--12--12--12--12--|
 B|---------------------------------------|---------------------------------|-----------------------------------|


C#|-------------------------------------|--------------------------------------|-------------------------------------|
G#|-------------------------------------|--------------------------------------|-------------------------------------|
 E|-14--14--14--14--14--14--14-14-14-14-|-14--14--14-14-14-14-14-14-14-14------|-------------------------------------|
 B|-12--12--12--12--12--12--12-12-12-12-|-12--12--12-12-12-12-12-12-12-12-12---|-------------------------------------|
F#|-12--12--12--12--12--12--12-12-12-12-|-12--12--12-12-12-12-12-12-12-12-12---|-0--1--0-------0--1--0---1---4---1---|
 B|-------------------------------------|---------------------------------12---|-0--1--0-------0--1--0---1---4---1---|


C#|-------------------------------------|----------------------|--------|--------|
G#|-------------------------------------|----------------------|--------|--------|
 E|-------------------------------------|----------------------|--------|--------|
 B|-------------------------------------|----------------------|--------|--------|
F#|-0--1--0-------0--1--0---1---4---1---|-0--1--0--------------|--------|--------|
 B|-0--1--0-------0--1--0---1---4---1---|-0--1--0--------------|--------|--------|


C#|--------|--------|--------|--------|--------|--------|---------------------------------|
G#|--------|--------|--------|--------|--------|--------|---------------------------------|
 E|--------|--------|--------|--------|--------|--------|---------14--14--14--14--14--14--|
 B|--------|--------|--------|--------|--------|--------|-0---0---12--12------12--12--12--|
F#|--------|--------|--------|--------|--------|--------|-0---0---12--12--12--12--12--12--|
 B|--------|--------|--------|--------|--------|--------|-0---0---------------------------|


C#|---------------------------------|-----------------------------------|---------------------------------------|
G#|---------------------------------|-----------------------------------|---------------------------------------|
 E|-14--14--14--14--14--14--14--14--|-14--14-14-14--14--14--14--14--14--|-14--14-14-14-14-14-14-14--14--14--14--|
 B|-12--12--12--12--12--12--12--12--|-12--12-12-12--12--12--12--12--12--|-12--12-12-12-12-12-12-12--12------12--|
F#|-12--12--12--12--12--12--12--12--|-12--12-12-12--12--12--12--12--12--|-12--12-12-12-12-12-12-12--12--12--12--|
 B|---------------------------------|-----------------------------------|---------------------------------------|


C#|---------------------------------|-----------------------------------|-------------------------------------|
G#|---------------------------------|-----------------------------------|-------------------------------------|
 E|-14--14--14--14--14--14--14--14--|-14--14-14-14--14--14--14--14--14--|-14--14--14--14--14--14--14-14-14-14-|
 B|-12--12--12--12--12--12--12--12--|-12--12-12-12--12------12--12--12--|-12--12--12--12--12--12--12-12-12-12-|
F#|-12--12--12--12--12--12--12--12--|-12--12-12-12--12--12--12--12--12--|-12--12--12--12--12--12--12-12-12-12-|
 B|---------------------------------|-----------------------------------|-------------------------------------|


C#|--------------------------------------|---------------------------------|---------------------------------|
G#|--------------------------------------|---------------------------------|---------------------------------|
 E|-14--14--14-14-14-14-14-14-14-14------|-7---7---7---7---7---7---7---7---|-7---7---7---7---7---7---7---7---|
 B|-12--12--12-12-12-12-12-12-12-12-12---|-5---5---5---5---5---5---5---5---|-5---5---5---5---5---5---5---5---|
F#|-12--12--12-12-12-12-12-12-12-12-12---|-5---5---5---5---5---5---5---5---|-5---5---5---5---5---5---5---5---|
 B|---------------------------------12---|---------------------------------|---------------------------------|


C#|-----------------------------------|---------------------------------|-----------------------------------|
G#|-----------------------------------|---------------------------------|-----------------------------------|
 E|-7---7---7---7---7---7---7---7--7--|-7---7---7---7---7---7---7---7---|-----7---7---7---7---7---7---7--7--|
 B|-5---5---5---5---5---5---5---5--5--|-5---5---5---5---5---5---5---5---|-----5---5---5---5---5---5---5--5--|
F#|-5---5---5---5---5---5---5---5--5--|-5---5---5---5---5---5---5---5---|-----5---5---5---5---5---5---5--5--|
 B|-----------------------------------|---------------------------------|-0---------------------------------|


C#|---------------------------------|---------------------------------|------------------------------|
G#|---------------------------------|---------------------------------|------------------------------|
 E|-7---7---7-----------7---7---7---|-7---7---7---7---7---7---7---7---|-5---7---7---7---7---7--------|
 B|-5---5---5-----------5---5---5---|-5---5---5---5---5---5---5---5---|-5---5---5---5---5---5---5----|
F#|-5---5---5-----------5---5---5---|-5---5---5---5---5---5---5---5---|-5---5---5---5---5---5---5----|
 B|-------------0---0---------------|---------------------------------|-------------------------5----|


C#|--------|--------|--------|--------|--------|--------|--------|--------|--------|
G#|--------|--------|--------|--------|--------|--------|--------|--------|--------|
 E|--------|--------|--------|--------|--------|--------|--------|--------|--------|
 B|--------|--------|--------|--------|--------|--------|--------|--------|--------|
F#|--------|--------|--------|--------|--------|--------|--------|--------|--------|
 B|--------|--------|--------|--------|--------|--------|--------|--------|--------|


C#|--------|--------|--------|--------|--------|--------|--------|--------|--------|
G#|--------|--------|--------|--------|--------|--------|--------|--------|--------|
 E|--------|--------|--------|--------|--------|--------|--------|--------|--------|
 B|--------|--------|--------|--------|--------|--------|--------|--------|--------|
F#|--------|--------|--------|--------|--------|--------|--------|--------|--------|
 B|--------|--------|--------|--------|--------|--------|--------|--------|--------|


C#|--------|--------|--------|--------|--------|--------|---------------------------------|
G#|--------|--------|--------|--------|--------|--------|---------------------------------|
 E|--------|--------|--------|--------|--------|--------|-7---7---7---7---7---7---7---7---|
 B|--------|--------|--------|--------|--------|--------|-5---5---5---5---5---5---5---5---|
F#|--------|--------|--------|--------|--------|--------|-5---5---5---5---5---5---5---5---|
 B|--------|--------|--------|--------|--------|--------|---------------------------------|


C#|---------------------------------|-----------------------------------|-----------------------------------|
G#|---------------------------------|-----------------------------------|-----------------------------------|
 E|-7---7---7---7---7---7---7---7---|-7---7---7---7---7---7---7---7--7--|-7---7---7---7---7---7---7---7--7--|
 B|-5---5---5---5---5---5---5---5---|-5---5---5---5---5---5---5---5--5--|-5---5---5---5---5---5---5---5--5--|
F#|-5---5---5---5---5---5---5---5---|-5---5---5---5---5---5---5---5--5--|-5---5---5---5---5---5---5---5--5--|
 B|---------------------------------|-----------------------------------|-----------------------------------|


C#|-------------------------------------|---------------------------------|-----------------------------------|
G#|-------------------------------------|---------------------------------|-----------------------------------|
 E|-7---7---7---7---7---7---7---7---7---|-7---7---7---7---7---7---7---7---|-7---7---7---7---7---7--7--7---7---|
 B|-5---5---5---5---5---5---5---5---5---|-5---5---5---5---5---5---5---5---|-5---5---5---5---5---5--5--5---5---|
F#|-5---5---5---5---5---5---5---5---5---|-5---5---5---5---5---5---5---5---|-5---5---5---5---5---5--5--5---5---|
 B|-------------------------------------|---------------------------------|-----------------------------------|


C#|---------------------------------|----------------------------------|-------------------------------|
G#|---------------------------------|----------------------------------|-------------------------------|
 E|-7---7---7---7---7---7---7---7---|----------------------------------|-------------------------------|
 B|-5---5---5---5---5---5---5---5---|----------------------------------|-------------------------------|
F#|-5---5---5---5---5---5---5---5---|-0--1--0-------0--1--0------------|-0--1--0-------0--1--0---------|
 B|---------------------------------|-0--1--0-------0--1--0------------|-0--1--0-------0--1--0----17---|


C#|-------------------------------------|--------|--------|--------|--------|--------|
G#|-------------------------------------|--------|--------|--------|--------|--------|
 E|-------------------------------------|--------|--------|--------|--------|--------|
 B|-------------------------------------|--------|--------|--------|--------|--------|
F#|-0--1--0-------0--1--0---1---4---1---|--------|--------|--------|--------|--------|
 B|-0--1--0-------0--1--0---1---4---1---|--------|--------|--------|--------|--------|


C#|--------|--------|
G#|--------|--------|
 E|--------|--------|
 B|--------|--------|
F#|--------|--------|
 B|--------|--------|





Track 3: Bass

 E|------------------------------|------------------------------|------------------------------|
 B|------------------------------|------------------------------|------------------------------|
F#|------------------------------|------------------------------|------------------------------|
 B|-0----0---7---7---7---7---1---|-1---1---1---8---8---8----0---|-0---0---0---7---7---7----1---|


 E|---------------------------------|---------------------------------|---------------------------------|
 B|---------------------------------|---------------------------------|---------------------------------|
F#|---------------------------------|---------------------------------|---------------------------------|
 B|-1---1---1---8---8---8---8---0---|-0---0---0---7---7---7---7---1---|-1---1---1---8---8---8---8---0---|


 E|---------------------------------|------------------------------|-----------------------------------|
 B|---------------------------------|------------------------------|-----------------------------------|
F#|---------------------------------|------------------------------|-----------------------------------|
 B|-0---0---0---7---7---7---7---1---|-1---1----8---8---8---8---0---|-0---0--0--0---7---7---7---0---1---|


 E|---------------------------------|-----------------------------------|---------------------------------|
 B|---------------------------------|-----------------------------------|---------------------------------|
F#|---------------------------------|-----------------------------------|-------------1---1---1-----------|
 B|-1---1---1---1---1---1---1---0---|-0---0--0--0---7---7---7---0---1---|-1---1---1---------------1---1---|


 E|-----------------------------------|---------------------------------|-----------------------------------|
 B|-----------------------------------|---------------------------------|-----------------------------------|
F#|-----------------------------------|-------------1---1---1-----------|-----------------------------------|
 B|-0---0--0--0---7---7---7---0---1---|-1---1---1---------------1---0---|-0---0--0--0---7---7---7---0---1---|


 E|------------------------------|-------------------------------|-------------------------------|
 B|------------------------------|-------------------------------|-------------------------------|
F#|----------1---1---1-----------|-------------------------------|-------------------------------|
 B|-1---1----------------1---1---|-0--1--0-------0--1--0---------|-0--1--0-------0--1--0---------|


 E|-------------------------------|-------------------------------|-------------------------------------|
 B|-------------------------------|-------------------------------|-------------------------------------|
F#|-------------------------------|-------------------------------|-------------------------------------|
 B|-0--1--0-------0--1--0---------|-0--1--0-------0--1--0----7----|-0--1--0-------0--1--0---1---4---1---|


 E|-------------------------------------|-------------------------------------|-------------------------------------|
 B|-------------------------------------|-------------------------------------|-------------------------------------|
F#|-------------------------------------|-------------------------------------|-------------------------------------|
 B|-0--1--0-------0--1--0---1---4---1---|-0--1--0-------0--1--0---1---4---1---|-0--1--0-------0--1--0---1---4---1---|


 E|-------------------------------------|-------------------------------------|-------------------------------------|
 B|-------------------------------------|-------------------------------------|-------------------------------------|
F#|-------------------------------------|-------------------------------------|-------------------------------------|
 B|-0--1--0-------0--1--0---1---4---1---|-0--1--0-------0--1--0---1---4---1---|-0--1--0-------0--1--0---1---4---1---|


 E|-------------------------------------|-------------------------------------|-------------------------------------|
 B|-------------------------------------|-------------------------------------|-------------------------------------|
F#|-------------------------------------|-------------------------------------|-------------------------------------|
 B|-0--1--0-------0--1--0---1---4---1---|-0--1--0-------0--1--0---1---4---1---|-0--1--0-------0--1--0---1---4---1---|


 E|-------------------------------------|-------------------------------------|-------------------------------------|
 B|-------------------------------------|-------------------------------------|-------------------------------------|
F#|-------------------------------------|-------------------------------------|-------------------------------------|
 B|-0--1--0-------0--1--0---1---4---1---|-0--1--0-------0--1--0---1---4---1---|-0--1--0-------0--1--0---1---4---1---|


 E|-------------------------------------|-------------------------------------|-------------------------------------|
 B|-------------------------------------|-------------------------------------|-------------------------------------|
F#|-------------------------------------|-------------------------------------|-------------------------------------|
 B|-0--1--0-------0--1--0---1---4---1---|-0--1--0-------0--1--0---1---4---1---|-0--1--0-------0--1--0---1---4---1---|


 E|---------------------------------|---------------------------------|---------------------------------|
 B|---------------------------------|---------------------------------|---------------------------------|
F#|---------------------------------|---------------------------------|---------------------------------|
 B|-0---0---0---7---7---7---7---1---|-1---1---1---0---8---8---8---12--|-12--12--12--7---12--10--12--13--|


 E|-------------------------------------|---------------------------------|---------------------------------|
 B|-------------------------------------|---------------------------------|---------------------------------|
F#|-------------------------------------|---------------------------------|---------------------------------|
 B|-13--12--10--12--10--9---8---7---3---|-0---0---0---7---7---7---7---1---|-1---1---1---8---8---8---8---0---|


 E|---------------------------------|---------------------------------|-------------------------------------|
 B|---------------------------------|---------------------------------|-------------------------------------|
F#|---------------------------------|---------------------------------|-------------------------------------|
 B|-0---0---0---7---7---7---7---1---|-1---1---1---8---8---8---8---7---|-0--1--0-------0--1--0---1---4---1---|


 E|-------------------------------------|--------------------------------------|-------------------------------------|
 B|-------------------------------------|--------------------------------------|-------------------------------------|
F#|-------------------------------------|--------------------------------------|-------------------------------------|
 B|-0--1--0-------0--1--0---1---4---1---|-0--1--0-------1--1--0---4---1--------|-0--1--0-------0--1--0---1---4---1---|


 E|-------------------------------------|-------------------------------------|-------------------------------------|
 B|-------------------------------------|-------------------------------------|-------------------------------------|
F#|-------------------------------------|-------------------------------------|-------------------------------------|
 B|-0--1--0-------0--1--0---1---4---1---|-0--1--0-------0--1--0---1---4---1---|-0--1--0-------0--1--0---1---4---1---|


 E|-------------------------------------|-------------------------------------|-------------------------------------|
 B|-------------------------------------|-------------------------------------|-------------------------------------|
F#|-------------------------------------|-------------------------------------|-------------------------------------|
 B|-0--1--0-------0--1--0---1---4---1---|-0--1--0-------0--1--0---1---4---1---|-0--1--0-------0--1--0---1---4---1---|


 E|-------------------------------------|---------------------------------|---------------------------------|
 B|-------------------------------------|---------------------------------|---------------------------------|
F#|-------------------------------------|---------------------------------|---------------------------------|
 B|-0--1--0-------0--1--0---1---4---1---|-0---0---0---7---7---7---7---1---|-1---1---1---0---8---8---8---12--|


 E|---------------------------------|-------------------------------------|---------------------------------|
 B|---------------------------------|-------------------------------------|---------------------------------|
F#|---------------------------------|-------------------------------------|---------------------------------|
 B|-12--12--12--7---12--10--12--13--|-13--12--10--12--10--9---8---7---3---|-0---0---0---7---7---7---7---1---|


 E|---------------------------------|---------------------------------|---------------------------------|
 B|---------------------------------|---------------------------------|---------------------------------|
F#|---------------------------------|---------------------------------|---------------------------------|
 B|-1---1---1---8---8---8---8---0---|-0---0---0---7---7---7---7---1---|-1---1---1---8---8---8---8---7---|


 E|---------------------------------|---------------------------------|---------------------------------|
 B|---------------------------------|---------------------------------|---------------------------------|
F#|---------------------------------|---------------------------------|---------------------------------|
 B|-0---0---0---7---7---7---7---1---|-1---1---1---8---8---8---8---0---|-0---0---0---7---7---7---7---1---|


 E|---------------------------------|---------------------------------|---------------------------------|
 B|---------------------------------|---------------------------------|---------------------------------|
F#|---------------------------------|---------------------------------|---------------------------------|
 B|-1---1---1---8---8---8---8---0---|-0---0---0---7---7---7---7---1---|-1---1---1---8---8---8---8---0---|


 E|---------------------------------|---------------------------------|-----------------|
 B|---------------------------------|---------------------------------|-----------------|
F#|---------------------------------|---------------------------------|-----------------|
 B|-0---0---0---7---7---7---7---1---|-1---1---1---8---8---8---8---0---|-0---------------|


 E|--------|--------|--------------------------------|--------------------------------|
 B|--------|--------|--------------------------------|--------------------------------|
F#|--------|--------|--------------------------------|-----0--------------------------|
 B|--------|--------|------0---13--12--12--0---0--1--|-3-------0---1---0----0---0--1--|


 E|--------------------------------|--------------------------------|--------------------------------|
 B|--------------------------------|--------------------------------|--------------------------------|
F#|-----0--------------------------|-----0--------------------------|-----0--------------------------|
 B|-3-------0---1---0----0---0--1--|-3-------0---1---0----0---0--1--|-3-------0---1---0----0---0--1--|


 E|--------------------------------|--------------------------------|--------------------------------|
 B|--------------------------------|--------------------------------|--------------------------------|
F#|-----0--------------------------|-----0--------------------------|-----0--------------------------|
 B|-3-------0---1---0----0---0--1--|-3-------0---1---0----0---0--1--|-3-------0---1---0----0---0--1--|


 E|--------------------------------|--------------------------------|--------------------------------|
 B|--------------------------------|--------------------------------|--------------------------------|
F#|-----0--------------------------|-----0--------------------------|-----0--------------------------|
 B|-3-------0---1---0----0---0--1--|-3-------0---1---0----0---0--1--|-3-------0---1---0----0---0--1--|


 E|--------------------------------|------------------------------|---------------------------------|
 B|--------------------------------|------------------------------|---------------------------------|
F#|-----0--------------------------|-----0--------------------0---|---------------------------------|
 B|-3-------0---1---0----0---0--1--|-3-------0---1---0----3-------|-0---0---0---7---7---7---7---1---|


 E|---------------------------------|---------------------------------|---------------------------------|
 B|---------------------------------|---------------------------------|---------------------------------|
F#|---------------------------------|---------------------------------|---------------------------------|
 B|-1---1---1---1---1---1---1---1---|-0---0---0---7---7---7---7---1---|-1---1---1---1---1---1---1---1---|


 E|---------------------------------|---------------------------------|---------------------------------|
 B|---------------------------------|---------------------------------|---------------------------------|
F#|---------------------------------|---------------------------------|---------------------------------|
 B|-0---0---0---7---7---7---7---1---|-1---1---1---1---1---1---1---1---|-0---0---0---7---7---7---7---1---|


 E|---------------------------------|---------------------------------|---------------------------------|
 B|---------------------------------|---------------------------------|---------------------------------|
F#|---------------------------------|---------------------------------|---------------------------------|
 B|-1---1---1---1---1---1---1---1---|-0---0---0---7---7---7---7---1---|-1---1---1---1---1---1---1---1---|


 E|---------------------------------|---------------------------------|---------------------------------|
 B|---------------------------------|---------------------------------|---------------------------------|
F#|---------------------------------|---------------------------------|---------------------------------|
 B|-0---0---0---1---0---0---5---1---|-1---1---1---1---1---1---1---1---|-0---0---0---7---7---7---7---1---|


 E|---------------------------------|------------------------------|---------------------------------|
 B|---------------------------------|------------------------------|---------------------------------|
F#|---------------------------------|------------------------------|---------------------------------|
 B|-1---1---1---1---1---1---1---1---|-0---0---0---7---0---12---0---|-1---1---1---1---1---1---1---1---|


 E|-------------------------------|-------------------------------|-------------------------------------|
 B|-------------------------------|-------------------------------|-------------------------------------|
F#|-------------------------------|-------------------------------|-------------------------------------|
 B|-0--1--0-------0--1--0---------|-0--1--0-------0--1--0---------|-0--1--0-------0--1--0---1---4---1---|


 E|-------------------------------------|-------------------------------------|----------------------------------|
 B|-------------------------------------|-------------------------------------|----------------------------------|
F#|-------------------------------------|-------------------------------------|----------------------------------|
 B|-0--1--0-------0--1--0---1---4---1---|-0--1--0-------0--1--0---1---4---1---|-0--1--0----0--1--0---1---4---1---|


 E|----------------------------------|----------------------------------|----------------------------------|
 B|----------------------------------|----------------------------------|----------------------------------|
F#|----------------------------------|----------------------------------|----------------------------------|
 B|-0--1--0----0--1--0---1---4---1---|-0--1--0----0--1--0---1---4---1---|-0--1--0----0--1--0---1---4---1---|


 E|----------------------|
 B|----------------------|
F#|----------------------|
 B|-0--1--0--------------|