Menu:

 

Search:

 

slipknot - vermilion:

 



Title: Vermillion
Artist: 
Album: Volume 3: The Subliminal Verses
Author: Slipknot


Track 1: Synth

C#|-------------15---|-15--14--14-----|-14-----|-14-----|-------------15---|-15--14--14-----|
G#|-------14---------|----------------|--------|--------|-------14---------|----------------|
 E|-16---------------|----------------|--------|--------|-16---------------|----------------|
 B|------------------|----------------|--------|--------|------------------|----------------|
F#|------------------|----------------|--------|--------|------------------|----------------|
 B|------------------|----------------|--------|--------|------------------|----------------|


C#|-14-----|-14-----|-------------15---|-15--14--14-----|-14-----|-14-----|-------------15---|
G#|--------|--------|-------14---------|----------------|--------|--------|-------14---------|
 E|--------|--------|-16---------------|----------------|--------|--------|-16---------------|
 B|--------|--------|------------------|----------------|--------|--------|------------------|
F#|--------|--------|------------------|----------------|--------|--------|------------------|
 B|--------|--------|------------------|----------------|--------|--------|------------------|


C#|-15--14--14-----|-14-----|-14-----|-------------15---|-15--14--14-----|-14-----|
G#|----------------|--------|--------|-------14---------|----------------|--------|
 E|----------------|--------|--------|-16---------------|----------------|--------|
 B|----------------|--------|--------|------------------|----------------|--------|
F#|----------------|--------|--------|------------------|----------------|--------|
 B|----------------|--------|--------|------------------|----------------|--------|


C#|-14-----|--------|--------|--------|--------|--------|--------|--------|--------|
G#|--------|--------|--------|--------|--------|--------|--------|--------|--------|
 E|--------|--------|--------|--------|--------|--------|--------|--------|--------|
 B|--------|--------|--------|--------|--------|--------|--------|--------|--------|
F#|--------|--------|--------|--------|--------|--------|--------|--------|--------|
 B|--------|--------|--------|--------|--------|--------|--------|--------|--------|


C#|-------------15---|-15--14--14-----|-14-----|-14-----|-------------15---|-15--14--14-----|
G#|-------14---------|----------------|--------|--------|-------14---------|----------------|
 E|-16---------------|----------------|--------|--------|-16---------------|----------------|
 B|------------------|----------------|--------|--------|------------------|----------------|
F#|------------------|----------------|--------|--------|------------------|----------------|
 B|------------------|----------------|--------|--------|------------------|----------------|


C#|-14-----|-14-----|--------|--------|--------|--------|--------|--------|--------|
G#|--------|--------|--------|--------|--------|--------|--------|--------|--------|
 E|--------|--------|--------|--------|--------|--------|--------|--------|--------|
 B|--------|--------|--------|--------|--------|--------|--------|--------|--------|
F#|--------|--------|--------|--------|--------|--------|--------|--------|--------|
 B|--------|--------|--------|--------|--------|--------|--------|--------|--------|


C#|--------|--------|--------|--------|--------|--------|--------|--------|--------|
G#|--------|--------|--------|--------|--------|--------|--------|--------|--------|
 E|--------|--------|--------|--------|--------|--------|--------|--------|--------|
 B|--------|--------|--------|--------|--------|--------|--------|--------|--------|
F#|--------|--------|--------|--------|--------|--------|--------|--------|--------|
 B|--------|--------|--------|--------|--------|--------|--------|--------|--------|


C#|--------|--------|--------|--------|--------|--------|--------|--------|--------|
G#|--------|--------|--------|--------|--------|--------|--------|--------|--------|
 E|--------|--------|--------|--------|--------|--------|--------|--------|--------|
 B|--------|--------|--------|--------|--------|--------|--------|--------|--------|
F#|--------|--------|--------|--------|--------|--------|--------|--------|--------|
 B|--------|--------|--------|--------|--------|--------|--------|--------|--------|


C#|--------|--------|--------|--------|--------|--------|--------|--------|--------|
G#|--------|--------|--------|--------|--------|--------|--------|--------|--------|
 E|--------|--------|--------|--------|--------|--------|--------|--------|--------|
 B|--------|--------|--------|--------|--------|--------|--------|--------|--------|
F#|--------|--------|--------|--------|--------|--------|--------|--------|--------|
 B|--------|--------|--------|--------|--------|--------|--------|--------|--------|


C#|--------|--------|--------|--------|--------|--------|--------|--------|--------|
G#|--------|--------|--------|--------|--------|--------|--------|--------|--------|
 E|--------|--------|--------|--------|--------|--------|--------|--------|--------|
 B|--------|--------|--------|--------|--------|--------|--------|--------|--------|
F#|--------|--------|--------|--------|--------|--------|--------|--------|--------|
 B|--------|--------|--------|--------|--------|--------|--------|--------|--------|


C#|--------|--------|--------|--------|--------|--------|--------|--------|--------|
G#|--------|--------|--------|--------|--------|--------|--------|--------|--------|
 E|--------|--------|--------|--------|--------|--------|--------|--------|--------|
 B|--------|--------|--------|--------|--------|--------|--------|--------|--------|
F#|--------|--------|--------|--------|--------|--------|--------|--------|--------|
 B|--------|--------|--------|--------|--------|--------|--------|--------|--------|


C#|--------|--------|--------|--------|--------|--------|--------|--------|--------|
G#|--------|--------|--------|--------|--------|--------|--------|--------|--------|
 E|--------|--------|--------|--------|--------|--------|--------|--------|--------|
 B|--------|--------|--------|--------|--------|--------|--------|--------|--------|
F#|--------|--------|--------|--------|--------|--------|--------|--------|--------|
 B|--------|--------|--------|--------|--------|--------|--------|--------|--------|


C#|--------|--------|--------|--------|--------|--------|--------|--------|--------|
G#|--------|--------|--------|--------|--------|--------|--------|--------|--------|
 E|--------|--------|--------|--------|--------|--------|--------|--------|--------|
 B|--------|--------|--------|--------|--------|--------|--------|--------|--------|
F#|--------|--------|--------|--------|--------|--------|--------|--------|--------|
 B|--------|--------|--------|--------|--------|--------|--------|--------|--------|


C#|--------|--------|--------|--------|--------|--------|--------|--------|--------|
G#|--------|--------|--------|--------|--------|--------|--------|--------|--------|
 E|--------|--------|--------|--------|--------|--------|--------|--------|--------|
 B|--------|--------|--------|--------|--------|--------|--------|--------|--------|
F#|--------|--------|--------|--------|--------|--------|--------|--------|--------|
 B|--------|--------|--------|--------|--------|--------|--------|--------|--------|


C#|--------|--------|--------|--------|--------|--------|--------|--------|--------|
G#|--------|--------|--------|--------|--------|--------|--------|--------|--------|
 E|--------|--------|--------|--------|--------|--------|--------|--------|--------|
 B|--------|--------|--------|--------|--------|--------|--------|--------|--------|
F#|--------|--------|--------|--------|--------|--------|--------|--------|--------|
 B|--------|--------|--------|--------|--------|--------|--------|--------|--------|


C#|--------|--------|--------|--------|--------|--------|--------|--------|--------|
G#|--------|--------|--------|--------|--------|--------|--------|--------|--------|
 E|--------|--------|--------|--------|--------|--------|--------|--------|--------|
 B|--------|--------|--------|--------|--------|--------|--------|--------|--------|
F#|--------|--------|--------|--------|--------|--------|--------|--------|--------|
 B|--------|--------|--------|--------|--------|--------|--------|--------|--------|


C#|--------|--------|--------|--------|--------|--------|--------|--------|--------|
G#|--------|--------|--------|--------|--------|--------|--------|--------|--------|
 E|--------|--------|--------|--------|--------|--------|--------|--------|--------|
 B|--------|--------|--------|--------|--------|--------|--------|--------|--------|
F#|--------|--------|--------|--------|--------|--------|--------|--------|--------|
 B|--------|--------|--------|--------|--------|--------|--------|--------|--------|


C#|--------|--------|--------|--------|--------|--------|--------|--------|--------|
G#|--------|--------|--------|--------|--------|--------|--------|--------|--------|
 E|--------|--------|--------|--------|--------|--------|--------|--------|--------|
 B|--------|--------|--------|--------|--------|--------|--------|--------|--------|
F#|--------|--------|--------|--------|--------|--------|--------|--------|--------|
 B|--------|--------|--------|--------|--------|--------|--------|--------|--------|


C#|--------|--------|--------|--------|--------|--------|--------|--------|--------|
G#|--------|--------|--------|--------|--------|--------|--------|--------|--------|
 E|--------|--------|--------|--------|--------|--------|--------|--------|--------|
 B|--------|--------|--------|--------|--------|--------|--------|--------|--------|
F#|--------|--------|--------|--------|--------|--------|--------|--------|--------|
 B|--------|--------|--------|--------|--------|--------|--------|--------|--------|


C#|--------|--------|--------|--------|--------|--------|--------|--------|--------|
G#|--------|--------|--------|--------|--------|--------|--------|--------|--------|
 E|--------|--------|--------|--------|--------|--------|--------|--------|--------|
 B|--------|--------|--------|--------|--------|--------|--------|--------|--------|
F#|--------|--------|--------|--------|--------|--------|--------|--------|--------|
 B|--------|--------|--------|--------|--------|--------|--------|--------|--------|


C#|--------|--------|--------|--------|--------|--------|--------|--------|--------|
G#|--------|--------|--------|--------|--------|--------|--------|--------|--------|
 E|--------|--------|--------|--------|--------|--------|--------|--------|--------|
 B|--------|--------|--------|--------|--------|--------|--------|--------|--------|
F#|--------|--------|--------|--------|--------|--------|--------|--------|--------|
 B|--------|--------|--------|--------|--------|--------|--------|--------|--------|


C#|--------|--------|--------|--------|--------|--------|--------|--------|--------|
G#|--------|--------|--------|--------|--------|--------|--------|--------|--------|
 E|--------|--------|--------|--------|--------|--------|--------|--------|--------|
 B|--------|--------|--------|--------|--------|--------|--------|--------|--------|
F#|--------|--------|--------|--------|--------|--------|--------|--------|--------|
 B|--------|--------|--------|--------|--------|--------|--------|--------|--------|


C#|--------|--------|--------|--------|--------|--------|--------|--------|--------|
G#|--------|--------|--------|--------|--------|--------|--------|--------|--------|
 E|--------|--------|--------|--------|--------|--------|--------|--------|--------|
 B|--------|--------|--------|--------|--------|--------|--------|--------|--------|
F#|--------|--------|--------|--------|--------|--------|--------|--------|--------|
 B|--------|--------|--------|--------|--------|--------|--------|--------|--------|


C#|--------|--------|--------|--------|--------|--------|--------|--------|--------|
G#|--------|--------|--------|--------|--------|--------|--------|--------|--------|
 E|--------|--------|--------|--------|--------|--------|--------|--------|--------|
 B|--------|--------|--------|--------|--------|--------|--------|--------|--------|
F#|--------|--------|--------|--------|--------|--------|--------|--------|--------|
 B|--------|--------|--------|--------|--------|--------|--------|--------|--------|


C#|--------|--------|--------|--------|--------|--------|--------|--------|--------|
G#|--------|--------|--------|--------|--------|--------|--------|--------|--------|
 E|--------|--------|--------|--------|--------|--------|--------|--------|--------|
 B|--------|--------|--------|--------|--------|--------|--------|--------|--------|
F#|--------|--------|--------|--------|--------|--------|--------|--------|--------|
 B|--------|--------|--------|--------|--------|--------|--------|--------|--------|


C#|--------|--------|--------|--------|--------|--------|--------|--------|--------|
G#|--------|--------|--------|--------|--------|--------|--------|--------|--------|
 E|--------|--------|--------|--------|--------|--------|--------|--------|--------|
 B|--------|--------|--------|--------|--------|--------|--------|--------|--------|
F#|--------|--------|--------|--------|--------|--------|--------|--------|--------|
 B|--------|--------|--------|--------|--------|--------|--------|--------|--------|


C#|--------|--------|--------|--------|--------|--------|--------|--------|--------|
G#|--------|--------|--------|--------|--------|--------|--------|--------|--------|
 E|--------|--------|--------|--------|--------|--------|--------|--------|--------|
 B|--------|--------|--------|--------|--------|--------|--------|--------|--------|
F#|--------|--------|--------|--------|--------|--------|--------|--------|--------|
 B|--------|--------|--------|--------|--------|--------|--------|--------|--------|


C#|--------|--------|--------|--------|--------|--------|--------|--------|--------|
G#|--------|--------|--------|--------|--------|--------|--------|--------|--------|
 E|--------|--------|--------|--------|--------|--------|--------|--------|--------|
 B|--------|--------|--------|--------|--------|--------|--------|--------|--------|
F#|--------|--------|--------|--------|--------|--------|--------|--------|--------|
 B|--------|--------|--------|--------|--------|--------|--------|--------|--------|


C#|--------|--------|--------|--------|
G#|--------|--------|--------|--------|
 E|--------|--------|--------|--------|
 B|--------|--------|--------|--------|
F#|--------|--------|--------|--------|
 B|--------|--------|--------|--------|





Track 2: Distortion 1

C#|--------|--------|--------|--------|---------------------------------|---------------------------------|
G#|--------|--------|--------|--------|---------------------------------|---------------------------------|
 E|--------|--------|--------|--------|-4-----------6-----------6-------|-----6---------------6---6---6---|
 B|--------|--------|--------|--------|-5-----------5-----------5---5---|-5---4---4---4---4---5---4---5---|
F#|--------|--------|--------|--------|-5---5---5---5---5---5-----------|-----------------------------5---|
 B|--------|--------|--------|--------|---------------------------------|---------------------------------|


C#|---------------------------------|-----------------------|---------------------------------|
G#|---------------------------------|-----------------------|---------------------------------|
 E|---------------------6---10--10--|-----6---6---6---6-----|-4-----------6-----------6-------|
 B|-4---4---4---4---4---4-------8---|-----4---4---4---4-----|-5-----------5-----------5---5---|
F#|-5---5---5---5---5---4---8---8---|-----4---4---4---4-----|-5---5---5---5---5---5-----------|
 B|---------------------------------|-0---------------------|---------------------------------|


C#|---------------------------------|---------------------------------|-----------------------|
G#|---------------------------------|---------------------------------|-----------------------|
 E|-----6---------------6---6---6---|---------------------6---10--10--|-----6---6---6---6-----|
 B|-5---4---4---4---4---5---4---5---|-4---4---4---4---4---4-------8---|-----4---4---4---4-----|
F#|-----------------------------5---|-5---5---5---5---5---4---8---8---|-----4---4---4---4-----|
 B|---------------------------------|---------------------------------|-0---------------------|


C#|---------------------------------|---------------------------------|---------------------------------|
G#|---------------------------------|---------------------------------|---------------------------------|
 E|-4-----------6-----------6-------|-----6---------------6---6---6---|---------------------6---10--10--|
 B|-5-----------5-----------5---5---|-5---4---4---4---4---5---4---5---|-4---4---4---4---4---4-------8---|
F#|-5---5---5---5---5---5-----------|-----------------------------5---|-5---5---5---5---5---4---8---8---|
 B|---------------------------------|---------------------------------|---------------------------------|


C#|-----------------------|---------------------------------|---------------------------------|
G#|-----------------------|---------------------------------|---------------------------------|
 E|-----6---6---6---6-----|-4-----------6-----------6-------|-----6---------------6---6---6---|
 B|-----4---4---4---4-----|-5-----------5-----------5---5---|-5---4---4---4---4---5---4---5---|
F#|-----4---4---4---4-----|-5---5---5---5---5---5-----------|-----------------------------5---|
 B|-0---------------------|---------------------------------|---------------------------------|


C#|---------------------------------|---------------------------|--------|--------|
G#|---------------------------------|---------------------------|--------|--------|
 E|---------------------6---10--10--|-10--12--12--14--14---14---|--------|--------|
 B|-4---4---4---4---4---4-------8---|-8-------10------12---12---|--------|--------|
F#|-5---5---5---5---5---4---8---8---|-8---10--10--12--12---12---|--------|--------|
 B|---------------------------------|---------------------------|--------|--------|


C#|-----------------------|-----------------------|--------|--------|-----------------------|
G#|-----------------------|-----------------------|--------|--------|-----------------------|
 E|-----------6---10--10--|-----6---6---6---6-----|--------|--------|-----------6---10--10--|
 B|-----------4-------8---|-----4---4---4---4-----|--------|--------|-----------4-------8---|
F#|-----------4---8---8---|-0---4---4---4---4-----|--------|--------|-----------4---8---8---|
 B|-----------------------|-----------------------|--------|--------|-----------------------|


C#|-----------------------|---------------------------------|---------------------------------|
G#|-----------------------|---------------------------------|---------------------------------|
 E|-----6---6---6---6-----|-------------------------6-------|---------------------------------|
 B|-----4---4---4---4-----|-0-----------------------5-------|---------------------------------|
F#|-0---4---4---4---4-----|-2---2---2---4---4---4-------5---|-5---4---4---4---4---5---4---0---|
 B|-----------------------|-----------------------------5---|-5---4---4---4---4---5---4---0---|


C#|---------------------------------|---------------------------------|---------------------------------|
G#|---------------------------------|---------------------------------|---------------------------------|
 E|---------------------6---10--10--|-----6---6---6---6---------------|-4-----------6-----------6-------|
 B|---------------------4-------8---|-----4---4---4---4---------------|-5-----------5-----------5---5---|
F#|---------------------4---8---8---|-0---4---4---4---4---4---4---4---|-5---5---5---5---5---5-----------|
 B|-0---0---0---0---0---------------|---------------------------------|---------------------------------|


C#|---------------------------------|---------------------------------|---------------------------|
G#|---------------------------------|---------------------------------|---------------------------|
 E|-----6---------------6---6---6---|---------------------6---10--10--|-10--12--12--14--14---14---|
 B|-5---4---4---4---4---5---4---5---|-4---4---4---4---4---4-------8---|-8-------10------12---12---|
F#|-----------------------------5---|-5---5---5---5---5---4---8---8---|-8---10--10--12--12---12---|
 B|---------------------------------|---------------------------------|---------------------------|


C#|---------------------|------------------------|------------------------|---------------------------------|
G#|---------------------|------------------------|------------------------|---------------------------------|
 E|-4-----4----4---4----|-----4----4---4-----4---|-----4---7-----10--10---|---------------------------------|
 B|-2-----2----2---2----|-----2----2---2-----2---|-----2---5-----8---8----|---------0-----------1-----------|
F#|-3-----3----3---3----|-----3----3---3-----3---|-----3---6-----9---9----|-----0-----------1-----------0---|
 B|---------------------|------------------------|------------------------|-0-----------1-----------0-------|


C#|---------------------------------|---------------------------------|---------------------------------|
G#|---------------------------------|---------------------------------|---------------------------------|
 E|---------------------------------|---------------------------------|---------------------------------|
 B|-0-----------7-----------6-------|---------0-----------1-----------|-0-----------7-----------6-------|
F#|---------7-----------6-------6---|-----0-----------1-----------0---|---------7-----------6-------6---|
 B|-----7-----------6---------------|-0-----------1-----------0-------|-----7-----------6---------------|


C#|---------------------------------|---------------------------------|---------------------------------|
G#|---------------------------------|---------------------------------|---------------------------------|
 E|---------------------------------|---------------------------------|---------------------------------|
 B|---------0-----------1-----------|-0-----------7-----------6-------|---------0-----------1-----------|
F#|-----0-----------1-----------0---|---------7-----------6-------6---|-----0-----------1-----------0---|
 B|-0-----------1-----------0-------|-----7-----------6---------------|-0-----------1-----------0-------|


C#|------------------------------|--------|--------|--------|--------|--------|-----------------------|
G#|------------------------------|--------|--------|--------|--------|--------|-----------------------|
 E|------------------------------|--------|--------|--------|--------|--------|-----------10--10--10--|
 B|-0-----------7-----------6----|--------|--------|--------|--------|--------|-----------8---8---8---|
F#|---------7-----------6--------|--------|--------|--------|--------|--------|-----------8---8---8---|
 B|-----7-----------6------------|--------|--------|--------|--------|--------|-----------------------|


C#|---------------------------------|---------------------------------|---------------------------------|
G#|---------------------------------|---------------------------------|---------------------------------|
 E|-10--6---6---6---6---6---6---6---|---------------------------------|---------------------------------|
 B|-8---4---4---4---4---4---4---4---|---------------------------------|---------------------------------|
F#|-8---4---4---4---4---4---4---4---|-2---2---2-----------------------|-----------------1---1-----------|
 B|---------------------------------|-------------0---0---0---2---2---|-2---4---4---4-----------4---4---|


C#|---------------------------------|---------------------------------|---------------------------------|
G#|---------------------------------|---------------------------------|---------------------------------|
 E|---------------------10--10--10--|-10--6---6---6---6---6---6---6---|-4---4---4---6---6---6-----------|
 B|---------------------8---8---8---|-8---4---4---4---4---4---4---4---|-------------------------5---5---|
F#|---------------------8---8---8---|-8---4---4---4---4---4---4---4---|---------------------------------|
 B|-5---5---5---5---5---------------|---------------------------------|---------------------------------|


C#|---------------------------------|---------------------------------|---------------------------------|
G#|---------------------------------|---------------------------------|---------------------------------|
 E|-----------------3---3-----------|---------------------10--10--10--|-10--6---6---6---6---6---6---6---|
 B|-5---4---4---4-------------------|---------------------8---8---8---|-8---4---4---4---4---4---4---4---|
F#|-------------------------4---4---|-5---5---5---5---5---8---8---8---|-8---4---4---4---4---4---4---4---|
 B|---------------------------------|---------------------------------|---------------------------------|


C#|---------------------------------|---------------------------------|---------------------------------|
G#|---------------------------------|---------------------------------|---------------------------------|
 E|-4---4---4---6---6---6-----------|-----------------3---3-----------|---------------------10--10--10--|
 B|-------------------------5---5---|-5---4---4---4-------------------|---------------------8---8---8---|
F#|---------------------------------|-------------------------4---4---|-5---5---5---5---5---8---8---8---|
 B|---------------------------------|---------------------------------|---------------------------------|


C#|---------------------------|---------------------|------------------------|------------------------|
G#|---------------------------|---------------------|------------------------|------------------------|
 E|-10--12--12--14--14---14---|-4-----4----4---4----|-----4----4---4-----4---|-----4---7-----10--10---|
 B|-8-------10------12---12---|-2-----2----2---2----|-----2----2---2-----2---|-----2---5-----8---8----|
F#|-8---10--10--12--12---12---|-3-----3----3---3----|-----3----3---3-----3---|-----3---6-----9---9----|
 B|---------------------------|---------------------|------------------------|------------------------|


C#|---------------------------------|---------------------------------|---------------------------------|
G#|---------------------------------|---------------------------------|---------------------------------|
 E|---------------------------------|---------------------------------|---------------------------------|
 B|---------0-----------1-----------|-0-----------7-----------6-------|---------0-----------1-----------|
F#|-----0-----------1-----------0---|---------7-----------6-------6---|-----0-----------1-----------0---|
 B|-0-----------1-----------0-------|-----7-----------6---------------|-0-----------1-----------0-------|


C#|---------------------------------|---------------------------------|---------------------------------|
G#|---------------------------------|---------------------------------|---------------------------------|
 E|---------------------------------|---------------------------------|---------------------------------|
 B|-0-----------7-----------6-------|---------0-----------1-----------|-0-----------7-----------6-------|
F#|---------7-----------6-------6---|-----0-----------1-----------0---|---------7-----------6-------6---|
 B|-----7-----------6---------------|-0-----------1-----------0-------|-----7-----------6---------------|


C#|---------------------------------|---------------------------------|-------------------------------------|
G#|---------------------------------|---------------------------------|-------------------------------------|
 E|---------------------------------|---------------------------------|-8--8--7-------------------8--8--7---|
 B|---------0-----------1-----------|-0-----------7-----------6-------|-6-------------------------6---------|
F#|-----0-----------1-----------0---|---------7-----------6-------6---|-6--6--5-------------------6--6--5---|
 B|-0-----------1-----------0-------|-----7-----------6---------------|-----------0---0---0---0-------------|


C#|-----------------------------------|-----------------------------------|-------------------------------------|
G#|-----------------------------------|-----------------------------------|-------------------------------------|
 E|-----------------------------------|-----------------------------------|-8--8--7-------------------8--8--7---|
 B|-----------------------------------|---------4--4--3---3---3---3---3---|-6-------------------------6---------|
F#|-------------1---4--4--3---3---3---|-3---3---2--2--1---4---4---4---4---|-6--6--5-------------------6--6--5---|
 B|-0---3---0-------4--4--3---3---3---|-3---3-----------------------------|-----------0---0---0---0-------------|


C#|-----------------------------------|-----------------------------------|---------------------------------|
G#|-----------------------------------|-----------------------------------|---------------------------------|
 E|-----------------------------------|-----------------------------------|---------------------------------|
 B|-----------------------------------|---------4--4--3---3---3---3---3---|---------------------------------|
F#|-------------1---4--4--3---3---3---|-3---3---2--2--1---4---4---4---4---|-1---0-------------------1---0---|
 B|-0---3---0-------4--4--3---3---3---|-3---3-----------------------------|-1---0---0---0---0---0---1---0---|


C#|-----------------------------------|-----------------------------------|---------------------------------|
G#|-----------------------------------|---------------------------5---6---|---------------------------------|
 E|-----------------------------------|-----------------------------------|---------------------------------|
 B|-----------------4--4--6---6---6---|-6---6---4--4--3---3---------------|---------------------------------|
F#|-------------1---2--2--4---4---4---|-4---4---2--2--1-------0-----------|-1---0-------------------1---0---|
 B|-0---3---5-------------------------|-----------------------------------|-1---0---0---0---0---0---1---0---|


C#|-----------------------------------|-----------------------------------|---------------------------|
G#|-----------------------------------|---------------------------5---6---|---------------------------|
 E|-----------------------------------|-----------------------------------|---------------------------|
 B|-----------------4--4--6---6---6---|-6---6---4--4--3---3---------------|-7----7---7---7---7---7----|
F#|-------------1---2--2--4---4---4---|-4---4---2--2--1-------0-----------|-0----0---0---0---0---0----|
 B|-0---3---5-------------------------|-----------------------------------|-8----8---8---8---8---7----|


C#|------------------------|------------------------------|---------------------------|
G#|------------------------|------------------------------|---------------------------|
 E|------------------------|------------------------------|---------------------------|
 B|-7----7-----------------|------------------------------|-7----7---7---7---7---7----|
F#|-0----0-----------------|------------------------------|-0----0---0---0---0---0----|
 B|-8----7----0----0---0---|-0---0---3----3---3---3---3---|-8----8---8---8---8---7----|


C#|------------------------|------------------------------|------------------------|
G#|------------------------|------------------------------|------------------------|
 E|------------------------|------------------------------|------------------------|
 B|-7----7-----------------|------------------------------|------------------------|
F#|-0----0-----------------|------------------------------|-5-----5---5---5---4----|
 B|-8----7----0----0---0---|-0---0---3----3---3---3---3---|-8-----8---8---8---7----|


C#|------------------------|------------------------|------------------------|------------------------|
G#|------------------------|------------------------|------------------------|------------------------|
 E|------------------------|------------------------|------------------------|------------------------|
 B|------------------------|------------------------|------------------------|------------------------|
F#|-5----4-----------------|------------------------|-5-----5---5---5---4----|-5----4-----------------|
 B|-8----7----0----0---0---|-0---0---3----2----0----|-8-----8---8---8---7----|-8----7----0----0---0---|


C#|------------------------|---------------------------------|---------------------------------|
G#|------------------------|---------------------------------|---------------------------------|
 E|------------------------|---------------------------------|---------------------------------|
 B|------------------------|---------------------------------|---------------------------------|
F#|------------------------|---------------------------------|---------------------------------|
 B|-0---0---3----2----0----|-1---0---0---0---0---0---1---0---|-0---0---0---0---1---0---0---0---|


C#|---------------------------------|---------------------------------|---------------------------------|
G#|---------------------------------|---------------------------------|---------------------------------|
 E|---------------------------------|---------------------------------|---------------------------------|
 B|---------------------------------|---------------------------------|---------------------------------|
F#|---------------------------------|---------------------------------|---------------------------------|
 B|-0---0---1---0---0---0---0---0---|-1---0---0---0---0---0---1---0---|-0---0---0---0---1---0---0---0---|


C#|---------------------------------|---------------------------------|---------------------------------|
G#|---------------------------------|---------------------------------|---------------------------------|
 E|---------------------------------|---------------------------------|---------------------------------|
 B|---------------------------------|---------------------------------|---------------------------------|
F#|---------------------------------|-1---0-------------------1---0---|-----------------1---0-----------|
 B|-0---0---1---0---0---0---0---0---|-1---0---0---0---0---0---1---0---|-0---0---0---0---1---0---0---0---|


C#|---------------------------------|---------------------------------|---------------------------------|
G#|---------------------------------|---------------------------------|---------------------------------|
 E|---------------------------------|---------------------------------|---------------------------------|
 B|---------------------------------|---------------------------------|---------------------------------|
F#|---------------------------------|---------------------------------|---------------------------------|
 B|-1---0---0---0---0---0---0---0---|-0---0---0---0---1---0---0---0---|-0---0---0---0---0---0---0---0---|


C#|---------------------------------|------------------------------|------------------------------|
G#|---------------------------------|------------------------------|------------------------------|
 E|---------------------------------|------------------------------|------------------------------|
 B|---------------------------------|-----------------7----7---7---|-7---7---7----7---7---7-------|
F#|---------------------------------|-----------------5----5---5---|-5---5---5----5---5---5-------|
 B|-1---0---0---0---0---0---0---0---|-0---0---0---0---5----5---5---|-5---5---6----6---6---6---0---|


C#|---------------------------------|---------------------------------|---------------------------------|
G#|---------------------------------|---------------------------------|---------------------------------|
 E|---------------------------------|---------------------------------|---------------------------------|
 B|---------------------------------|---------------------------------|---------------------------------|
F#|---------------------------------|---------------------------------|---------------------------------|
 B|-1---0---0---0---0---0---0---0---|-0---0---0---0---1---0---0---0---|-0---0---0---0---0---0---0---0---|


C#|---------------------------------|------------------------------|------------------------------|
G#|---------------------------------|------------------------------|------------------------------|
 E|---------------------------------|------------------------------|------------------------------|
 B|---------------------------------|-----------------7----7---7---|-7---7---7----7---7---7-------|
F#|---------------------------------|-----------------5----5---5---|-5---5---5----5---5---5-------|
 B|-1---0---0---0---0---0---0---0---|-0---0---0---0---5----5---5---|-5---5---6----6---6---6---0---|


C#|---------------------------------|---------------------------------|---------------------------------|
G#|---------------------------------|---------------------------------|---------------------------------|
 E|---------------------------------|---------------------------------|---------------------------------|
 B|---------------------------------|---------------------------------|---------------------------------|
F#|---------------------------------|---------------------------------|---------------------------------|
 B|-1---0---0---0---0---0---0---0---|-0---0---0---0---1---0---0---0---|-0---0---0---0---0---0---0---0---|


C#|---------------------------------|------------------------------|------------------------------|
G#|---------------------------------|------------------------------|------------------------------|
 E|---------------------------------|------------------------------|------------------------------|
 B|---------------------------------|-----------------7----7---7---|-7---7---7----7---7---7-------|
F#|---------------------------------|-----------------5----5---5---|-5---5---5----5---5---5-------|
 B|-1---0---0---0---0---0---0---0---|-0---0---0---0---5----5---5---|-5---5---6----6---6---6---0---|


C#|---------------------------------|---------------------------------|---------------------------------|
G#|---------------------------------|---------------------------------|---------------------------------|
 E|---------------------------------|---------------------------------|---------------------------------|
 B|---------------------------------|---------------------------------|---------------------------------|
F#|---------------------------------|---------------------------------|---------------------------------|
 B|-1---0---0---0---0---0---0---0---|-0---0---0---0---1---0---0---0---|-0---0---0---0---0---0---0---0---|


C#|---------------------------------|------------------------------|------------------------------|
G#|---------------------------------|------------------------------|------------------------------|
 E|---------------------------------|------------------------------|------------------------------|
 B|---------------------------------|-----------------7----7---7---|-7---7---7----7---7---7-------|
F#|---------------------------------|-----------------5----5---5---|-5---5---5----5---5---5-------|
 B|-1---0---0---0---0---0---0---0---|-0---0---0---0---5----5---5---|-5---5---6----6---6---6---0---|


C#|---------------------------|------------------------------|------------------------------|
G#|---------------------------|------------------------------|------------------------------|
 E|---------------------------|------------------------------|------------------------------|
 B|-7----7---7---7---7---7----|-7---7---7-------7------------|------------------------------|
F#|-5----5---5---5---5---5----|-5---5---5-------5----5---5---|-5-------5---5---5---5--------|
 B|-5----5---5---5---5---6----|-6---6---6---0---5----5---5---|-5---0---5---5---6---6---17---|


C#|-------------------------------------|-----------------------------------|-----------------------------------|
G#|-------------------------------------|-----------------------------------|-----------------------------------|
 E|-8--8--7-------------------8--8--7---|-----------------------------------|-----------------------------------|
 B|-6-------------------------6---------|-----------------------------------|---------4--4--3---3---3---3---3---|
F#|-6--6--5-------------------6--6--5---|-------------1---4--4--3---3---3---|-3---3---2--2--1---4---4---4---4---|
 B|-----------0---0---0---0-------------|-0---3---0-------4--4--3---3---3---|-3---3-----------------------------|


C#|-------------------------------------|-----------------------------------|-----------------------------------|
G#|-------------------------------------|-----------------------------------|-----------------------------------|
 E|-8--8--7-------------------8--8--7---|-----------------------------------|-----------------------------------|
 B|-6-------------------------6---------|-----------------------------------|---------4--4--3---3---3---3---3---|
F#|-6--6--5-------------------6--6--5---|-------------1---4--4--3---3---3---|-3---3---2--2--1---4---4---4---4---|
 B|-----------0---0---0---0-------------|-0---3---0-------4--4--3---3---3---|-3---3-----------------------------|


C#|---------------------------------|-----------------------------------|-----------------------------------|
G#|---------------------------------|-----------------------------------|---------------------------5---6---|
 E|---------------------------------|-----------------------------------|-----------------------------------|
 B|---------------------------------|-----------------4--4--6---6---6---|-6---6---4--4--3---3---------------|
F#|-1---0-------------------1---0---|-------------1---2--2--4---4---4---|-4---4---2--2--1-------0-----------|
 B|-1---0---0---0---0---0---1---0---|-0---3---5-------------------------|-----------------------------------|


C#|---------------------------------|-----------------------------------|-----------------------------------|
G#|---------------------------------|-----------------------------------|---------------------------5---6---|
 E|---------------------------------|-----------------------------------|-----------------------------------|
 B|---------------------------------|-----------------4--4--6---6---6---|-6---6---4--4--3---3---------------|
F#|-1---0-------------------1---0---|-------------1---2--2--4---4---4---|-4---4---2--2--1-------0-----------|
 B|-1---0---0---0---0---0---1---0---|-0---3---5-------------------------|-----------------------------------|


C#|---------------------------|------------------------|------------------------------|
G#|---------------------------|------------------------|------------------------------|
 E|---------------------------|------------------------|------------------------------|
 B|-7----7---7---7---7---7----|-7----7-----------------|------------------------------|
F#|-0----0---0---0---0---0----|-0----0-----------------|------------------------------|
 B|-8----8---8---8---8---7----|-8----7----0----0---0---|-0---0---3----3---3---3---3---|


C#|---------------------------|------------------------|------------------------------|
G#|---------------------------|------------------------|------------------------------|
 E|---------------------------|------------------------|------------------------------|
 B|-7----7---7---7---7---7----|-7----7-----------------|------------------------------|
F#|-0----0---0---0---0---0----|-0----0-----------------|------------------------------|
 B|-8----8---8---8---8---7----|-8----7----0----0---0---|-0---0---3----3---3---3---3---|


C#|------------------------|------------------------|------------------------|------------------------|
G#|------------------------|------------------------|------------------------|------------------------|
 E|------------------------|------------------------|------------------------|------------------------|
 B|------------------------|------------------------|------------------------|------------------------|
F#|-5-----5---5---5---4----|-5----4-----------------|------------------------|-5-----5---5---5---4----|
 B|-8-----8---8---8---7----|-8----7----0----0---0---|-0---0---3----2----0----|-8-----8---8---8---7----|


C#|------------------------|------------------------|---------------------------------|
G#|------------------------|------------------------|---------------------------------|
 E|------------------------|------------------------|---------------------------------|
 B|------------------------|------------------------|---------------------------------|
F#|-5----4-----------------|------------------------|---------------------------------|
 B|-8----7----0----0---0---|-0---0---3----2----0----|-1---0---0---0---0---0---1---0---|


C#|---------------------------------|---------------------------------|---------------------------------|
G#|---------------------------------|---------------------------------|---------------------------------|
 E|---------------------------------|---------------------------------|---------------------------------|
 B|---------------------------------|---------------------------------|---------------------------------|
F#|---------------------------------|---------------------------------|---------------------------------|
 B|-0---0---0---0---1---0---0---0---|-0---0---1---0---0---0---0---0---|-1---0---0---0---0---0---1---0---|


C#|---------------------------------|---------------------------------|---------------------------------|
G#|---------------------------------|---------------------------------|---------------------------------|
 E|---------------------------------|---------------------------------|---------------------------------|
 B|---------------------------------|---------------------------------|---------------------------------|
F#|---------------------------------|---------------------------------|-1---0-------------------1---0---|
 B|-0---0---0---0---1---0---0---0---|-0---0---1---0---0---0---0---0---|-1---0---0---0---0---0---1---0---|


C#|---------------------------------|---------------------------------|---------------------------------|
G#|---------------------------------|---------------------------------|---------------------------------|
 E|---------------------------------|---------------------------------|---------------------------------|
 B|---------------------------------|---------------------------------|---------------------------------|
F#|-----------------1---0-----------|---------------------------------|---------------------------------|
 B|-0---0---0---0---1---0---0---0---|-1---0---0---0---0---0---0---0---|-0---0---0---0---1---0---0---0---|


C#|---------------------------------|---------------------------------|------------------------------|
G#|---------------------------------|---------------------------------|------------------------------|
 E|---------------------------------|---------------------------------|------------------------------|
 B|---------------------------------|---------------------------------|-----------------7----7---7---|
F#|---------------------------------|---------------------------------|-----------------5----5---5---|
 B|-0---0---0---0---0---0---0---0---|-1---0---0---0---0---0---0---0---|-0---0---0---0---5----5---5---|


C#|------------------------------|---------------------------------|---------------------------------|
G#|------------------------------|---------------------------------|---------------------------------|
 E|------------------------------|---------------------------------|---------------------------------|
 B|-7---7---7----7---7---7-------|---------------------------------|---------------------------------|
F#|-5---5---5----5---5---5-------|---------------------------------|---------------------------------|
 B|-5---5---6----6---6---6---0---|-1---0---0---0---0---0---0---0---|-0---0---0---0---1---0---0---0---|


C#|---------------------------------|---------------------------------|------------------------------|
G#|---------------------------------|---------------------------------|------------------------------|
 E|---------------------------------|---------------------------------|------------------------------|
 B|---------------------------------|---------------------------------|-----------------7----7---7---|
F#|---------------------------------|---------------------------------|-----------------5----5---5---|
 B|-0---0---0---0---0---0---0---0---|-1---0---0---0---0---0---0---0---|-0---0---0---0---5----5---5---|


C#|------------------------------|---------------------------------|---------------------------------|
G#|------------------------------|---------------------------------|---------------------------------|
 E|------------------------------|---------------------------------|---------------------------------|
 B|-7---7---7----7---7---7-------|---------------------------------|---------------------------------|
F#|-5---5---5----5---5---5-------|---------------------------------|---------------------------------|
 B|-5---5---6----6---6---6---0---|-1---0---0---0---0---0---0---0---|-0---0---0---0---1---0---0---0---|


C#|---------------------------------|---------------------------------|------------------------------|
G#|---------------------------------|---------------------------------|------------------------------|
 E|---------------------------------|---------------------------------|------------------------------|
 B|---------------------------------|---------------------------------|-----------------7----7---7---|
F#|---------------------------------|---------------------------------|-----------------5----5---5---|
 B|-0---0---0---0---0---0---0---0---|-1---0---0---0---0---0---0---0---|-0---0---0---0---5----5---5---|


C#|------------------------------|---------------------------------|---------------------------------|
G#|------------------------------|---------------------------------|---------------------------------|
 E|------------------------------|---------------------------------|---------------------------------|
 B|-7---7---7----7---7---7-------|---------------------------------|---------------------------------|
F#|-5---5---5----5---5---5-------|---------------------------------|---------------------------------|
 B|-5---5---6----6---6---6---0---|-1---0---0---0---0---0---0---0---|-0---0---0---0---1---0---0---0---|


C#|---------------------------------|---------------------------------|------------------------------|
G#|---------------------------------|---------------------------------|------------------------------|
 E|---------------------------------|---------------------------------|------------------------------|
 B|---------------------------------|---------------------------------|-----------------7----7---7---|
F#|---------------------------------|---------------------------------|-----------------5----5---5---|
 B|-0---0---0---0---0---0---0---0---|-1---0---0---0---0---0---0---0---|-0---0---0---0---5----5---5---|


C#|------------------------------|---------------------------|------------------------------|
G#|------------------------------|---------------------------|------------------------------|
 E|------------------------------|---------------------------|------------------------------|
 B|-7---7---7----7---7---7-------|-7----7---7---7---7---7----|-7---7---7-------7------------|
F#|-5---5---5----5---5---5-------|-5----5---5---5---5---5----|-5---5---5-------5----5---5---|
 B|-5---5---6----6---6---6---0---|-5----5---5---5---5---6----|-6---6---6---0---5----5---5---|


C#|------------------------------|-------------------------------------|-----------------------------------|
G#|------------------------------|-------------------------------------|-----------------------------------|
 E|------------------------------|-8--8--7-------------------8--8--7---|-----------------------------------|
 B|------------------------------|-6-------------------------6---------|-----------------------------------|
F#|-5-------5---5---5---5--------|-6--6--5-------------------6--6--5---|-------------1---4--4--3---3---3---|
 B|-5---0---5---5---6---6---17---|-----------0---0---0---0-------------|-0---3---0-------4--4--3---3---3---|


C#|-----------------------------------|-------------------------------------|-----------------------------------|
G#|-----------------------------------|-------------------------------------|-----------------------------------|
 E|-----------------------------------|-8--8--7-------------------8--8--7---|-----------------------------------|
 B|---------4--4--3---3---3---3---3---|-6-------------------------6---------|-----------------------------------|
F#|-3---3---2--2--1---4---4---4---4---|-6--6--5-------------------6--6--5---|-------------1---4--4--3---3---3---|
 B|-3---3-----------------------------|-----------0---0---0---0-------------|-0---3---0-------4--4--3---3---3---|


C#|-----------------------------------|---------------------------------|-----------------------------------|
G#|-----------------------------------|---------------------------------|-----------------------------------|
 E|-----------------------------------|---------------------------------|-----------------------------------|
 B|---------4--4--3---3---3---3---3---|---------------------------------|-----------------4--4--6---6---6---|
F#|-3---3---2--2--1---4---4---4---4---|-1---0-------------------1---0---|-------------1---2--2--4---4---4---|
 B|-3---3-----------------------------|-1---0---0---0---0---0---1---0---|-0---3---5-------------------------|


C#|-----------------------------------|---------------------------------|-----------------------------------|
G#|---------------------------5---6---|---------------------------------|-----------------------------------|
 E|-----------------------------------|---------------------------------|-----------------------------------|
 B|-6---6---4--4--3---3---------------|---------------------------------|-----------------4--4--6---6---6---|
F#|-4---4---2--2--1-------0-----------|-1---0-------------------1---0---|-------------1---2--2--4---4---4---|
 B|-----------------------------------|-1---0---0---0---0---0---1---0---|-0---3---5-------------------------|


C#|-----------------------------------|---------------------------|------------------------|
G#|---------------------------5---6---|---------------------------|------------------------|
 E|-----------------------------------|---------------------------|------------------------|
 B|-6---6---4--4--3---3---------------|---------------------------|------------------------|
F#|-4---4---2--2--1-------0-----------|-12---12--12--12--12--7----|-8----7----10---10--10--|
 B|-----------------------------------|-0----0---0---0---0---0----|-0----0----8----8---8---|


C#|------------------------------|---------------------------|------------------------------|
G#|------------------------------|---------------------------|------------------------------|
 E|------------------------------|---------------------------|-------------7---7----7---7---|
 B|---------10---10--10--10--10--|-10---10--10--10--7---7----|-------------5---5----5---5---|
F#|-10--8---8----8---8---8---8---|-7----7---7---7---7---7----|-7---7---7---5---5----5---5---|
 B|-8---8---8----8---8---8---8---|-7----7---7---7---7---7----|-7---7---7-------5----5---5---|


C#|------------------------|---------------------------|------------------------|------------------------|
G#|------------------------|---------------------------|------------------------|------------------------|
 E|-7---7---7----6----6----|---------------------------|------------------------|------------------------|
 B|-5---5---8----7----8----|---------------------------|-----------8----8---8---|-8---8---8----7----8----|
F#|-5---5---8----7----8----|-12---12--12--12--12--7----|-8----7----8----8---8---|-8---8---8----8----8----|
 B|-5---5------------------|-0----0---0---0---0---0----|-0----0----8----8---8---|-8---8---8----8----8----|


C#|---------------------------|------------------------|-------------------------------------|
G#|---------------------------|------------------------|-------------------------------------|
 E|---------------------------|-----------9----9---9---|-9---9---9--9--12--12-12-14--14--14--|
 B|---------------------------|-----------7----7---7---|-7---7---7--7------10-10-----12--12--|
F#|-5----5---5---5---5--------|-----------7----7---7---|-7---7---7--7--10--10-10-12--12--12--|
 B|-5----5---5---5---5---3----|-2----0-----------------|-------------------------------------|


C#|---------------------------|------------------------|------------------------------|
G#|---------------------------|------------------------|------------------------------|
 E|---------------------------|------------------------|------------------------------|
 B|---------------------------|------------------------|---------10---10--10--10--10--|
F#|-12---12--12--12--12--7----|-8----7----10---10--10--|-10--8---8----8---8---8---8---|
 B|-0----0---0---0---0---0----|-0----0----8----8---8---|-8---8---8----8---8---8---8---|


C#|---------------------------|------------------------------|------------------------|
G#|---------------------------|------------------------------|------------------------|
 E|---------------------------|-------------7---7----7---7---|-7---7---7----6----6----|
 B|-10---10--10--10--7---7----|-------------5---5----5---5---|-5---5---8----7----8----|
F#|-7----7---7---7---7---7----|-7---7---7---5---5----5---5---|-5---5---8----7----8----|
 B|-7----7---7---7---7---7----|-7---7---7-------5----5---5---|-5---5------------------|


C#|---------------------------|------------------------|------------------------|---------------------------|
G#|---------------------------|------------------------|------------------------|---------------------------|
 E|---------------------------|------------------------|------------------------|---------------------------|
 B|---------------------------|-----------8----8---8---|-8---8---8----7----8----|---------------------------|
F#|-12---12--12--12--12--7----|-8----7----8----8---8---|-8---8---8----8----8----|-5----5---5---5---5--------|
 B|-0----0---0---0---0---0----|-0----0----8----8---8---|-8---8---8----8----8----|-5----5---5---5---5---3----|


C#|------------------------|-------------------------------------|---------------------------|
G#|------------------------|-------------------------------------|---------------------------|
 E|-----------9----9---9---|-9---9---9--9--12--12-12-14--14--14--|---------------------------|
 B|-----------7----7---7---|-7---7---7--7------10-10-----12--12--|---------------------------|
F#|-----------7----7---7---|-7---7---7--7--10--10-10-12--12--12--|-12---12--12--12--12--7----|
 B|-2----0-----------------|-------------------------------------|-0----0---0---0---0---0----|


C#|------------------------|------------------------------|---------------------------|
G#|------------------------|------------------------------|---------------------------|
 E|------------------------|------------------------------|---------------------------|
 B|------------------------|---------10---10--10--10--10--|-10---10--10--10--7---7----|
F#|-8----7----10---10--10--|-10--8---8----8---8---8---8---|-7----7---7---7---7---7----|
 B|-0----0----8----8---8---|-8---8---8----8---8---8---8---|-7----7---7---7---7---7----|


C#|------------------------------|------------------------|---------------------------|
G#|------------------------------|------------------------|---------------------------|
 E|-------------7---7----7---7---|-7---7---7----6----6----|---------------------------|
 B|-------------5---5----5---5---|-5---5---8----7----8----|---------------------------|
F#|-7---7---7---5---5----5---5---|-5---5---8----7----8----|-12---12--12--12--12--7----|
 B|-7---7---7-------5----5---5---|-5---5------------------|-0----0---0---0---0---0----|


C#|------------------------|------------------------|---------------------------|------------------------|
G#|------------------------|------------------------|---------------------------|------------------------|
 E|------------------------|------------------------|---------------------------|-----------9----9---9---|
 B|-----------8----8---8---|-8---8---8----7----8----|---------------------------|-----------7----7---7---|
F#|-8----7----8----8---8---|-8---8---8----8----8----|-5----5---5---5---5--------|-----------7----7---7---|
 B|-0----0----8----8---8---|-8---8---8----8----8----|-5----5---5---5---5---3----|-2----0-----------------|


C#|-------------------------------------|-------------|-------------|
G#|-------------------------------------|-------------|-------------|
 E|-9---9---9--9--12--12-12-14--14--14--|-------------|-------------|
 B|-7---7---7--7------10-10-----12--12--|-------------|-------------|
F#|-7---7---7--7--10--10-10-12--12--12--|-------------|-------------|
 B|-------------------------------------|-0------0----|-------0-----|





Track 3: Distortion 3

C#|--------|--------|--------|--------|--------|--------|--------|--------|--------|
G#|--------|--------|--------|--------|--------|--------|--------|--------|--------|
 E|--------|--------|--------|--------|--------|--------|--------|--------|--------|
 B|--------|--------|--------|--------|--------|--------|--------|--------|--------|
F#|--------|--------|--------|--------|--------|--------|--------|--------|--------|
 B|--------|--------|--------|--------|--------|--------|--------|--------|--------|


C#|--------|--------|--------|--------|--------|--------|--------|---------------------------------|
G#|--------|--------|--------|--------|--------|--------|--------|---------------------------------|
 E|--------|--------|--------|--------|--------|--------|--------|-4-----------6-----------6-------|
 B|--------|--------|--------|--------|--------|--------|--------|-5-----------5-----------5---5---|
F#|--------|--------|--------|--------|--------|--------|--------|-5---5---5---5---5---5-----------|
 B|--------|--------|--------|--------|--------|--------|--------|---------------------------------|


C#|---------------------------------|---------------------------------|-----------------------|
G#|---------------------------------|---------------------------------|-----------------------|
 E|-----6---------------6---6---6---|---------------------6---10--10--|-----6---6---6---6-----|
 B|-5---4---4---4---4---5---4---5---|-4---4---4---4---4---4-------8---|-----4---4---4---4-----|
F#|-----------------------------5---|-5---5---5---5---5---4---8---8---|-----4---4---4---4-----|
 B|---------------------------------|---------------------------------|-0---------------------|


C#|---------------------------------|---------------------------------|---------------------------------|
G#|---------------------------------|---------------------------------|---------------------------------|
 E|-------------------------6-------|---------------------------------|---------------------6---10--10--|
 B|-0-----------------------5-------|---------------------------------|---------------------4-------8---|
F#|-2---2---2---4---4---4-------5---|-5---4---4---4---4---5---4---0---|---------------------4---8---8---|
 B|-----------------------------5---|-5---4---4---4---4---5---4---0---|-0---0---0---0---0---------------|


C#|---------------------------------|---------------------------------|---------------------------------|
G#|---------------------------------|---------------------------------|---------------------------------|
 E|-----6---6---6---6---------------|-------------------------6-------|---------------------------------|
 B|-----4---4---4---4---------------|-0-----------------------5-------|---------------------------------|
F#|-0---4---4---4---4---4---4---4---|-2---2---2---4---4---4-------5---|-5---4---4---4---4---5---4---0---|
 B|---------------------------------|-----------------------------5---|-5---4---4---4---4---5---4---0---|


C#|---------------------------------|---------------------------------|---------------------------------|
G#|---------------------------------|---------------------------------|---------------------------------|
 E|---------------------6---10--10--|-----6---6---6---6---------------|-4-----------6-----------6-------|
 B|---------------------4-------8---|-----4---4---4---4---------------|-5-----------5-----------5---5---|
F#|---------------------4---8---8---|-0---4---4---4---4---4---4---4---|-5---5---5---5---5---5-----------|
 B|-0---0---0---0---0---------------|---------------------------------|---------------------------------|


C#|---------------------------------|---------------------------------|-----------------------|
G#|---------------------------------|---------------------------------|-----------------------|
 E|-----6---------------6---6---6---|---------------------6---10--10--|-----6---6---6---6-----|
 B|-5---4---4---4---4---5---4---5---|-4---4---4---4---4---4-------8---|-----4---4---4---4-----|
F#|-----------------------------5---|-5---5---5---5---5---4---8---8---|-----4---4---4---4-----|
 B|---------------------------------|---------------------------------|-0---------------------|


C#|---------------------------------|---------------------------------|---------------------------------|
G#|---------------------------------|---------------------------------|---------------------------------|
 E|-------------------------6-------|---------------------------------|---------------------6---10--10--|
 B|-0-----------------------5-------|---------------------------------|---------------------4-------8---|
F#|-2---2---2---4---4---4-------5---|-5---4---4---4---4---5---4---0---|---------------------4---8---8---|
 B|-----------------------------5---|-5---4---4---4---4---5---4---0---|-0---0---0---0---0---------------|


C#|-----------------------|--------|--------|--------|------------------|-----------------|
G#|-----------------------|--------|--------|--------|------------------|-----------------|
 E|-----6---6---6---6-----|--------|--------|--------|------------------|-----------------|
 B|-----4---4---4---4-----|--------|--------|--------|------------------|-----------------|
F#|-----4---4---4---4-----|--------|--------|--------|------------------|-----------------|
 B|-0---------------------|--------|--------|--------|-0-----1-----0----|-0---7-----6-----|


C#|------------------|-----------------|------------------|-----------------|------------------|
G#|------------------|-----------------|------------------|-----------------|------------------|
 E|------------------|-----------------|------------------|-----------------|------------------|
 B|------------------|-----------------|------------------|-----------------|------------------|
F#|------------------|-----------------|------------------|-----------------|------------------|
 B|-0-----1-----0----|-0---7-----6-----|-0-----1-----0----|-0---7-----6-----|-0-----1-----0----|


C#|-----------------|--------|--------|--------|---------------------------------|
G#|-----------------|--------|--------|--------|---------------------------------|
 E|-----------------|--------|--------|--------|---------------------------------|
 B|-----------------|--------|--------|--------|---------------------------------|
F#|-----------------|--------|--------|--------|-2---2---2-----------------------|
 B|-0---7-----6-----|--------|--------|--------|-------------0---0---0---2---2---|


C#|---------------------------------|---------------------------|--------|--------|
G#|---------------------------------|---------------------------|--------|--------|
 E|---------------------------------|---------------------------|--------|--------|
 B|---------------------------------|---------------------------|--------|--------|
F#|-----------------1---1-----------|---------------------------|--------|--------|
 B|-2---4---4---4-----------4---4---|-5---5---5---5---5---------|--------|--------|


C#|--------|--------|--------|---------------------------------|---------------------------------|
G#|--------|--------|--------|---------------------------------|---------------------------------|
 E|--------|--------|--------|---------------------------------|---------------------------------|
 B|--------|--------|--------|---------------------------------|---------------------------------|
F#|--------|--------|--------|-2---2---2-----------------------|-----------------1---1-----------|
 B|--------|--------|--------|-------------0---0---0---2---2---|-2---4---4---4-----------4---4---|


C#|---------------------------------|---------------------------------|---------------------------------|
G#|---------------------------------|---------------------------------|---------------------------------|
 E|---------------------10--10--10--|-10--6---6---6---6---6---6---6---|---------------------------------|
 B|---------------------8---8---8---|-8---4---4---4---4---4---4---4---|---------------------------------|
F#|---------------------8---8---8---|-8---4---4---4---4---4---4---4---|-2---2---2-----------------------|
 B|-5---5---5---5---5---------------|---------------------------------|-------------0---0---0---2---2---|


C#|---------------------------------|---------------------------------|---------------------------------|
G#|---------------------------------|---------------------------------|---------------------------------|
 E|---------------------------------|---------------------10--10--10--|-10--6---6---6---6---6---6---6---|
 B|---------------------------------|---------------------8---8---8---|-8---4---4---4---4---4---4---4---|
F#|-----------------1---1-----------|---------------------8---8---8---|-8---4---4---4---4---4---4---4---|
 B|-2---4---4---4-----------4---4---|-5---5---5---5---5---------------|---------------------------------|


C#|--------|--------|--------|------------------|-----------------|------------------|
G#|--------|--------|--------|------------------|-----------------|------------------|
 E|--------|--------|--------|------------------|-----------------|------------------|
 B|--------|--------|--------|------------------|-----------------|------------------|
F#|--------|--------|--------|------------------|-----------------|------------------|
 B|--------|--------|--------|-0-----1-----0----|-0---7-----6-----|-0-----1-----0----|


C#|-----------------|------------------|-----------------|------------------|-----------------|
G#|-----------------|------------------|-----------------|------------------|-----------------|
 E|-----------------|------------------|-----------------|------------------|-----------------|
 B|-----------------|------------------|-----------------|------------------|-----------------|
F#|-----------------|------------------|-----------------|------------------|-----------------|
 B|-0---7-----6-----|-0-----1-----0----|-0---7-----6-----|-0-----1-----0----|-0---7-----6-----|


C#|--------|--------|--------|--------|--------|--------|--------|--------|--------|
G#|--------|--------|--------|--------|--------|--------|--------|--------|--------|
 E|--------|--------|--------|--------|--------|--------|--------|--------|--------|
 B|--------|--------|--------|--------|--------|--------|--------|--------|--------|
F#|--------|--------|--------|--------|--------|--------|--------|--------|--------|
 B|--------|--------|--------|--------|--------|--------|--------|--------|--------|


C#|--------|--------|--------|-----------------|-----------------|-----------------|
G#|--------|--------|--------|------------10---|-10----11---11---|-----------------|
 E|--------|--------|--------|-7----7----------|-----------------|------12---12----|
 B|--------|--------|--------|-----------------|-----------------|-----------------|
F#|--------|--------|--------|-----------------|-----------------|-----------------|
 B|--------|--------|--------|-----------------|-----------------|-----------------|


C#|-----------------|-----------------|-----------------|-----------------|-----------------|
G#|-10---10---------|-------10---10---|------------10---|------------10---|-10----11---11---|
 E|------------10---|-10--------------|------12---------|-7----7----------|-----------------|
 B|-----------------|-----------------|-----------------|-----------------|-----------------|
F#|-----------------|-----------------|-----------------|-----------------|-----------------|
 B|-----------------|-----------------|-----------------|-----------------|-----------------|


C#|-----------------|-----------------|-----------------|-----------------|-------------|
G#|-----------------|-10---10---------|-------10---10---|------------10---|-------------|
 E|------12---12----|------------10---|-10--------------|------12---------|-------------|
 B|-----------------|-----------------|-----------------|-----------------|-12-----12---|
F#|-----------------|-----------------|-----------------|-----------------|-------------|
 B|-----------------|-----------------|-----------------|-----------------|-------------|


C#|-------------|-----------------|-------------|-------------|-------------|-------------|
G#|-------------|-----------------|-------------|-------------|-------------|-------------|
 E|-------------|-----------------|-------------|-------------|-------------|-------------|
 B|-------12----|------12---------|-------------|-------------|-------------|-------------|
F#|-------------|-----------------|-------------|-------------|-------------|-------------|
 B|-------------|-----------------|-------------|-------------|-------------|-------------|


C#|-----------------|-----------------|-----------------------|---------------------------------|
G#|-----------------|-13---13----13---|-------13--13--13--13--|-13--13--13--13--13--13--13--13--|
 E|-----------12----|-----------------|-----------------------|---------------------------------|
 B|-----------------|-----------------|-----------------------|---------------------------------|
F#|-----------------|-----------------|-----------------------|---------------------------------|
 B|-----------------|-----------------|-----------------------|---------------------------------|


C#|---------------------------------|---------------------------------|--------------------|
G#|-13--13--13--13--13--13--13--13--|-13--13--13------10--11--10------|-10--11--10----10---|
 E|---------------------------------|-------------0---------------12--|--------------------|
 B|---------------------------------|---------------------------------|--------------------|
F#|---------------------------------|---------------------------------|--------------------|
 B|---------------------------------|---------------------------------|--------------------|


C#|-------------|-------------|-------------|-------------|-----------------|------------------------|
G#|-13-----13---|-------13----|------13-----|-13-----13---|-----------------|------------------------|
 E|-------------|-------------|-------------|-------------|-----------------|------------------------|
 B|-------------|-------------|-------------|-------------|-------8-----7---|-----7---8----7----7----|
F#|-------------|-------------|-------------|-------------|-----------------|------------------------|
 B|-------------|-------------|-------------|-------------|-----------------|------------------------|


C#|---------------------|---------------------|--------------------|------------------------|
G#|---------------------|---------------------|--------------------|------------------------|
 E|---------------------|-----------------6---|-6---6--------------|-------9---9---9--------|
 B|-7----7-----7---7----|------7----7-----7---|-7---7---7-----7----|-7-----7---7---7---7----|
F#|---------------------|---------------------|--------------------|------------------------|
 B|---------------------|---------------------|--------------------|------------------------|


C#|-----------13--13--10--13--10------|-10-13-10-----------------------------------------|
G#|-------------------------------13--|----------13--13--11--13--11--10------10--11--10--|
 E|-----------------------------------|----------------------------------12--------------|
 B|------7----------------------------|--------------------------------------------------|
F#|-----------------------------------|--------------------------------------------------|
 B|-----------------------------------|--------------------------------------------------|


C#|-----------------------------------------------|------------------------------------------|
G#|-10-11-10--10-11-10-----10-11-10--10-11-10-----|-10-11-10--11--10--10-11-10-----10-11-10--|
 E|--------------------12---------------------12--|----------------------------12------------|
 B|-----------------------------------------------|------------------------------------------|
F#|-----------------------------------------------|------------------------------------------|
 B|-----------------------------------------------|------------------------------------------|


C#|--------------------------------------------|-------------------------------------------|
G#|-10-11-10--10-11-10-----10-11-10--10-11-10--|-10-11-10--8--10-8---6--8--6---5--6--5--6--|
 E|--------------------12----------------------|-------------------------------------------|
 B|--------------------------------------------|-------------------------------------------|
F#|--------------------------------------------|-------------------------------------------|
 B|--------------------------------------------|-------------------------------------------|


C#|-----------------------------------------|------------------------------|---------------------------------------------|
G#|-6--8--6---5--6--5-----------------------|------------------------------|---------------------------------------------|
 E|-----------------------------------------|------------------------------|-----------------------------------9--7--9---|
 B|---------------------7--8--7---5--7--5---|-8---8---8---8---8---8---8----|-10-8--7--8--10-8--7--8--12-10-12------------|
F#|-----------------------------------------|------------------------------|---------------------------------------------|
 B|-----------------------------------------|------------------------------|---------------------------------------------|


C#|-----------------------------------------|----------------------------------|-----------------|
G#|-----------------------------------------|-----10--13-10-13-10-12--10-------|-14----14---14---|
 E|-10-8--10--12-10-10--12-10-12--12-10-12--|-12--------------------------0----|-----------------|
 B|-----------------------------------------|----------------------------------|-----------------|
F#|-----------------------------------------|----------------------------------|-----------------|
 B|-----------------------------------------|----------------------------------|-----------------|


C#|-------------|----------------|--------|--------|--------|--------|--------|--------|
G#|-------14----|-14--14---------|--------|--------|--------|--------|--------|--------|
 E|-------------|----------------|--------|--------|--------|--------|--------|--------|
 B|-------------|----------------|--------|--------|--------|--------|--------|--------|
F#|-------------|----------------|--------|--------|--------|--------|--------|--------|
 B|-------------|----------------|--------|--------|--------|--------|--------|--------|


C#|--------|--------|--------|-----------------|-----------------|-----------------|
G#|--------|--------|--------|------------10---|-10----11---11---|-----------------|
 E|--------|--------|--------|-7----7----------|-----------------|------12---12----|
 B|--------|--------|--------|-----------------|-----------------|-----------------|
F#|--------|--------|--------|-----------------|-----------------|-----------------|
 B|--------|--------|--------|-----------------|-----------------|-----------------|


C#|-----------------|-----------------|-----------------|-----------------|-----------------|
G#|-10---10---------|-------10---10---|------------10---|------------10---|-10----11---11---|
 E|------------10---|-10--------------|------12---------|-7----7----------|-----------------|
 B|-----------------|-----------------|-----------------|-----------------|-----------------|
F#|-----------------|-----------------|-----------------|-----------------|-----------------|
 B|-----------------|-----------------|-----------------|-----------------|-----------------|


C#|-----------------|-----------------|-----------------|-----------------|-------------|
G#|-----------------|-10---10---------|-------10---10---|------------10---|-------------|
 E|------12---12----|------------10---|-10--------------|------12---------|-------------|
 B|-----------------|-----------------|-----------------|-----------------|-12-----12---|
F#|-----------------|-----------------|-----------------|-----------------|-------------|
 B|-----------------|-----------------|-----------------|-----------------|-------------|


C#|-------------|-----------------|-------------|-------------|-------------|-------------|
G#|-------------|-----------------|-------------|-------------|-------------|-------------|
 E|-------------|-----------------|-------------|-------------|-------------|-------------|
 B|-------12----|------12---------|-------------|-------------|-------------|-------------|
F#|-------------|-----------------|-------------|-------------|-------------|-------------|
 B|-------------|-----------------|-------------|-------------|-------------|-------------|


C#|-----------------|-----------------|-----------------------|---------------------------------|
G#|-----------------|-13---13----13---|-------13--13--13--13--|-13--13--13--13--13--13--13--13--|
 E|-----------12----|-----------------|-----------------------|---------------------------------|
 B|-----------------|-----------------|-----------------------|---------------------------------|
F#|-----------------|-----------------|-----------------------|---------------------------------|
 B|-----------------|-----------------|-----------------------|---------------------------------|


C#|---------------------------------|---------------------------------|--------------------|
G#|-13--13--13--13--13--13--13--13--|-13--13--13------10--11--10------|-10--11--10----10---|
 E|---------------------------------|-------------0---------------12--|--------------------|
 B|---------------------------------|---------------------------------|--------------------|
F#|---------------------------------|---------------------------------|--------------------|
 B|---------------------------------|---------------------------------|--------------------|


C#|-------------|-------------|-------------|-------------|-----------------|------------------------|
G#|-13-----13---|-------13----|------13-----|-13-----13---|-----------------|------------------------|
 E|-------------|-------------|-------------|-------------|-----------------|------------------------|
 B|-------------|-------------|-------------|-------------|-------8-----7---|-----7---8----7----7----|
F#|-------------|-------------|-------------|-------------|-----------------|------------------------|
 B|-------------|-------------|-------------|-------------|-----------------|------------------------|


C#|---------------------|---------------------|--------------------|------------------------|
G#|---------------------|---------------------|--------------------|------------------------|
 E|---------------------|-----------------6---|-6---6--------------|-------9---9---9--------|
 B|-7----7-----7---7----|------7----7-----7---|-7---7---7-----7----|-7-----7---7---7---7----|
F#|---------------------|---------------------|--------------------|------------------------|
 B|---------------------|---------------------|--------------------|------------------------|


C#|-----------13--13--10--13--10------|-10-13-10-----------------------------------------|
G#|-------------------------------13--|----------13--13--11--13--11--10------10--11--10--|
 E|-----------------------------------|----------------------------------12--------------|
 B|------7----------------------------|--------------------------------------------------|
F#|-----------------------------------|--------------------------------------------------|
 B|-----------------------------------|--------------------------------------------------|


C#|-----------------------------------------------|------------------------------------------|
G#|-10-11-10--10-11-10-----10-11-10--10-11-10-----|-10-11-10--11--10--10-11-10-----10-11-10--|
 E|--------------------12---------------------12--|----------------------------12------------|
 B|-----------------------------------------------|------------------------------------------|
F#|-----------------------------------------------|------------------------------------------|
 B|-----------------------------------------------|------------------------------------------|


C#|--------------------------------------------|-------------------------------------------|
G#|-10-11-10--10-11-10-----10-11-10--10-11-10--|-10-11-10--8--10-8---6--8--6---5--6--5--6--|
 E|--------------------12----------------------|-------------------------------------------|
 B|--------------------------------------------|-------------------------------------------|
F#|--------------------------------------------|-------------------------------------------|
 B|--------------------------------------------|-------------------------------------------|


C#|-----------------------------------------|------------------------------|---------------------------------------------|
G#|-6--8--6---5--6--5-----------------------|------------------------------|---------------------------------------------|
 E|-----------------------------------------|------------------------------|-----------------------------------9--7--9---|
 B|---------------------7--8--7---5--7--5---|-8---8---8---8---8---8---8----|-10-8--7--8--10-8--7--8--12-10-12------------|
F#|-----------------------------------------|------------------------------|---------------------------------------------|
 B|-----------------------------------------|------------------------------|---------------------------------------------|


C#|-----------------------------------------|----------------------------------|-----------------|
G#|-----------------------------------------|-----10--13-10-13-10-12--10-------|-14----14---14---|
 E|-10-8--10--12-10-10--12-10-12--12-10-12--|-12--------------------------0----|-----------------|
 B|-----------------------------------------|----------------------------------|-----------------|
F#|-----------------------------------------|----------------------------------|-----------------|
 B|-----------------------------------------|----------------------------------|-----------------|


C#|-------------|----------------|--------|--------|--------|--------|--------|--------|
G#|-------14----|-14--14---------|--------|--------|--------|--------|--------|--------|
 E|-------------|----------------|--------|--------|--------|--------|--------|--------|
 B|-------------|----------------|--------|--------|--------|--------|--------|--------|
F#|-------------|----------------|--------|--------|--------|--------|--------|--------|
 B|-------------|----------------|--------|--------|--------|--------|--------|--------|


C#|--------|--------|--------|-----------------|-----------------|-----------------|
G#|--------|--------|--------|------------10---|-10----11---11---|-----------------|
 E|--------|--------|--------|-7----7----------|-----------------|------12---12----|
 B|--------|--------|--------|-----------------|-----------------|-----------------|
F#|--------|--------|--------|-----------------|-----------------|-----------------|
 B|--------|--------|--------|-----------------|-----------------|-----------------|


C#|-----------------|-----------------|-----------------|-----------------|-----------------|
G#|-10---10---------|-------10---10---|------------10---|------------10---|-10----11---11---|
 E|------------10---|-10--------------|------12---------|-7----7----------|-----------------|
 B|-----------------|-----------------|-----------------|-----------------|-----------------|
F#|-----------------|-----------------|-----------------|-----------------|-----------------|
 B|-----------------|-----------------|-----------------|-----------------|-----------------|


C#|-----------------|-----------------|-----------------|-----------------|-----------------|
G#|-----------------|-10---10---------|-------10---10---|------------10---|------------10---|
 E|------12---12----|------------10---|-10--------------|------12---------|-7----7----------|
 B|-----------------|-----------------|-----------------|-----------------|-----------------|
F#|-----------------|-----------------|-----------------|-----------------|-----------------|
 B|-----------------|-----------------|-----------------|-----------------|-----------------|


C#|-----------------|-----------------|-----------------|-----------------|-----------------|
G#|-10----11---11---|-----------------|-10---10---------|-------10---10---|------------10---|
 E|-----------------|------12---12----|------------10---|-10--------------|------12---------|
 B|-----------------|-----------------|-----------------|-----------------|-----------------|
F#|-----------------|-----------------|-----------------|-----------------|-----------------|
 B|-----------------|-----------------|-----------------|-----------------|-----------------|


C#|-----------------|-----------------|-----------------|-----------------|-----------------|
G#|------------10---|-10----11---11---|-----------------|-10---10---------|-------10---10---|
 E|-7----7----------|-----------------|------12---12----|------------10---|-10--------------|
 B|-----------------|-----------------|-----------------|-----------------|-----------------|
F#|-----------------|-----------------|-----------------|-----------------|-----------------|
 B|-----------------|-----------------|-----------------|-----------------|-----------------|


C#|-----------------|-----------------|-----------------|-----------------|-----------------|
G#|------------10---|------------10---|-10----11---11---|-----------------|-10---10---------|
 E|------12---------|-7----7----------|-----------------|------12---12----|------------10---|
 B|-----------------|-----------------|-----------------|-----------------|-----------------|
F#|-----------------|-----------------|-----------------|-----------------|-----------------|
 B|-----------------|-----------------|-----------------|-----------------|-----------------|


C#|-----------------|-----------------|-----------------|-----------------|-----------------|
G#|-------10---10---|------------10---|------------10---|-10----11---11---|-----------------|
 E|-10--------------|------12---------|-7----7----------|-----------------|------12---12----|
 B|-----------------|-----------------|-----------------|-----------------|-----------------|
F#|-----------------|-----------------|-----------------|-----------------|-----------------|
 B|-----------------|-----------------|-----------------|-----------------|-----------------|


C#|-----------------|-----------------|-----------------|-------------|-------------|
G#|-10---10---------|-------10---10---|------------10---|-10-----10---|-------------|
 E|------------10---|-10--------------|------12---------|-------------|-------------|
 B|-----------------|-----------------|-----------------|-------------|-------------|
F#|-----------------|-----------------|-----------------|-------------|-------------|
 B|-----------------|-----------------|-----------------|-------------|-------------|





Track 4: Music Box

C#|--------|--------|--------|--------|--------|--------|--------|--------|--------|
G#|--------|--------|--------|--------|--------|--------|--------|--------|--------|
 E|--------|--------|--------|--------|--------|--------|--------|--------|--------|
 B|--------|--------|--------|--------|--------|--------|--------|--------|--------|
F#|--------|--------|--------|--------|--------|--------|--------|--------|--------|
 B|--------|--------|--------|--------|--------|--------|--------|--------|--------|


C#|--------|--------|--------|--------|--------|--------|--------|--------|--------|
G#|--------|--------|--------|--------|--------|--------|--------|--------|--------|
 E|--------|--------|--------|--------|--------|--------|--------|--------|--------|
 B|--------|--------|--------|--------|--------|--------|--------|--------|--------|
F#|--------|--------|--------|--------|--------|--------|--------|--------|--------|
 B|--------|--------|--------|--------|--------|--------|--------|--------|--------|


C#|--------|--------|--------|--------|--------|--------|--------|--------|--------|
G#|--------|--------|--------|--------|--------|--------|--------|--------|--------|
 E|--------|--------|--------|--------|--------|--------|--------|--------|--------|
 B|--------|--------|--------|--------|--------|--------|--------|--------|--------|
F#|--------|--------|--------|--------|--------|--------|--------|--------|--------|
 B|--------|--------|--------|--------|--------|--------|--------|--------|--------|


C#|--------|--------|--------|--------|--------|--------|--------|--------|--------|
G#|--------|--------|--------|--------|--------|--------|--------|--------|--------|
 E|--------|--------|--------|--------|--------|--------|--------|--------|--------|
 B|--------|--------|--------|--------|--------|--------|--------|--------|--------|
F#|--------|--------|--------|--------|--------|--------|--------|--------|--------|
 B|--------|--------|--------|--------|--------|--------|--------|--------|--------|


C#|--------|--------|--------|--------|--------|--------|--------|--------|--------|
G#|--------|--------|--------|--------|--------|--------|--------|--------|--------|
 E|--------|--------|--------|--------|--------|--------|--------|--------|--------|
 B|--------|--------|--------|--------|--------|--------|--------|--------|--------|
F#|--------|--------|--------|--------|--------|--------|--------|--------|--------|
 B|--------|--------|--------|--------|--------|--------|--------|--------|--------|


C#|--------|--------|--------|--------|--------|--------|--------|--------|--------|
G#|--------|--------|--------|--------|--------|--------|--------|--------|--------|
 E|--------|--------|--------|--------|--------|--------|--------|--------|--------|
 B|--------|--------|--------|--------|--------|--------|--------|--------|--------|
F#|--------|--------|--------|--------|--------|--------|--------|--------|--------|
 B|--------|--------|--------|--------|--------|--------|--------|--------|--------|


C#|--------|--------|--------|--------|--------|--------|--------|--------|--------|
G#|--------|--------|--------|--------|--------|--------|--------|--------|--------|
 E|--------|--------|--------|--------|--------|--------|--------|--------|--------|
 B|--------|--------|--------|--------|--------|--------|--------|--------|--------|
F#|--------|--------|--------|--------|--------|--------|--------|--------|--------|
 B|--------|--------|--------|--------|--------|--------|--------|--------|--------|


C#|--------|--------|--------|--------|--------|--------|--------|--------|--------|
G#|--------|--------|--------|--------|--------|--------|--------|--------|--------|
 E|--------|--------|--------|--------|--------|--------|--------|--------|--------|
 B|--------|--------|--------|--------|--------|--------|--------|--------|--------|
F#|--------|--------|--------|--------|--------|--------|--------|--------|--------|
 B|--------|--------|--------|--------|--------|--------|--------|--------|--------|


C#|--------|--------|--------|--------|--------|--------|--------|--------|--------|
G#|--------|--------|--------|--------|--------|--------|--------|--------|--------|
 E|--------|--------|--------|--------|--------|--------|--------|--------|--------|
 B|--------|--------|--------|--------|--------|--------|--------|--------|--------|
F#|--------|--------|--------|--------|--------|--------|--------|--------|--------|
 B|--------|--------|--------|--------|--------|--------|--------|--------|--------|


C#|--------|--------|--------|--------|--------|--------|--------|--------|--------|
G#|--------|--------|--------|--------|--------|--------|--------|--------|--------|
 E|--------|--------|--------|--------|--------|--------|--------|--------|--------|
 B|--------|--------|--------|--------|--------|--------|--------|--------|--------|
F#|--------|--------|--------|--------|--------|--------|--------|--------|--------|
 B|--------|--------|--------|--------|--------|--------|--------|--------|--------|


C#|--------|--------|--------|--------|--------|--------|--------|--------|--------|
G#|--------|--------|--------|--------|--------|--------|--------|--------|--------|
 E|--------|--------|--------|--------|--------|--------|--------|--------|--------|
 B|--------|--------|--------|--------|--------|--------|--------|--------|--------|
F#|--------|--------|--------|--------|--------|--------|--------|--------|--------|
 B|--------|--------|--------|--------|--------|--------|--------|--------|--------|


C#|--------|--------|--------|--------|--------|--------|--------|--------|--------|
G#|--------|--------|--------|--------|--------|--------|--------|--------|--------|
 E|--------|--------|--------|--------|--------|--------|--------|--------|--------|
 B|--------|--------|--------|--------|--------|--------|--------|--------|--------|
F#|--------|--------|--------|--------|--------|--------|--------|--------|--------|
 B|--------|--------|--------|--------|--------|--------|--------|--------|--------|


C#|--------|--------|--------|--------|--------|--------|--------|--------|--------|
G#|--------|--------|--------|--------|--------|--------|--------|--------|--------|
 E|--------|--------|--------|--------|--------|--------|--------|--------|--------|
 B|--------|--------|--------|--------|--------|--------|--------|--------|--------|
F#|--------|--------|--------|--------|--------|--------|--------|--------|--------|
 B|--------|--------|--------|--------|--------|--------|--------|--------|--------|


C#|--------|--------|--------|--------|--------|--------|--------|--------|--------|
G#|--------|--------|--------|--------|--------|--------|--------|--------|--------|
 E|--------|--------|--------|--------|--------|--------|--------|--------|--------|
 B|--------|--------|--------|--------|--------|--------|--------|--------|--------|
F#|--------|--------|--------|--------|--------|--------|--------|--------|--------|
 B|--------|--------|--------|--------|--------|--------|--------|--------|--------|


C#|--------|--------|--------|--------|--------|--------|--------|--------|--------|
G#|--------|--------|--------|--------|--------|--------|--------|--------|--------|
 E|--------|--------|--------|--------|--------|--------|--------|--------|--------|
 B|--------|--------|--------|--------|--------|--------|--------|--------|--------|
F#|--------|--------|--------|--------|--------|--------|--------|--------|--------|
 B|--------|--------|--------|--------|--------|--------|--------|--------|--------|


C#|--------|--------|--------|--------|--------|--------|--------|--------|--------|
G#|--------|--------|--------|--------|--------|--------|--------|--------|--------|
 E|--------|--------|--------|--------|--------|--------|--------|--------|--------|
 B|--------|--------|--------|--------|--------|--------|--------|--------|--------|
F#|--------|--------|--------|--------|--------|--------|--------|--------|--------|
 B|--------|--------|--------|--------|--------|--------|--------|--------|--------|


C#|--------|--------|--------|--------|--------|--------|--------|--------|--------|
G#|--------|--------|--------|--------|--------|--------|--------|--------|--------|
 E|--------|--------|--------|--------|--------|--------|--------|--------|--------|
 B|--------|--------|--------|--------|--------|--------|--------|--------|--------|
F#|--------|--------|--------|--------|--------|--------|--------|--------|--------|
 B|--------|--------|--------|--------|--------|--------|--------|--------|--------|


C#|--------|--------|--------|--------|--------|--------|--------|--------|--------|
G#|--------|--------|--------|--------|--------|--------|--------|--------|--------|
 E|--------|--------|--------|--------|--------|--------|--------|--------|--------|
 B|--------|--------|--------|--------|--------|--------|--------|--------|--------|
F#|--------|--------|--------|--------|--------|--------|--------|--------|--------|
 B|--------|--------|--------|--------|--------|--------|--------|--------|--------|


C#|--------|--------|--------|--------|--------|--------|--------|--------|--------|
G#|--------|--------|--------|--------|--------|--------|--------|--------|--------|
 E|--------|--------|--------|--------|--------|--------|--------|--------|--------|
 B|--------|--------|--------|--------|--------|--------|--------|--------|--------|
F#|--------|--------|--------|--------|--------|--------|--------|--------|--------|
 B|--------|--------|--------|--------|--------|--------|--------|--------|--------|


C#|--------|--------|--------|--------|--------|--------|--------|--------|--------|
G#|--------|--------|--------|--------|--------|--------|--------|--------|--------|
 E|--------|--------|--------|--------|--------|--------|--------|--------|--------|
 B|--------|--------|--------|--------|--------|--------|--------|--------|--------|
F#|--------|--------|--------|--------|--------|--------|--------|--------|--------|
 B|--------|--------|--------|--------|--------|--------|--------|--------|--------|


C#|--------|--------|--------|--------|--------|--------|--------|--------|--------|
G#|--------|--------|--------|--------|--------|--------|--------|--------|--------|
 E|--------|--------|--------|--------|--------|--------|--------|--------|--------|
 B|--------|--------|--------|--------|--------|--------|--------|--------|--------|
F#|--------|--------|--------|--------|--------|--------|--------|--------|--------|
 B|--------|--------|--------|--------|--------|--------|--------|--------|--------|


C#|--------|--------|--------|--------|--------|--------|--------|--------|--------|
G#|--------|--------|--------|--------|--------|--------|--------|--------|--------|
 E|--------|--------|--------|--------|--------|--------|--------|--------|--------|
 B|--------|--------|--------|--------|--------|--------|--------|--------|--------|
F#|--------|--------|--------|--------|--------|--------|--------|--------|--------|
 B|--------|--------|--------|--------|--------|--------|--------|--------|--------|


C#|--------|--------|--------|--------|--------|--------|--------|--------|--------|
G#|--------|--------|--------|--------|--------|--------|--------|--------|--------|
 E|--------|--------|--------|--------|--------|--------|--------|--------|--------|
 B|--------|--------|--------|--------|--------|--------|--------|--------|--------|
F#|--------|--------|--------|--------|--------|--------|--------|--------|--------|
 B|--------|--------|--------|--------|--------|--------|--------|--------|--------|


C#|--------|--------|--------|--------|--------|--------|--------|--------|--------|
G#|--------|--------|--------|--------|--------|--------|--------|--------|--------|
 E|--------|--------|--------|--------|--------|--------|--------|--------|--------|
 B|--------|--------|--------|--------|--------|--------|--------|--------|--------|
F#|--------|--------|--------|--------|--------|--------|--------|--------|--------|
 B|--------|--------|--------|--------|--------|--------|--------|--------|--------|


C#|--------|--------|--------|--------|--------|--------|--------|--------|--------|
G#|--------|--------|--------|--------|--------|--------|--------|--------|--------|
 E|--------|--------|--------|--------|--------|--------|--------|--------|--------|
 B|--------|--------|--------|--------|--------|--------|--------|--------|--------|
F#|--------|--------|--------|--------|--------|--------|--------|--------|--------|
 B|--------|--------|--------|--------|--------|--------|--------|--------|--------|


C#|--------|--------|--------|--------|--------|--------|-------------|-------------|
G#|--------|--------|--------|--------|--------|--------|--------10---|-------11----|
 E|--------|--------|--------|--------|--------|--------|-7-----------|-------------|
 B|--------|--------|--------|--------|--------|--------|-------------|-------------|
F#|--------|--------|--------|--------|--------|--------|-------------|-------------|
 B|--------|--------|--------|--------|--------|--------|-------------|-------------|


C#|-------------|-------------|-------------|-------------|-------------|-------------|
G#|-------------|-10----------|-------10----|-------------|--------10---|-------11----|
 E|------12-----|--------10---|-------------|------12-----|-7-----------|-------------|
 B|-------------|-------------|-------------|-------------|-------------|-------------|
F#|-------------|-------------|-------------|-------------|-------------|-------------|
 B|-------------|-------------|-------------|-------------|-------------|-------------|


C#|-------------|-------------|-------------|-------------|--------|--------|
G#|-------------|-10----------|-------10----|-------------|--------|--------|
 E|------12-----|--------10---|-------------|------12-----|--------|--------|
 B|-------------|-------------|-------------|-------------|--------|--------|
F#|-------------|-------------|-------------|-------------|--------|--------|
 B|-------------|-------------|-------------|-------------|--------|--------|





Track 5: Untitled

G|--------|--------|--------|--------|--------|--------|--------|--------|--------|
D|--------|--------|--------|--------|--------|--------|--------|--------|--------|
A|--------|--------|--------|--------|--------|--------|--------|--------|--------|
E|--------|--------|--------|--------|--------|--------|--------|--------|--------|


G|--------|--------|--------|--------|--------|--------|--------|--------|--------|
D|--------|--------|--------|--------|--------|--------|--------|--------|--------|
A|--------|--------|--------|--------|--------|--------|--------|--------|--------|
E|--------|--------|--------|--------|--------|--------|--------|--------|--------|


G|--------|--------|--------|--------|--------|--------|--------|--------|--------|
D|--------|--------|--------|--------|--------|--------|--------|--------|--------|
A|--------|--------|--------|--------|--------|--------|--------|--------|--------|
E|--------|--------|--------|--------|--------|--------|--------|--------|--------|


G|--------|--------|--------|--------|--------|--------|--------|--------|--------|
D|--------|--------|--------|--------|--------|--------|--------|--------|--------|
A|--------|--------|--------|--------|--------|--------|--------|--------|--------|
E|--------|--------|--------|--------|--------|--------|--------|--------|--------|


G|--------|--------|--------|--------|--------|--------|--------|--------|--------|
D|--------|--------|--------|--------|--------|--------|--------|--------|--------|
A|--------|--------|--------|--------|--------|--------|--------|--------|--------|
E|--------|--------|--------|--------|--------|--------|--------|--------|--------|


G|--------|--------|--------|--------|--------|--------|--------|--------|--------|
D|--------|--------|--------|--------|--------|--------|--------|--------|--------|
A|--------|--------|--------|--------|--------|--------|--------|--------|--------|
E|--------|--------|--------|--------|--------|--------|--------|--------|--------|


G|--------|--------|--------|--------|--------|--------|--------|--------|--------|
D|--------|--------|--------|--------|--------|--------|--------|--------|--------|
A|--------|--------|--------|--------|--------|--------|--------|--------|--------|
E|--------|--------|--------|--------|--------|--------|--------|--------|--------|


G|--------|--------|--------|--------|--------|--------|--------|--------|--------|
D|--------|--------|--------|--------|--------|--------|--------|--------|--------|
A|--------|--------|--------|--------|--------|--------|--------|--------|--------|
E|--------|--------|--------|--------|--------|--------|--------|--------|--------|


G|--------|--------|--------|--------|--------|--------|--------|--------|--------|
D|--------|--------|--------|--------|--------|--------|--------|--------|--------|
A|--------|--------|--------|--------|--------|--------|--------|--------|--------|
E|--------|--------|--------|--------|--------|--------|--------|--------|--------|


G|--------|--------|--------|--------|--------|--------|--------|--------|--------|
D|--------|--------|--------|--------|--------|--------|--------|--------|--------|
A|--------|--------|--------|--------|--------|--------|--------|--------|--------|
E|--------|--------|--------|--------|--------|--------|--------|--------|--------|


G|--------|--------|--------|--------|--------|--------|--------|--------|--------|
D|--------|--------|--------|--------|--------|--------|--------|--------|--------|
A|--------|--------|--------|--------|--------|--------|--------|--------|--------|
E|--------|--------|--------|--------|--------|--------|--------|--------|--------|


G|--------|--------|--------|--------|--------|--------|--------|--------|--------|
D|--------|--------|--------|--------|--------|--------|--------|--------|--------|
A|--------|--------|--------|--------|--------|--------|--------|--------|--------|
E|--------|--------|--------|--------|--------|--------|--------|--------|--------|


G|--------|--------|--------|--------|--------|--------|--------|--------|--------|
D|--------|--------|--------|--------|--------|--------|--------|--------|--------|
A|--------|--------|--------|--------|--------|--------|--------|--------|--------|
E|--------|--------|--------|--------|--------|--------|--------|--------|--------|


G|--------|--------|--------|--------|--------|--------|--------|--------|--------|
D|--------|--------|--------|--------|--------|--------|--------|--------|--------|
A|--------|--------|--------|--------|--------|--------|--------|--------|--------|
E|--------|--------|--------|--------|--------|--------|--------|--------|--------|


G|--------|--------|--------|--------|--------|--------|--------|--------|--------|
D|--------|--------|--------|--------|--------|--------|--------|--------|--------|
A|--------|--------|--------|--------|--------|--------|--------|--------|--------|
E|--------|--------|--------|--------|--------|--------|--------|--------|--------|


G|--------|--------|--------|--------|--------|--------|--------|--------|--------|
D|--------|--------|--------|--------|--------|--------|--------|--------|--------|
A|--------|--------|--------|--------|--------|--------|--------|--------|--------|
E|--------|--------|--------|--------|--------|--------|--------|--------|--------|


G|--------|--------|--------|--------|--------|--------|--------|--------|--------|
D|--------|--------|--------|--------|--------|--------|--------|--------|--------|
A|--------|--------|--------|--------|--------|--------|--------|--------|--------|
E|--------|--------|--------|--------|--------|--------|--------|--------|--------|


G|--------|--------|--------|--------|--------|--------|--------|--------|--------|
D|--------|--------|--------|--------|--------|--------|--------|--------|--------|
A|--------|--------|--------|--------|--------|--------|--------|--------|--------|
E|--------|--------|--------|--------|--------|--------|--------|--------|--------|


G|--------|--------|--------|--------|--------|--------|--------|--------|--------|
D|--------|--------|--------|--------|--------|--------|--------|--------|--------|
A|--------|--------|--------|--------|--------|--------|--------|--------|--------|
E|--------|--------|--------|--------|--------|--------|--------|--------|--------|


G|--------|--------|--------|--------|--------|--------|--------|--------|--------|
D|--------|--------|--------|--------|--------|--------|--------|--------|--------|
A|--------|--------|--------|--------|--------|--------|--------|--------|--------|
E|--------|--------|--------|--------|--------|--------|--------|--------|--------|


G|--------|--------|--------|--------|--------|--------|--------|--------|--------|
D|--------|--------|--------|--------|--------|--------|--------|--------|--------|
A|--------|--------|--------|--------|--------|--------|--------|--------|--------|
E|--------|--------|--------|--------|--------|--------|--------|--------|--------|


G|--------|--------|--------|--------|--------|--------|--------|--------|--------|
D|--------|--------|--------|--------|--------|--------|--------|--------|--------|
A|--------|--------|--------|--------|--------|--------|--------|--------|--------|
E|--------|--------|--------|--------|--------|--------|--------|--------|--------|


G|--------|--------|--------|--------|--------|--------|--------|--------|--------|
D|--------|--------|--------|--------|--------|--------|--------|--------|--------|
A|--------|--------|--------|--------|--------|--------|--------|--------|--------|
E|--------|--------|--------|--------|--------|--------|--------|--------|--------|


G|--------|--------|--------|--------|--------|--------|--------|--------|--------|
D|--------|--------|--------|--------|--------|--------|--------|--------|--------|
A|--------|--------|--------|--------|--------|--------|--------|--------|--------|
E|--------|--------|--------|--------|--------|--------|--------|--------|--------|


G|--------|--------|--------|--------|--------|--------|--------|--------|--------|
D|--------|--------|--------|--------|--------|--------|--------|--------|--------|
A|--------|--------|--------|--------|--------|--------|--------|--------|--------|
E|--------|--------|--------|--------|--------|--------|--------|--------|--------|


G|--------|--------|--------|--------|--------|--------|--------|--------|--------|
D|--------|--------|--------|--------|--------|--------|--------|--------|--------|
A|--------|--------|--------|--------|--------|--------|--------|--------|--------|
E|--------|--------|--------|--------|--------|--------|--------|--------|--------|


G|--------|--------|--------|--------|--------|--------|--------|--------|--------|
D|--------|--------|--------|--------|--------|--------|--------|--------|--------|
A|--------|--------|--------|--------|--------|--------|--------|--------|--------|
E|--------|--------|--------|--------|--------|--------|--------|--------|--------|


G|--------|--------|
D|--------|--------|
A|--------|--------|
E|--------|--------|