Menu:

 

Search:

 

slipknot - vermilion:

 



Title: Vermillion
Artist: 
Album: Volume 3: (The Subliminal Verses)
Author: Slipknot


Track 1: Untitled

C#|--------|--------|---------------------------------|---------------------------------|
G#|--------|--------|---------------------------------|---------------------------------|
 E|--------|--------|-6-----------6-----------6-------|-----6---------------6---6---6---|
 B|--------|--------|-4---4---4---4---4---4---5---5---|-5---4---4---4---4---5---4---5---|
F#|--------|--------|-2---2---2---4---4---4---5---5---|-5---5---5---5---5---------------|
 B|--------|--------|---------------------------------|---------------------------------|


C#|---------------------------------|-----------------------|---------------------------------|
G#|---------------------------------|-----------------------|---------------------------------|
 E|-------------------------10--10--|-10--6---6---6---6-----|-6-----------6-----------6-------|
 B|-------------------------8---8---|-8---4---4---4---4-----|-4---4---4---4---4---4---5---5---|
F#|-5---5---5---5---5---4---8---8---|-8---4---4---4---4-----|-2---2---2---4---4---4---5---5---|
 B|---------------------------------|-----------------------|---------------------------------|


C#|---------------------------------|---------------------------------|-----------------------|
G#|---------------------------------|---------------------------------|-----------------------|
 E|-----6---------------6---6---6---|-------------------------10--10--|-10--6---6---6---6-----|
 B|-5---4---4---4---4---5---4---5---|-------------------------8---8---|-8---4---4---4---4-----|
F#|-5---5---5---5---5---------------|-5---5---5---5---5---4---8---8---|-8---4---4---4---4-----|
 B|---------------------------------|---------------------------------|-----------------------|


C#|---------------------------------|---------------------------------|---------------------------------|
G#|---------------------------------|---------------------------------|---------------------------------|
 E|-6-----------6-----------6-------|-----6---------------6---6---6---|-------------------------10--10--|
 B|-4---4---4---4---4---4---5---5---|-5---4---4---4---4---5---4---5---|-------------------------8---8---|
F#|-2---2---2---4---4---4---5---5---|-5---5---5---5---5---------------|-5---5---5---5---5---4---8---8---|
 B|---------------------------------|---------------------------------|---------------------------------|


C#|-----------------------|---------------------------------|---------------------------------|
G#|-----------------------|---------------------------------|---------------------------------|
 E|-10--6---6---6---6-----|-6-----------6-----------6-------|-----6---------------6---6---6---|
 B|-8---4---4---4---4-----|-4---4---4---4---4---4---5---5---|-5---4---4---4---4---5---4---5---|
F#|-8---4---4---4---4-----|-2---2---2---4---4---4---5---5---|-5---5---5---5---5---------------|
 B|-----------------------|---------------------------------|---------------------------------|


C#|---------------------------------|-----------------------|---------------------------------|
G#|---------------------------------|-----------------------|---------------------------------|
 E|-------------------------10--10--|-10--12--12--14--14----|---------------------------------|
 B|-------------------------8---8---|-8---10--10--12--12----|-4-----------4-----------5-------|
F#|-5---5---5---5---5---4---8---8---|-8---10--10--12--12----|-2---2---2---4---4---4---5---5---|
 B|---------------------------------|-----------------------|---------------------------------|


C#|---------------------------------|---------------------------------|-----------------------|
G#|---------------------------------|---------------------------------|-----------------------|
 E|---------------------------------|-------------------------10--10--|-10--10--6---6---6-----|
 B|-----4---------------4---4---4---|-------------------------8---8---|-8---8---4---4---4-----|
F#|-5---4---4---4---4---5---4---5---|-5---5---5---5---5---5---8---8---|-8---8---4---4---4-----|
 B|---------------------------------|---------------------------------|-----------------------|


C#|---------------------------------|---------------------------------|---------------------------------|
G#|---------------------------------|---------------------------------|---------------------------------|
 E|---------------------------------|---------------------------------|-------------------------10--10--|
 B|-4-----------4-----------5-------|-----4---------------4---4---4---|-------------------------8---8---|
F#|-2---2---2---4---4---4---5---5---|-5---4---4---4---4---5---4---5---|-5---5---5---5---5---5---8---8---|
 B|---------------------------------|---------------------------------|---------------------------------|


C#|-----------------------|---------------------------------|---------------------------------|
G#|-----------------------|---------------------------------|---------------------------------|
 E|-10--10--6---6---6-----|---------------------------------|---------------------------------|
 B|-8---8---4---4---4-----|-4-----------4-----------5-------|-----4---------------4---4---4---|
F#|-8---8---4---4---4-----|-2---2---2---4---4---4---5---5---|-5---4---4---4---4---5---4---5---|
 B|-----------------------|---------------------------------|---------------------------------|


C#|---------------------------------|-----------------------|---------------------------------|
G#|---------------------------------|-----------------------|---------------------------------|
 E|-------------------------10--10--|-10--10--6---6---6-----|---------------------------------|
 B|-------------------------8---8---|-8---8---4---4---4-----|-4-----------4-----------5-------|
F#|-5---5---5---5---5---5---8---8---|-8---8---4---4---4-----|-2---2---2---4---4---4---5---5---|
 B|---------------------------------|-----------------------|---------------------------------|


C#|---------------------------------|---------------------------------|-----------------------|
G#|---------------------------------|---------------------------------|-----------------------|
 E|---------------------------------|-------------------------10--10--|-10--12--12--14--14----|
 B|-----4---------------4---4---4---|-------------------------8---8---|-8---10--10--12--12----|
F#|-5---4---4---4---4---5---4---5---|-5---5---5---5---5---5---8---8---|-8---10--10--12--12----|
 B|---------------------------------|---------------------------------|-----------------------|


C#|------------------------|------------------------|------------------------|---------------------|
G#|------------------------|------------------------|------------------------|---------------------|
 E|-4-----4---4---4---4----|-4---4----4---4-----4---|-4---4---7----7---9-----|---------------------|
 B|-5-----5---5---5---5----|-5---5----5---5-----5---|-5---5---8----8---10----|---------------------|
F#|-3-----3---3---3---3----|-3---3----3---3-----3---|-3---3---6----6---8-----|---------------------|
 B|------------------------|------------------------|------------------------|-0-----1---1----0----|


C#|-----------------|---------------------|-----------------|---------------------|
G#|-----------------|---------------------|-----------------|---------------------|
 E|-----------------|---------------------|-----------------|---------------------|
 B|-----------------|---------------------|-----------------|---------------------|
F#|-----------------|---------------------|-----------------|---------------------|
 B|-0---6-----5-----|-0-----1---1----0----|-0---6-----5-----|-0-----1---1----0----|


C#|-----------------|---------------------|-----------------|--------|--------|---------------------------------|
G#|-----------------|---------------------|-----------------|--------|--------|---------------------------------|
 E|-----------------|---------------------|-----------------|--------|--------|---------------------------------|
 B|-----------------|---------------------|-----------------|--------|--------|-------------------------2---2---|
F#|-----------------|---------------------|-----------------|--------|--------|-2---2---2---5---5---5-----------|
 B|-0---6-----5-----|-0-----1---1----0----|-0---6-----5-----|--------|--------|---------------------------------|


C#|---------------------------------|---------------------------------|---------------------------------|
G#|---------------------------------|---------------------------------|---------------------------------|
 E|---------------------------------|-7---7---7---7---7---10--10--10--|-10--6---6---6---6---6---6---6---|
 B|-2---4---4---4---8---8---4---4---|-5---5---5---5---5---8---8---8---|-8---4---4---4---4---4---4---4---|
F#|---------------------------------|---------------------8---8---8---|-8---4---4---4---4---4---4---4---|
 B|---------------------------------|---------------------------------|---------------------------------|


C#|---------------------------------|---------------------------------|---------------------------------|
G#|---------------------------------|---------------------------------|---------------------------------|
 E|---------------------------------|---------------------------------|-7---7---7---7---7---10--10--10--|
 B|-------------------------2---2---|-2---4---4---4---8---8---4---4---|-5---5---5---5---5---8---8---8---|
F#|-2---2---2---5---5---5-----------|---------------------------------|---------------------8---8---8---|
 B|---------------------------------|---------------------------------|---------------------------------|


C#|---------------------------------|---------------------------------|---------------------------------|
G#|---------------------------------|---------------------------------|---------------------------------|
 E|-10--6---6---6---6---6---6---6---|-4---4---4---6---6---6-----------|---------------------------------|
 B|-8---4---4---4---4---4---4---4---|-------------------------5---5---|-5---4---4---4---3---3-----------|
F#|-8---4---4---4---4---4---4---4---|---------------------------------|-------------------------4---4---|
 B|---------------------------------|---------------------------------|---------------------------------|


C#|---------------------------------|---------------------------------|---------------------------------|
G#|---------------------------------|---------------------------------|---------------------------------|
 E|---------------------10--10--10--|-10--6---6---6---6---6---6---6---|-4---4---4---6---6---6-----------|
 B|---------------------8---8---8---|-8---4---4---4---4---4---4---4---|-------------------------5---5---|
F#|-5---5---5---5---5---8---8---8---|-8---4---4---4---4---4---4---4---|---------------------------------|
 B|---------------------------------|---------------------------------|---------------------------------|


C#|---------------------------------|---------------------------------|-----------------------|
G#|---------------------------------|---------------------------------|-----------------------|
 E|-----------------3---3-----------|---------------------10--10--10--|-10--12--12--14--14----|
 B|-5---4---4---4-------------------|---------------------8---8---8---|-8---10--10--12--12----|
F#|-------------------------4---4---|-5---5---5---5---5---8---8---8---|-8---10--10--12--12----|
 B|---------------------------------|---------------------------------|-----------------------|


C#|------------------------|------------------------|------------------------|---------------------|
G#|------------------------|------------------------|------------------------|---------------------|
 E|-4-----4---4---4---4----|-4---4----4---4-----4---|-4---4---7----7---9-----|---------------------|
 B|-5-----5---5---5---5----|-5---5----5---5-----5---|-5---5---8----8---10----|---------------------|
F#|-3-----3---3---3---3----|-3---3----3---3-----3---|-3---3---6----6---8-----|---------------------|
 B|------------------------|------------------------|------------------------|-0-----1---1----0----|


C#|-----------------|---------------------|-----------------|---------------------|
G#|-----------------|---------------------|-----------------|---------------------|
 E|-----------------|---------------------|-----------------|---------------------|
 B|-----------------|---------------------|-----------------|---------------------|
F#|-----------------|---------------------|-----------------|---------------------|
 B|-0---6-----5-----|-0-----1---1----0----|-0---6-----5-----|-0-----1---1----0----|


C#|-----------------|---------------------|-----------------|---------------------------------|
G#|-----------------|---------------------|-----------------|---------------------------------|
 E|-----------------|---------------------|-----------------|-8---7-------------------8---7---|
 B|-----------------|---------------------|-----------------|-6---5-------------------6---5---|
F#|-----------------|---------------------|-----------------|-6---5-------------------6---5---|
 B|-0---6-----5-----|-0-----1---1----0----|-0---6-----5-----|---------0---0---0---0-----------|


C#|---------------------------------|---------------------------------|---------------------------------|
G#|---------------------------------|---------------------------------|---------------------------------|
 E|---------------------------------|---------------------------------|-8---7-------------------8---7---|
 B|---------------------------------|---------------------------------|-6---5-------------------6---5---|
F#|-----------------4---3-----------|---------8---7---4---4---4---4---|-6---5-------------------6---5---|
 B|-0---3---5---8---4---3---3---3---|-3---3---8---7-------------------|---------0---0---0---0-----------|


C#|---------------------------------|---------------------------------|---------------------------------|
G#|---------------------------------|---------------------------------|---------------------------------|
 E|---------------------------------|---------------------------------|---------------------------------|
 B|---------------------------------|---------------------------------|---------------------------------|
F#|-----------------4---3-----------|---------8---7---4---4---4---4---|-1---0-------------------1---0---|
 B|-0---3---5---8---4---3---3---3---|-3---3---8---7-------------------|-1---0---0---0---0---0---1---0---|


C#|---------------------------------|---------------------------------|---------------------------------|
G#|---------------------------------|---------------------------------|---------------------------------|
 E|---------------------------------|-------------------------10--11--|---------------------------------|
 B|---------------------------------|---------------------------------|---------------------------------|
F#|-----------------9---11----------|---------9---8-------8-----------|-1---0-------------------1---0---|
 B|-0---3---5---8---9---11--11--11--|-11--11--9---8---8---------------|-1---0---0---0---0---0---1---0---|


C#|---------------------------------|---------------------------------|------------------------|
G#|---------------------------------|---------------------------------|------------------------|
 E|---------------------------------|-------------------------10--11--|------------------------|
 B|---------------------------------|---------------------------------|-8-----8---8---8---7----|
F#|-----------------9---11----------|---------9---8-------8-----------|-8-----8---8---8---7----|
 B|-0---3---5---8---9---11--11--11--|-11--11--9---8---8---------------|-8-----8---8---8---7----|


C#|------------------------|---------------------------|------------------------|------------------------|
G#|------------------------|---------------------------|------------------------|------------------------|
 E|------------------------|---------------------------|------------------------|------------------------|
 B|-8----7----0----0---0---|-0---0---3----3---3---3----|-8-----8---8---8---7----|-8----7----0----0---0---|
F#|-8----7----0----0---0---|-0---0---3----3---3---3----|-8-----8---8---8---7----|-8----7----0----0---0---|
 B|-8----7----0----0---0---|-0---0---3----3---3---3----|-8-----8---8---8---7----|-8----7----0----0---0---|


C#|---------------------------|------------------------|------------------------|---------------------------|
G#|---------------------------|------------------------|------------------------|---------------------------|
 E|---------------------------|------------------------|------------------------|---------------------------|
 B|-0---0---3----3---3---3----|-8-----8---8---8---7----|-8----7----0----0---0---|-0---0---3----3---3---3----|
F#|-0---0---3----3---3---3----|-8-----8---8---8---7----|-8----7----0----0---0---|-0---0---3----3---3---3----|
 B|-0---0---3----3---3---3----|-8-----8---8---8---7----|-8----7----0----0---0---|-0---0---3----3---3---3----|


C#|------------------------|------------------------|------------------------|---------------------------------|
G#|------------------------|------------------------|------------------------|---------------------------------|
 E|------------------------|------------------------|------------------------|---------------------------------|
 B|-8-----8---8---8---7----|-8----7----0----0---0---|-0---0---3----2----0----|---------------------------------|
F#|-8-----8---8---8---7----|-8----7----0----0---0---|-0---0---3----2----0----|---------------------------------|
 B|-8-----8---8---8---7----|-8----7----0----0---0---|-0---0---3----2----0----|-1---0---0---0---0---0---1---0---|


C#|---------------------------------|---------------------------------|---------------------------------|
G#|---------------------------------|---------------------------------|---------------------------------|
 E|---------------------------------|---------------------------------|---------------------------------|
 B|---------------------------------|---------------------------------|---------------------------------|
F#|---------------------------------|---------------------------------|---------------------------------|
 B|-0---0---0---0---1---0---0---0---|-0---0---1---0---0---0---0---0---|-1---0---0---0---0---0---1---0---|


C#|---------------------------------|---------------------------------|---------------------------------|
G#|---------------------------------|---------------------------------|---------------------------------|
 E|---------------------------------|---------------------------------|---------------------------------|
 B|---------------------------------|---------------------------------|---------------------------------|
F#|---------------------------------|---------------------------------|---------------------------------|
 B|-0---0---0---0---1---0---0---0---|-0---0---1---0---0---0---0---0---|-1---0---0---0---0---0---1---0---|


C#|---------------------------------|-------------------------10---|--------|----------10------10------10--|
G#|---------------------------------|-------------------------13---|--------|------13------13------13------|
 E|---------------------------------|------------------------------|--------|------------------------------|
 B|---------------------------------|------------------------------|--------|------------------------------|
F#|---------------------------------|------------------------------|--------|------------------------------|
 B|-0---0---0---0---1---0---0---0---|-0---0---1---0---0---0--------|--------|------------------------------|


C#|-----10------10------10----------|---------------------------------|---------------------------------|
G#|-13------13------13------13--13--|-13--13--13--13--13--13--13--13--|-13------10--11--10------10--11--|
 E|---------------------------------|---------------------------------|---------------------12----------|
 B|---------------------------------|---------------------------------|---------------------------------|
F#|---------------------------------|---------------------------------|---------------------------------|
 B|---------------------------------|---------------------------------|---------------------------------|


C#|-----------------|-------------|-------------|-------------|-----------------|--------------------------------|
G#|-10--------------|-------------|-------------|-------------|-----------------|--------------------------------|
 E|------------13---|-------14----|------16-----|-20-----20---|-------20---13---|--------------------------------|
 B|-----------------|-------------|-------------|-------------|-----------------|------7--8--7---7---7---7---7---|
F#|-----------------|-------------|-------------|-------------|-----------------|--------------------------------|
 B|-----------------|-------------|-------------|-------------|-----------------|--------------------------------|


C#|------------------------------------|-----------------|-----------------|-----------------|
G#|------------------------------------|-----------------|-----------------|-----------------|
 E|------------------------------------|-----------------|-----------------|-----------------|
 B|-7--8--7---7--8--7---7--8--7---7----|------7----7-----|------7-----7----|-7----------7----|
F#|------------------------------------|-----------------|-----------------|-----------------|
 B|------------------------------------|-----------------|-----------------|-----------------|


C#|-----------------|------13--13--10--13--10------10----------|-----------------------------------------------|
G#|-----------------|--------------------------13------13--11--|-13--11--10--11--10------10--11--10--10-11-10--|
 E|-----------------|------------------------------------------|---------------------12------------------------|
 B|------7----7-----|------------------------------------------|-----------------------------------------------|
F#|-----------------|------------------------------------------|-----------------------------------------------|
 B|-----------------|------------------------------------------|-----------------------------------------------|


C#|------------------------------------------------|-------------------------------------------|
G#|-10--11-10----10--11--10--10-11-10----10-11-10--|-10-11-10--10-11-10----10-11-10--10-11-10--|
 E|-----------12----------------------12-----------|--------------------12---------------------|
 B|------------------------------------------------|-------------------------------------------|
F#|------------------------------------------------|-------------------------------------------|
 B|------------------------------------------------|-------------------------------------------|


C#|-------------------------------------------|-------------------------------------------|
G#|-10-11-10----10-11-10--10-11-10--10-11-10--|-8--10-8-----------------------------------|
 E|----------12-------------------------------|-----------10-12-10--9--10-9--10-10-12-10--|
 B|-------------------------------------------|-------------------------------------------|
F#|-------------------------------------------|-------------------------------------------|
 B|-------------------------------------------|-------------------------------------------|


C#|------------------------------------|-----------------------------------|-------------------------------------------------|
G#|------------------------------------|-----------------------------------|-------------------------------------------------|
 E|-9--10-9----------------------------|-----------------------------------|-------------------------------------------------|
 B|-----------8----7----8--7--8--7--8--|-10---12-10-8--10-8----12-10-12-10-|-10-8--10-8--12-10-12-10-7--8--7--8--10-8--10-8--|
F#|------------------------------------|-----------------------------------|-------------------------------------------------|
 B|------------------------------------|-----------------------------------|-------------------------------------------------|


C#|-------------------------------------|---------------------------------|---------------------------------|
G#|-------------------------------------|---------------------------------|---------------------------------|
 E|-------------------------------------|-------------------------8---7---|-----------------8---7-----------|
 B|-12-10-12-10-------------------------|-------------------------6---5---|-----------------6---5-----------|
F#|-------------10--10--10--10--10--10--|-10--10--10--10--10--10--6---5---|-----------------6---5-----------|
 B|-------------------------------------|---------------------------------|-0---0---0---0-----------0---3---|


C#|---------------------------------|---------------------------------|---------------------------------|
G#|---------------------------------|---------------------------------|---------------------------------|
 E|---------------------------------|-------------------------8---7---|-----------------8---7-----------|
 B|---------------------------------|-------------------------6---5---|-----------------6---5-----------|
F#|---------4---3-------------------|-8---7---4---4---4---4---6---5---|-----------------6---5-----------|
 B|-5---8---4---3---3---3---3---3---|-8---7---------------------------|-0---0---0---0-----------0---3---|


C#|---------------------------------|---------------------------------|---------------------------------|
G#|---------------------------------|---------------------------------|---------------------------------|
 E|---------------------------------|---------------------------------|---------------------------------|
 B|---------------------------------|---------------------------------|---------------------------------|
F#|---------4---3-------------------|-8---7---4---4---4---4---1---0---|-----------------1---0-----------|
 B|-5---8---4---3---3---3---3---3---|-8---7-------------------1---0---|-0---0---0---0---1---0---0---3---|


C#|---------------------------------|---------------------------------|---------------------------------|
G#|---------------------------------|---------------------------------|---------------------------------|
 E|---------------------------------|-----------------10--11----------|---------------------------------|
 B|---------------------------------|---------------------------------|---------------------------------|
F#|---------9---11------------------|-9---8-------8-----------1---0---|-----------------1---0-----------|
 B|-5---8---9---11--11--11--11--11--|-9---8---8---------------1---0---|-0---0---0---0---1---0---0---3---|


C#|---------------------------------|------------------------------|---------------------------|
G#|---------------------------------|------------------------------|---------------------------|
 E|---------------------------------|-----------------10--11-------|---------------------------|
 B|---------------------------------|-------------------------8----|-----8---8---8---7----8----|
F#|---------9---11------------------|-9---8-------8-----------8----|-----8---8---8---7----8----|
 B|-5---8---9---11--11--11--11--11--|-9---8---8---------------8----|-----8---8---8---7----8----|


C#|---------------------------|------------------------|---------------------------|
G#|---------------------------|------------------------|---------------------------|
 E|---------------------------|------------------------|---------------------------|
 B|-7----0----0---0---0---0---|-3----3---3---3----8----|-----8---8---8---7----8----|
F#|-7----0----0---0---0---0---|-3----3---3---3----8----|-----8---8---8---7----8----|
 B|-7----0----0---0---0---0---|-3----3---3---3----8----|-----8---8---8---7----8----|


C#|---------------------------|------------------------|---------------------------|
G#|---------------------------|------------------------|---------------------------|
 E|---------------------------|------------------------|---------------------------|
 B|-7----0----0---0---0---0---|-3----3---3---3----8----|-----8---8---8---7----8----|
F#|-7----0----0---0---0---0---|-3----3---3---3----8----|-----8---8---8---7----8----|
 B|-7----0----0---0---0---0---|-3----3---3---3----8----|-----8---8---8---7----8----|


C#|---------------------------|------------------------|---------------------------|
G#|---------------------------|------------------------|---------------------------|
 E|---------------------------|------------------------|---------------------------|
 B|-7----0----0---0---0---0---|-3----3---3---3----8----|-----8---8---8---7----8----|
F#|-7----0----0---0---0---0---|-3----3---3---3----8----|-----8---8---8---7----8----|
 B|-7----0----0---0---0---0---|-3----3---3---3----8----|-----8---8---8---7----8----|


C#|---------------------------|---------------------|---------------------------|---------------------------|
G#|---------------------------|---------------------|---------------------------|---------------------------|
 E|---------------------------|---------------------|---------------------------|---------------------------|
 B|-7----0----0---0---0---0---|-3----2----0----8----|-----8---8---8---7----8----|-7----0----0---0---0---0---|
F#|-7----0----0---0---0---0---|-3----2----0----8----|-----8---8---8---7----8----|-7----0----0---0---0---0---|
 B|-7----0----0---0---0---0---|-3----2----0----8----|-----8---8---8---7----8----|-7----0----0---0---0---0---|


C#|------------------------|---------------------------|---------------------------|
G#|------------------------|---------------------------|---------------------------|
 E|------------------------|---------------------------|---------------------------|
 B|-3----3---3---3----8----|-----8---8---8---7----8----|-7----0----0---0---0---0---|
F#|-3----3---3---3----8----|-----8---8---8---7----8----|-7----0----0---0---0---0---|
 B|-3----3---3---3----8----|-----8---8---8---7----8----|-7----0----0---0---0---0---|


C#|------------------------|---------------------------|---------------------------|
G#|------------------------|---------------------------|---------------------------|
 E|------------------------|---------------------------|---------------------------|
 B|-3----3---3---3----8----|-----8---8---8---7----8----|-7----0----0---0---0---0---|
F#|-3----3---3---3----8----|-----8---8---8---7----8----|-7----0----0---0---0---0---|
 B|-3----3---3---3----8----|-----8---8---8---7----8----|-7----0----0---0---0---0---|


C#|------------------------|---------------------------|---------------------------|
G#|------------------------|---------------------------|---------------------------|
 E|------------------------|---------------------------|---------------------------|
 B|-3----3---3---3----8----|-----8---8---8---7----8----|-7----0----0---0---0---0---|
F#|-3----3---3---3----8----|-----8---8---8---7----8----|-7----0----0---0---0---0---|
 B|-3----3---3---3----8----|-----8---8---8---7----8----|-7----0----0---0---0---0---|


C#|---------------------|---------------------------|---------------------------|---------------------|
G#|---------------------|---------------------------|---------------------------|---------------------|
 E|---------------------|---------------------------|---------------------------|---------------------|
 B|-3----2----0----0----|-0---0---0---0---2----3----|-5----8----8---8---8---8---|-8----8----8----7----|
F#|-3----2----0----0----|-0---0---0---0---2----3----|-5----8----8---8---8---8---|-8----8----8----7----|
 B|-3----2----0----0----|-0---0---0---0---2----3----|-5----8----8---8---8---8---|-8----8----8----7----|


C#|---------------------------|---------------------------|---------------------|---------------------------|
G#|---------------------------|---------------------------|---------------------|---------------------------|
 E|---------------------------|---------------------------|---------------------|---------------------------|
 B|-7---7---7---7---7----7----|-7----5----5---5---5---5---|-3----2----3----0----|-0---0---0---0---2----3----|
F#|-7---7---7---7---7----7----|-7----5----5---5---5---5---|-3----2----3----0----|-0---0---0---0---2----3----|
 B|-7---7---7---7---7----7----|-7----5----5---5---5---5---|-3----2----3----0----|-0---0---0---0---2----3----|


C#|---------------------------|---------------------|---------------------------|---------------------------|
G#|---------------------------|---------------------|---------------------------|---------------------------|
 E|---------------------------|---------------------|---------------------------|---------------------------|
 B|-5----8----8---8---8---8---|-8----8----8----5----|-5---5---5---5---3----2----|-0----7----7---7---7---7---|
F#|-5----8----8---8---8---8---|-8----8----8----5----|-5---5---5---5---3----2----|-0----7----7---7---7---7---|
 B|-5----8----8---8---8---8---|-8----8----8----5----|-5---5---5---5---3----2----|-0----7----7---7---7---7---|


C#|---------------------------|---------------------------|---------------------------|
G#|---------------------------|---------------------------|---------------------------|
 E|---------------------------|---------------------------|---------------------------|
 B|-3----3---3---3---3---0----|-0---0---0---0---2----3----|-5----8----8---8---8---8---|
F#|-3----3---3---3---3---0----|-0---0---0---0---2----3----|-5----8----8---8---8---8---|
 B|-3----3---3---3---3---0----|-0---0---0---0---2----3----|-5----8----8---8---8---8---|


C#|---------------------|---------------------------|---------------------------|---------------------|
G#|---------------------|---------------------------|---------------------------|---------------------|
 E|---------------------|---------------------------|---------------------------|---------------------|
 B|-8----8----8----7----|-7---7---7---7---7----7----|-7----5----5---5---5---5---|-3----2----3----0----|
F#|-8----8----8----7----|-7---7---7---7---7----7----|-7----5----5---5---5---5---|-3----2----3----0----|
 B|-8----8----8----7----|-7---7---7---7---7----7----|-7----5----5---5---5---5---|-3----2----3----0----|


C#|---------------------------|---------------------------|---------------------|---------------------------|
G#|---------------------------|---------------------------|---------------------|---------------------------|
 E|---------------------------|---------------------------|---------------------|---------------------------|
 B|-0---0---0---0---2----3----|-5----8----8---8---8---8---|-8----8----8----5----|-5---5---5---5---3----2----|
F#|-0---0---0---0---2----3----|-5----8----8---8---8---8---|-8----8----8----5----|-5---5---5---5---3----2----|
 B|-0---0---0---0---2----3----|-5----8----8---8---8---8---|-8----8----8----5----|-5---5---5---5---3----2----|


C#|---------------------------|---------------------------|---------------------------|
G#|---------------------------|---------------------------|---------------------------|
 E|---------------------------|---------------------------|---------------------------|
 B|-0----7----7---7---7---7---|-3----3---3---3---3---0----|-0---0---0---0---2----3----|
F#|-0----7----7---7---7---7---|-3----3---3---3---3---0----|-0---0---0---0---2----3----|
 B|-0----7----7---7---7---7---|-3----3---3---3---3---0----|-0---0---0---0---2----3----|


C#|---------------------------|---------------------|---------------------------|---------------------------|
G#|---------------------------|---------------------|---------------------------|---------------------------|
 E|---------------------------|---------------------|---------------------------|---------------------------|
 B|-5----8----8---8---8---8---|-8----8----8----7----|-7---7---7---7---7----7----|-7----5----5---5---5---5---|
F#|-5----8----8---8---8---8---|-8----8----8----7----|-7---7---7---7---7----7----|-7----5----5---5---5---5---|
 B|-5----8----8---8---8---8---|-8----8----8----7----|-7---7---7---7---7----7----|-7----5----5---5---5---5---|


C#|---------------------|---------------------------|---------------------------|---------------------|
G#|---------------------|---------------------------|---------------------------|---------------------|
 E|---------------------|---------------------------|---------------------------|---------------------|
 B|-3----2----3----0----|-0---0---0---0---2----3----|-5----8----8---8---8---8---|-8----8----8----5----|
F#|-3----2----3----0----|-0---0---0---0---2----3----|-5----8----8---8---8---8---|-8----8----8----5----|
 B|-3----2----3----0----|-0---0---0---0---2----3----|-5----8----8---8---8---8---|-8----8----8----5----|


C#|---------------------------|---------------------------|---------------------------|
G#|---------------------------|---------------------------|---------------------------|
 E|---------------------------|---------------------------|---------------------------|
 B|-5---5---5---5---3----2----|-0----7----7---7---7---7---|-3----3---3---3---3---0----|
F#|-5---5---5---5---3----2----|-0----7----7---7---7---7---|-3----3---3---3---3---0----|
 B|-5---5---5---5---3----2----|-0----7----7---7---7---7---|-3----3---3---3---3---0----|


C#|---------------------------|---------------------------|---------------------|---------------------------|
G#|---------------------------|---------------------------|---------------------|---------------------------|
 E|---------------------------|---------------------------|---------------------|---------------------------|
 B|-0---0---0---0---2----3----|-5----8----8---8---8---8---|-8----8----8----7----|-7---7---7---7---7----7----|
F#|-0---0---0---0---2----3----|-5----8----8---8---8---8---|-8----8----8----7----|-7---7---7---7---7----7----|
 B|-0---0---0---0---2----3----|-5----8----8---8---8---8---|-8----8----8----7----|-7---7---7---7---7----7----|


C#|---------------------------|---------------------|---------------------------|---------------------------|
G#|---------------------------|---------------------|---------------------------|---------------------------|
 E|---------------------------|---------------------|---------------------------|---------------------------|
 B|-7----5----5---5---5---5---|-3----2----3----0----|-0---0---0---0---2----3----|-5----8----8---8---8---8---|
F#|-7----5----5---5---5---5---|-3----2----3----0----|-0---0---0---0---2----3----|-5----8----8---8---8---8---|
 B|-7----5----5---5---5---5---|-3----2----3----0----|-0---0---0---0---2----3----|-5----8----8---8---8---8---|


C#|---------------------|---------------------------|---------------------------|---------------------------|
G#|---------------------|---------------------------|---------------------------|---------------------------|
 E|---------------------|---------------------------|---------------------------|---------------------------|
 B|-8----8----8----5----|-5---5---5---5---3----2----|-0----7----7---7---7---7---|-3----3---3---3---3---0----|
F#|-8----8----8----5----|-5---5---5---5---3----2----|-0----7----7---7---7---7---|-3----3---3---3---3---0----|
 B|-8----8----8----5----|-5---5---5---5---3----2----|-0----7----7---7---7---7---|-3----3---3---3---3---0----|


C#|--------|-------------|-------------|--------|-------------|-------------|--------|
G#|--------|-------------|-------------|--------|-------------|-------------|--------|
 E|--------|-------------|-------------|--------|-------------|-------------|--------|
 B|--------|------0------|--------0----|--------|------0------|--------0----|--------|
F#|--------|------0------|--------0----|--------|------0------|--------0----|--------|
 B|--------|------0------|--------0----|--------|------0------|--------0----|--------|


C#|-------------|-------------|--------|-------------|
G#|-------------|-------------|--------|-------------|
 E|-------------|-------------|--------|-------------|
 B|------0------|--------0----|--------|------0------|
F#|------0------|--------0----|--------|------0------|
 B|------0------|--------0----|--------|------0------|