Menu:

 

Search:

 

slipknot - vermilion pt 2:

 



Title: Vermilion Pt. 2
Artist: 
Album: Vol. 3. (The Subliminal Verses)
Author: Slipknot


Track 1: Jim (acous.)

C#|---------------------|-----------------|--------|--------|---------------------|
G#|---------------------|-----------------|--------|--------|---------------------|
 E|-4-----6---6---------|-----------------|--------|--------|-4-----6---6---------|
 B|----------------5----|-5---4-----4-----|--------|--------|----------------5----|
F#|---------------------|-----------------|--------|--------|---------------------|
 B|---------------------|-----------------|-0------|-0------|---------------------|


C#|-----------------|--------|--------|---------------------|-----------------|--------|
G#|-----------------|--------|--------|---------------------|-----------------|--------|
 E|-----------------|--------|--------|-4-----6---6---------|-----------------|--------|
 B|-5---4-----4-----|--------|--------|----------------5----|-5---4-----4-----|--------|
F#|-----------------|--------|--------|---------------------|-----------------|--------|
 B|-----------------|-0------|-0------|---------------------|-----------------|-0------|


C#|--------|---------------------|-----------------|--------|--------|---------------------|
G#|--------|---------------------|-----------------|--------|--------|---------------------|
 E|--------|-4-----6---6---------|-----------------|--------|--------|-4-----6---6---------|
 B|--------|----------------5----|-5---4-----4-----|--------|--------|----------------5----|
F#|--------|---------------------|-----------------|--------|--------|---------------------|
 B|-0------|---------------------|-----------------|-0------|-0------|---------------------|


C#|-----------------|--------|--------|---------------------|-----------------|--------|
G#|-----------------|--------|--------|---------------------|-----------------|--------|
 E|-----------------|--------|--------|-4-----6---6---------|-----------------|--------|
 B|-5---4-----4-----|--------|--------|----------------5----|-5---4-----4-----|--------|
F#|-----------------|--------|--------|---------------------|-----------------|--------|
 B|-----------------|-0------|-0------|---------------------|-----------------|-0------|


C#|--------|-------------|-------------|---------------------|--------|--------|--------|
G#|--------|-5------5----|-------------|---------------------|--------|--------|--------|
 E|--------|-5------5----|-------------|---------------9-----|--------|--------|--------|
 B|--------|-5------5----|-------------|---------------7-----|-0------|-0------|-0------|
F#|--------|-3------3----|-------------|---------------0-----|-0------|-0------|-0------|
 B|-0------|-------------|-------------|---------------------|-0------|-0------|-0------|


C#|--------|---------------------|-----------------|--------|--------|---------------------|
G#|--------|---------------------|-----------------|--------|--------|---------------------|
 E|--------|-4-----6---6---------|-----------------|--------|--------|-4-----6---6---------|
 B|-0------|----------------5----|-5---4-----4-----|--------|--------|----------------5----|
F#|-0------|---------------------|-----------------|--------|--------|---------------------|
 B|-0------|---------------------|-----------------|-0------|-0------|---------------------|


C#|-----------------|--------|--------|---------------------|-----------------|--------|
G#|-----------------|--------|--------|---------------------|-----------------|--------|
 E|-----------------|--------|--------|-4-----6---6---------|-----------------|--------|
 B|-5---4-----4-----|--------|--------|----------------5----|-5---4-----4-----|--------|
F#|-----------------|--------|--------|---------------------|-----------------|--------|
 B|-----------------|-0------|-0------|---------------------|-----------------|-0------|


C#|--------|---------------------|-----------------|--------|--------|-------------|
G#|--------|---------------------|-----------------|--------|--------|-5------5----|
 E|--------|-4-----6---6---------|-----------------|--------|--------|-5------5----|
 B|--------|----------------5----|-5---4-----4-----|--------|--------|-5------5----|
F#|--------|---------------------|-----------------|--------|--------|-3------3----|
 B|-0------|---------------------|-----------------|-0------|-0------|-------------|


C#|-------------|---------------------|--------|--------|--------|--------|------0--------------|
G#|-------------|---------------------|--------|--------|--------|--------|----------------10---|
 E|-------------|---------------9-----|--------|--------|--------|--------|-----------10--------|
 B|-------------|---------------7-----|-0------|-0------|-0------|-0------|-12------------------|
F#|-------------|---------------0-----|-0------|-0------|-0------|-0------|---------------------|
 B|-------------|---------------------|-0------|-0------|-0------|-0------|---------------------|


C#|------0---------0----|------0---------0----|------0--------------|------0---------0----|
G#|---------------------|---------------------|----------------10---|-----------11--------|
 E|-10------------------|-10--------10--------|-----------10--------|-10------------------|
 B|-----------12--------|---------------------|-12------------------|---------------------|
F#|---------------------|---------------------|---------------------|---------------------|
 B|---------------------|---------------------|---------------------|---------------------|


C#|----------------0----|------0--------------|------0---------0----|------0---------0----|
G#|------10-------------|----------------10---|---------------------|---------------------|
 E|-10--------10--------|-----------10--------|-10------------------|-10--------10--------|
 B|---------------------|-12------------------|-----------12--------|---------------------|
F#|---------------------|---------------------|---------------------|---------------------|
 B|---------------------|---------------------|---------------------|---------------------|


C#|------0--------------|------0-----------------|------------------------|---------------------------|
G#|----------------10---|------------------------|------------------------|-3----3---3---3-------5----|
 E|-----------10--------|-10--------7----7---7---|-7---7---7----9----10---|-3----3---3---3-------5----|
 B|-12------------------|-----------5----5---5---|-5---5---5----7----8----|-3----3---3---3-------5----|
F#|---------------------|-----------5----5---5---|-5---5---5----7----8----|-1----1---1---1---0---3----|
 B|---------------------|-----------0----0-------|-0-------0----0----0----|---------------------------|


C#|------------------------------|------------------------|---------------------------|
G#|-5---5---5---5---5----5---5---|-5---5---3----2----2----|---------------------------|
 E|-5---5---5---5---5----5---5---|-5---5---3----3----3----|-7----7---7---7---0---7----|
 B|-5---5---5---5---5----5---5---|-5---5---3----3----3----|-5----5---5---5---0---5----|
F#|-3---3---3---3---3----3---3---|-3---3---1----1----1----|-5----5---5---5---0---5----|
 B|------------------------------|------------------------|-0----0-------0-------5----|


C#|---------------------------|------------------------|---------------------------|
G#|---------------------------|------------------------|-6----6---6---6---6---3----|
 E|-7---7---7-------7----7----|-7---7---7----7----7----|-7----7---7---7---7---3----|
 B|-5---5---5---0---5----4----|-5---5---5----4----5----|-7----7---7---7---7---3----|
F#|-5---5---5---0---5----4----|-5---5---5----4----5----|-5----5---5---5---5---1----|
 B|-5---5---5-------0----0----|-0-------0----0----0----|-0----0-------0------------|


C#|------------------------------|------------------------------|---------------------------|
G#|-3---3---3---3----------------|------------------------------|----------------------3----|
 E|-3---3---3---3---8---7---5----|-7-------8---7---5----9---7---|-9----9---9---9---9---3----|
 B|-3---3---3---3---6-------3----|-5-------6-------3----7---5---|-7----7---7---7---7---3----|
F#|-1---1---1---1---6---5---3----|-5-------6---5---3----7---5---|-7----7---7---7---7---1----|
 B|-----------------0-------0----|-0---0---0-------0----0-------|-7----7---7---7---7--------|


C#|--------------------------0---|-----0------------0-------0---|----------0-------0--------|
G#|-3---3-------3--------6-------|-6------------6-------6-------|------6-------6------------|
 E|-3---3---3---3--------7-------|-7------------7-------7-------|------7-------7------------|
 B|-3---3---3---3----------------|------------------------------|---------------------------|
F#|-1-------1---1----------------|------------------------------|---------------------------|
 B|-----------------8------------|---------7--------------------|-0--------------------3----|


C#|-----0-------0------------0---|-----0------------0-------0---|----------0-------0--------|
G#|-6-------6------------6-------|-6------------6-------6-------|------6-------6------------|
 E|-7-------7------------7-------|-7------------7-------7-------|------7-------7------------|
 B|------------------------------|------------------------------|---------------------------|
F#|------------------------------|------------------------------|---------------------------|
 B|-----------------8------------|---------7--------------------|-0--------------------3----|


C#|-----0-------0------------0---|-----0------------0-------0---|----------0-------0--------|
G#|-6-------6------------6-------|-6------------6-------6-------|------6-------6------------|
 E|-7-------7------------7-------|-7------------7-------7-------|------7-------7------------|
 B|------------------------------|------------------------------|---------------------------|
F#|------------------------------|------------------------------|---------------------------|
 B|-----------------8------------|---------7--------------------|-0--------------------3----|


C#|-----0-------0------------0---|-----0------------0-------0---|---------------------------------|
G#|-6-------6------------6-------|-6------------6-------6-------|---------------------------------|
 E|-7-------7------------7-------|-7------------7-------7-------|---------------------------------|
 B|------------------------------|------------------------------|-12--12------12--12--12--12------|
F#|------------------------------|------------------------------|-9---9---9---9---9---9---10------|
 B|-----------------8------------|---------7--------------------|-9-------9---11--11------9---9---|


C#|---------------------------------|------------------------------|---------------------------------|
G#|---------------------------------|------------------------------|---------------------------------|
 E|---------------------------------|-7--------7---7---7-------7---|-7-------7---7---7---7---7---0---|
 B|-----12------12--12--12--12--0---|-5--------5---5---5-------5---|-5-------4---4---4---4---4---0---|
F#|-10--9---9---9---9---10--9---0---|-5----5---5---5---5---5---5---|-5---4---4---4---4---4---4---0---|
 B|-9---9---9-------9---9---9-------|-0----0---0---0---0---0---0---|---------0-------0-------0-------|


C#|---------------------------------|---------------------------------|------------------------------|
G#|---------------------------------|---------------------------------|------------------------------|
 E|---------------------------------|---------------------------------|-7--------7---7---7-------7---|
 B|-12--12------12--12--12--12------|-----12------12--12--12--12--0---|-5--------5---5---5-------5---|
F#|-9---9---9---9---9---9---10------|-10--9---9---9---9---10--9---0---|-5----5---5---5---5---5---5---|
 B|-9-------9---11--11------9---9---|-9---9---9-------9---9---9-------|-0----0---0---0---0---0---0---|


C#|---------------------------------|---------------------------------|---------------------------------|
G#|---------------------------------|---------------------------------|---------------------------------|
 E|-7-------7---7---7---7---7---0---|---------------------------------|---------------------------------|
 B|-5-------4---4---4---4---4---0---|-12--12------12--12--12--12------|-----12------12--12--12--12--0---|
F#|-5---4---4---4---4---4---4---0---|-9---9---9---9---9---9---10------|-10--9---9---9---9---10--9---0---|
 B|---------0-------0-------0-------|-9-------9---11--11------9---9---|-9---9---9-------9---9---9-------|


C#|------------------------------|---------------------------------|---------------------------------|
G#|------------------------------|---------------------------------|---------------------------------|
 E|-7--------7---7---7-------7---|-7-------7---7---7---7---7---0---|---------------------------------|
 B|-5--------5---5---5-------5---|-5-------4---4---4---4---4---0---|-12--12------12--12--12--12------|
F#|-5----5---5---5---5---5---5---|-5---4---4---4---4---4---4---0---|-9---9---9---9---9---9---10------|
 B|-0----0---0---0---0---0---0---|---------0-------0-------0-------|-9-------9---11--11------9---9---|


C#|---------------------------------|------------------------------|---------------------------------|
G#|---------------------------------|------------------------------|---------------------------------|
 E|---------------------------------|-7--------7---7---7-------7---|-7-------7---7---7---7---7---0---|
 B|-----12------12--12--12--12--0---|-5--------5---5---5-------5---|-5-------4---4---4---4---4---0---|
F#|-10--9---9---9---9---10--9---0---|-5----5---5---5---5---5---5---|-5---4---4---4---4---4---4---0---|
 B|-9---9---9-------9---9---9-------|-0----0---0---0---0---0---0---|---------0-------0-------0-------|


C#|---------------------------------|---------------------------------|------------------------------|
G#|---------------------------------|---------------------------------|------------------------------|
 E|---------------------------------|---------------------------------|-7--------7---7---7-------7---|
 B|-12--12------12--12--12--12------|-----12------12--12--12--12--0---|-5--------5---5---5-------5---|
F#|-9---9---9---9---9---9---10------|-10--9---9---9---9---10--9---0---|-5----5---5---5---5---5---5---|
 B|-9-------9---11--11------9---9---|-9---9---9-------9---9---9-------|-0----0---0---0---0---0---0---|


C#|---------------------------------|---------------------------------|---------------------------------|
G#|---------------------------------|---------------------------------|---------------------------------|
 E|-7-------7---7---7---7---7---0---|---------------------------------|---------------------------------|
 B|-5-------4---4---4---4---4---0---|-12--12------12--12--12--12------|-----12------12--12--12--12--0---|
F#|-5---4---4---4---4---4---4---0---|-9---9---9---9---9---9---10------|-10--9---9---9---9---10--9---0---|
 B|---------0-------0-------0-------|-9-------9---11--11------9---9---|-9---9---9-------9---9---9-------|


C#|------------------------------|---------------------------------|--------|--------|
G#|------------------------------|---------------------------------|--------|--------|
 E|-7--------7---7---7-------7---|-7-------7---7---7---7---7---0---|--------|--------|
 B|-5--------5---5---5-------5---|-5-------4---4---4---4---4---0---|--------|--------|
F#|-5----5---5---5---5---5---5---|-5---4---4---4---4---4---4---0---|--------|--------|
 B|-0----0---0---0---0---0---0---|---------0-------0-------0-------|--------|--------|





Track 2: Paul (acous.)

C#|---------------------------------|---------------------------------|------------------------------|
G#|---------------------------------|---------------------------------|------------------------------|
 E|---------------------------------|---------------------------------|-7--------7---7---7-------7---|
 B|-12--12------12--12--12--12------|-----12------12--12--12--12--0---|-5--------5---5---5-------5---|
F#|-9---9---9---9---9---9---10------|-10--9---9---9---9---10--9---0---|-5----5---5---5---5---5---5---|
 B|-9-------9---11--11------9---9---|-9---9---9-------9---9---9-------|-0----0---0---0---0---0---0---|


C#|---------------------------------|---------------------------------|---------------------------------|
G#|---------------------------------|---------------------------------|---------------------------------|
 E|-7-------7---7---7---7---7---0---|---------------------------------|---------------------------------|
 B|-5-------4---4---4---4---4---0---|-12--12------12--12--12--12------|-----12------12--12--12--12--0---|
F#|-5---4---4---4---4---4---4---0---|-9---9---9---9---9---9---10------|-10--9---9---9---9---10--9---0---|
 B|---------0-------0-------0-------|-9-------9---11--11------9---9---|-9---9---9-------9---9---9-------|


C#|------------------------------|---------------------------------|---------------------------------|
G#|------------------------------|---------------------------------|---------------------------------|
 E|-7--------7---7---7-------7---|-7-------7---7---7---7---7---0---|---------------------------------|
 B|-5--------5---5---5-------5---|-5-------4---4---4---4---4---0---|-12--12------12--12--12--12------|
F#|-5----5---5---5---5---5---5---|-5---4---4---4---4---4---4---0---|-9---9---9---9---9---9---10------|
 B|-0----0---0---0---0---0---0---|---------0-------0-------0-------|-9-------9---11--11------9---9---|


C#|---------------------------------|------------------------------|---------------------------------|
G#|---------------------------------|------------------------------|---------------------------------|
 E|---------------------------------|-7--------7---7---7-------7---|-7-------7---7---7---7---7---0---|
 B|-----12------12--12--12--12--0---|-5--------5---5---5-------5---|-5-------4---4---4---4---4---0---|
F#|-10--9---9---9---9---10--9---0---|-5----5---5---5---5---5---5---|-5---4---4---4---4---4---4---0---|
 B|-9---9---9-------9---9---9-------|-0----0---0---0---0---0---0---|---------0-------0-------0-------|


C#|---------------------------------|---------------------------------|------------------------------|
G#|---------------------------------|---------------------------------|------------------------------|
 E|---------------------------------|---------------------------------|-7--------7---7---7-------7---|
 B|-12--12------12--12--12--12------|-----12------12--12--12--12--0---|-5--------5---5---5-------5---|
F#|-9---9---9---9---9---9---10------|-10--9---9---9---9---10--9---0---|-5----5---5---5---5---5---5---|
 B|-9-------9---11--11------9---9---|-9---9---9-------9---9---9-------|-0----0---0---0---0---0---0---|


C#|---------------------------------|---------------------------------|---------------------------------|
G#|---------------------------------|---------------------------------|---------------------------------|
 E|-7-------7---7---7---7---7---0---|---------------------------------|---------------------------------|
 B|-5-------4---4---4---4---4---0---|-12--12------12--12--12--12------|-----12------12--12--12--12--0---|
F#|-5---4---4---4---4---4---4---0---|-9---9---9---9---9---9---10------|-10--9---9---9---9---10--9---0---|
 B|---------0-------0-------0-------|-9-------9---11--11------9---9---|-9---9---9-------9---9---9-------|


C#|------------------------------|---------------------------------|---------------------------------|
G#|------------------------------|---------------------------------|---------------------------------|
 E|-7--------7---7---7-------7---|-7-------7---7---7---7---7---0---|---------------------------------|
 B|-5--------5---5---5-------5---|-5-------4---4---4---4---4---0---|-12--12------12--12--12--12------|
F#|-5----5---5---5---5---5---5---|-5---4---4---4---4---4---4---0---|-9---9---9---9---9---9---10------|
 B|-0----0---0---0---0---0---0---|---------0-------0-------0-------|-9-------9---11--11------9---9---|


C#|---------------------------------|------------------------------|---------------------------------|
G#|---------------------------------|------------------------------|---------------------------------|
 E|---------------------------------|-7--------7---7---7-------7---|-7-------7---7---7---7---7---0---|
 B|-----12------12--12--12--12--0---|-5--------5---5---5-------5---|-5-------4---4---4---4---4---0---|
F#|-10--9---9---9---9---10--9---0---|-5----5---5---5---5---5---5---|-5---4---4---4---4---4---4---0---|
 B|-9---9---9-------9---9---9-------|-0----0---0---0---0---0---0---|---------0-------0-------0-------|


C#|------------------------|------------------------------|------------------------------|
G#|-5-----5---5---5---5----|-5---5---5---5---5--------5---|-----5---5--------5-------5---|
 E|-5-----5---5---5---5----|-5---5---5---5---5--------5---|-5---5---5--------5-------5---|
 B|-5-----5---5-------5----|-5---5---5---5---5----5-------|-5-------5------------5-------|
F#|-3-----------------3----|-3---3---3---3---3----3-------|-3-------3----3-------3-------|
 B|------------------------|------------------------------|------------------------------|


C#|------------------------------|------------------------------|------------------------------|
G#|------------------------------|------------------------------|------------------------------|
 E|-7----7---7---7---7---7---7---|-----7---7---7---7----7---7---|-7----7---7---7---7---7---7---|
 B|-5----5---5---5---5---5---5---|-----5---5---5---5----5---5---|-5----5---5---5---5---5---5---|
F#|-5----5---5---5---5---5---5---|-----5---5---5---5----5---5---|-5----5---5---5---5---5---5---|
 B|-0----0---0---0---0---0-------|-0---7---7---7---6----6---6---|-0----0---0---0---0---0-------|


C#|------------------------------|---------------------------------|---------------------------------|
G#|------------------------------|---------------------------------|---------------------------------|
 E|-----7---7---7---7----7---7---|---------------------------------|---------------------------------|
 B|-----5---5---5---5----5---5---|-12--12------12--12--12--12------|-----12------12--12--12--12--0---|
F#|-----5---5---5---5----5---5---|-9---9---9---9---9---9---10------|-10--9---9---9---9---10--9---0---|
 B|-0---7---7---7---6----6---6---|-9-------9---11--11------9---9---|-9---9---9-------9---9---9-------|


C#|------------------------------|---------------------------------|---------------------------------|
G#|------------------------------|---------------------------------|---------------------------------|
 E|-7--------7---7---7-------7---|-7-------7---7---7---7---7---0---|---------------------------------|
 B|-5--------5---5---5-------5---|-5-------4---4---4---4---4---0---|-12--12------12--12--12--12------|
F#|-5----5---5---5---5---5---5---|-5---4---4---4---4---4---4---0---|-9---9---9---9---9---9---10------|
 B|-0----0---0---0---0---0---0---|---------0-------0-------0-------|-9-------9---11--11------9---9---|


C#|---------------------------------|------------------------------|---------------------------------|
G#|---------------------------------|------------------------------|---------------------------------|
 E|---------------------------------|-7--------7---7---7-------7---|-7-------7---7---7---7---7---0---|
 B|-----12------12--12--12--12--0---|-5--------5---5---5-------5---|-5-------4---4---4---4---4---0---|
F#|-10--9---9---9---9---10--9---0---|-5----5---5---5---5---5---5---|-5---4---4---4---4---4---4---0---|
 B|-9---9---9-------9---9---9-------|-0----0---0---0---0---0---0---|---------0-------0-------0-------|


C#|---------------------------------|---------------------------------|------------------------------|
G#|---------------------------------|---------------------------------|------------------------------|
 E|---------------------------------|---------------------------------|-7--------7---7---7-------7---|
 B|-12--12------12--12--12--12------|-----12------12--12--12--12--0---|-5--------5---5---5-------5---|
F#|-9---9---9---9---9---9---10------|-10--9---9---9---9---10--9---0---|-5----5---5---5---5---5---5---|
 B|-9-------9---11--11------9---9---|-9---9---9-------9---9---9-------|-0----0---0---0---0---0---0---|


C#|---------------------------------|---------------------------------|---------------------------------|
G#|---------------------------------|---------------------------------|---------------------------------|
 E|-7-------7---7---7---7---7---0---|---------------------------------|---------------------------------|
 B|-5-------4---4---4---4---4---0---|-12--12------12--12--12--12------|-----12------12--12--12--12--0---|
F#|-5---4---4---4---4---4---4---0---|-9---9---9---9---9---9---10------|-10--9---9---9---9---10--9---0---|
 B|---------0-------0-------0-------|-9-------9---11--11------9---9---|-9---9---9-------9---9---9-------|


C#|------------------------------|---------------------------------|------------------------|
G#|------------------------------|---------------------------------|-5-----5---5---5---5----|
 E|-7--------7---7---7-------7---|-7-------7---7---7---7---7---0---|-5-----5---5---5---5----|
 B|-5--------5---5---5-------5---|-5-------4---4---4---4---4---0---|-5-----5---5-------5----|
F#|-5----5---5---5---5---5---5---|-5---4---4---4---4---4---4---0---|-3-----------------3----|
 B|-0----0---0---0---0---0---0---|---------0-------0-------0-------|------------------------|


C#|------------------------------|------------------------------|------------------------------|
G#|-5---5---5---5---5--------5---|-----5---5--------5-------5---|------------------------------|
 E|-5---5---5---5---5--------5---|-5---5---5--------5-------5---|-7----7---7---7---7---7---7---|
 B|-5---5---5---5---5----5-------|-5-------5------------5-------|-5----5---5---5---5---5---5---|
F#|-3---3---3---3---3----3-------|-3-------3----3-------3-------|-5----5---5---5---5---5---5---|
 B|------------------------------|------------------------------|-0----0---0---0---0---0-------|


C#|------------------------------|------------------------------|------------------------------|
G#|------------------------------|------------------------------|------------------------------|
 E|-----7---7---7---7----7---7---|-7----7---7---7---7---7---7---|-----7---7---7---7----7---7---|
 B|-----5---5---5---5----5---5---|-5----5---5---5---5---5---5---|-----5---5---5---5----5---5---|
F#|-----5---5---5---5----5---5---|-5----5---5---5---5---5---5---|-----5---5---5---5----5---5---|
 B|-0---7---7---7---6----6---6---|-0----0---0---0---0---0-------|-0---7---7---7---6----6---6---|


C#|----------0-------0--------|-----0-------0------------0---|-----0------------0-------0---|
G#|------6-------6------------|-6-------6------------6-------|-6------------6-------6-------|
 E|------7-------7------------|-7-------7------------7-------|-7------------7-------7-------|
 B|---------------------------|------------------------------|------------------------------|
F#|---------------------------|------------------------------|------------------------------|
 B|-8--------------------7----|-----------------0------------|---------3--------------------|


C#|----------0-------0--------|-----0-------0------------0---|-----0------------0-------0---|
G#|------6-------6------------|-6-------6------------6-------|-6------------6-------6-------|
 E|------7-------7------------|-7-------7------------7-------|-7------------7-------7-------|
 B|---------------------------|------------------------------|------------------------------|
F#|---------------------------|------------------------------|------------------------------|
 B|-8--------------------7----|-----------------0------------|---------3--------------------|


C#|----------0-------0--------|-----0-------0------------0---|-----0------------0-------0---|
G#|------6-------6------------|-6-------6------------6-------|-6------------6-------6-------|
 E|------7-------7------------|-7-------7------------7-------|-7------------7-------7-------|
 B|---------------------------|------------------------------|------------------------------|
F#|---------------------------|------------------------------|------------------------------|
 B|-8--------------------7----|-----------------0------------|---------3--------------------|


C#|----------0-------0--------|-----0-------0---------|--------|--------|--------|
G#|------6-------6------------|-6-------6-------------|--------|--------|--------|
 E|------7-------7------------|-7-------7-------------|--------|--------|--------|
 B|---------------------------|-----------------------|--------|--------|--------|
F#|---------------------------|-----------------------|--------|--------|--------|
 B|-8--------------------7----|-----------------------|--------|--------|--------|


C#|--------|--------|--------|--------|--------|--------|--------|--------|------------0----|
G#|--------|--------|--------|--------|--------|--------|--------|--------|-----------------|
 E|--------|--------|--------|--------|--------|--------|--------|--------|-----------------|
 B|--------|--------|--------|--------|--------|--------|--------|--------|-------12--------|
F#|--------|--------|--------|--------|--------|--------|--------|--------|-----------------|
 B|--------|--------|--------|--------|--------|--------|--------|--------|-----------------|


C#|----------------0----|------0--------------|------0---------0----|----------------0----|
G#|------10-------------|-11-------------10---|---------------------|------10-------------|
 E|-10--------10--------|-----------10--------|-10------------------|-10--------10--------|
 B|---------------------|---------------------|-----------12--------|---------------------|
F#|---------------------|---------------------|---------------------|---------------------|
 B|---------------------|---------------------|---------------------|---------------------|


C#|------0--------------|------0---------0----|----------------0----|------0--------------|
G#|-11-------------10---|---------------------|------10-------------|-11-------------10---|
 E|-----------10--------|-10------------------|-10--------10--------|-----------10--------|
 B|---------------------|-----------12--------|---------------------|---------------------|
F#|---------------------|---------------------|---------------------|---------------------|
 B|---------------------|---------------------|---------------------|---------------------|


C#|------0---------0----|----------------0----|---------------------|-----------------|
G#|---------------------|------10-------------|---------------------|-----------------|
 E|-10------------------|-10--------10--------|-4-----6---6---------|-----------------|
 B|-----------12--------|---------------------|----------------5----|-5---4-----4-----|
F#|---------------------|---------------------|---------------------|-----------------|
 B|---------------------|---------------------|---------------------|-----------------|


C#|--------|--------|---------------------|-----------------|--------|--------|---------------------|
G#|--------|--------|---------------------|-----------------|--------|--------|---------------------|
 E|--------|--------|-4-----6---6---------|-----------------|--------|--------|-4-----6---6---------|
 B|--------|--------|----------------5----|-5---4-----4-----|--------|--------|----------------5----|
F#|--------|--------|---------------------|-----------------|--------|--------|---------------------|
 B|-0------|-0------|---------------------|-----------------|-0------|-0------|---------------------|


C#|-----------------|--------|--------|---------------------|-----------------|--------|
G#|-----------------|--------|--------|---------------------|-----------------|--------|
 E|-----------------|--------|--------|-4-----6---6---------|-----------------|--------|
 B|-5---4-----4-----|--------|--------|----------------5----|-5---4-----4-----|--------|
F#|-----------------|--------|--------|---------------------|-----------------|--------|
 B|-----------------|-0------|-0------|---------------------|-----------------|-0------|


C#|--------|---------------------|-----------------|--------|--------|---------------------|
G#|--------|---------------------|-----------------|--------|--------|---------------------|
 E|--------|-4-----6---6---------|-----------------|--------|--------|-4-----6---6---------|
 B|--------|----------------5----|-5---4-----4-----|--------|--------|----------------5----|
F#|--------|---------------------|-----------------|--------|--------|---------------------|
 B|-0------|---------------------|-----------------|-0------|-0------|---------------------|


C#|-----------------|--------|--------|--------|--------|
G#|-----------------|--------|--------|--------|--------|
 E|-----------------|--------|--------|--------|--------|
 B|-5---4-----4-----|--------|--------|--------|--------|
F#|-----------------|--------|--------|--------|--------|
 B|-----------------|-0------|-0------|--------|--------|





Track 3: Strings (arr. for gtr.)

C#|--------|--------|--------|--------|--------|--------|--------|--------|--------|
G#|--------|--------|--------|--------|--------|--------|--------|--------|--------|
 E|--------|--------|--------|--------|--------|--------|--------|--------|--------|
 B|--------|--------|--------|--------|--------|--------|--------|--------|--------|
F#|--------|--------|--------|--------|--------|--------|--------|--------|--------|
 B|--------|--------|--------|--------|--------|--------|--------|--------|--------|


C#|--------|--------|--------|--------|--------|--------|--------|--------|--------|
G#|--------|--------|--------|--------|--------|--------|--------|--------|--------|
 E|--------|--------|--------|--------|--------|--------|--------|--------|--------|
 B|--------|--------|--------|--------|--------|--------|--------|--------|--------|
F#|--------|--------|--------|--------|--------|--------|--------|--------|--------|
 B|--------|--------|--------|--------|--------|--------|--------|--------|--------|


C#|--------|--------|--------|--------|--------|--------|-------------|-------------|
G#|--------|--------|--------|--------|--------|--------|-5------5----|-------5-----|
 E|--------|--------|--------|--------|--------|--------|-5------5----|-------5-----|
 B|--------|--------|--------|--------|--------|--------|-3-----------|-------------|
F#|--------|--------|--------|--------|--------|--------|-3------3----|-------3-----|
 B|--------|--------|--------|--------|--------|--------|-------------|-------------|


C#|-------------|-------------|--------|--------|--------|--------|--------|--------|
G#|------5------|-7-----------|--------|--------|--------|--------|--------|--------|
 E|------5------|-7-----------|--------|--------|--------|--------|--------|--------|
 B|-------------|-------------|--------|--------|--------|--------|--------|--------|
F#|------3------|-5-----------|--------|--------|--------|--------|--------|--------|
 B|-------------|-------------|--------|--------|--------|--------|--------|--------|


C#|--------|--------|--------|--------|--------|--------|--------|--------|--------|
G#|--------|--------|--------|--------|--------|--------|--------|--------|--------|
 E|--------|--------|--------|--------|--------|--------|--------|--------|--------|
 B|--------|--------|--------|--------|--------|--------|--------|--------|--------|
F#|--------|--------|--------|--------|--------|--------|--------|--------|--------|
 B|--------|--------|--------|--------|--------|--------|--------|--------|--------|


C#|--------|--------|--------|--------|-------------|-------------|-------------|-------------|
G#|--------|--------|--------|--------|-5------5----|-------5-----|------5------|-7-----------|
 E|--------|--------|--------|--------|-5------5----|-------5-----|------5------|-7-----------|
 B|--------|--------|--------|--------|-3-----------|-------------|-------------|-------------|
F#|--------|--------|--------|--------|-3------3----|-------3-----|------3------|-5-----------|
 B|--------|--------|--------|--------|-------------|-------------|-------------|-------------|


C#|--------|--------|--------|--------|--------|--------|--------|--------|--------|
G#|--------|--------|--------|--------|--------|--------|--------|--------|--------|
 E|--------|--------|--------|--------|--------|--------|--------|--------|--------|
 B|--------|--------|--------|--------|--------|--------|--------|--------|--------|
F#|--------|--------|--------|--------|--------|--------|--------|--------|--------|
 B|--------|--------|--------|--------|--------|--------|--------|--------|--------|


C#|--------|--------|--------|--------|-----------------|---------------------|-------------|
G#|--------|--------|--------|--------|-----------------|---------------------|-------------|
 E|--------|--------|--------|--------|-------7----7----|------7----9----10---|-3------5----|
 B|--------|--------|--------|--------|-------5---------|------5----7----8----|-1------3----|
F#|--------|--------|--------|--------|-------5----5----|------5----7----8----|-1------3----|
 B|--------|--------|--------|--------|-----------------|---------------------|-------------|


C#|-------------|-----------------|-------------|-------------|-------------|-------------|
G#|-------------|-----------------|-------------|-------------|-------------|-------------|
 E|-------9-----|------7----6-----|-7------12---|-------14----|------14-----|-14-----14---|
 B|-------7-----|------5----4-----|-5------10---|-------12----|-------------|-------------|
F#|-------7-----|------5----4-----|-5------10---|-------12----|------12-----|-12-----12---|
 B|-------------|-----------------|-------------|-------------|-------------|-------------|


C#|--------|--------|--------|--------|--------|--------|--------|--------|--------|
G#|--------|--------|--------|--------|--------|--------|--------|--------|--------|
 E|--------|--------|--------|--------|--------|--------|--------|--------|--------|
 B|--------|--------|--------|--------|--------|--------|--------|--------|--------|
F#|--------|--------|--------|--------|--------|--------|--------|--------|--------|
 B|--------|--------|--------|--------|--------|--------|--------|--------|--------|


C#|--------|--------|--------|--------|--------|--------|--------|--------|--------|
G#|--------|--------|--------|--------|--------|--------|--------|--------|--------|
 E|--------|--------|--------|--------|--------|--------|--------|--------|--------|
 B|--------|--------|--------|--------|--------|--------|--------|--------|--------|
F#|--------|--------|--------|--------|--------|--------|--------|--------|--------|
 B|--------|--------|--------|--------|--------|--------|--------|--------|--------|


C#|--------|--------|--------|--------|--------|--------|--------|--------|--------|
G#|--------|--------|--------|--------|--------|--------|--------|--------|--------|
 E|--------|--------|--------|--------|--------|--------|--------|--------|--------|
 B|--------|--------|--------|--------|--------|--------|--------|--------|--------|
F#|--------|--------|--------|--------|--------|--------|--------|--------|--------|
 B|--------|--------|--------|--------|--------|--------|--------|--------|--------|


C#|--------|--------|--------|--------|--------|--------|--------|--------|--------|
G#|--------|--------|--------|--------|--------|--------|--------|--------|--------|
 E|--------|--------|--------|--------|--------|--------|--------|--------|--------|
 B|--------|--------|--------|--------|--------|--------|--------|--------|--------|
F#|--------|--------|--------|--------|--------|--------|--------|--------|--------|
 B|--------|--------|--------|--------|--------|--------|--------|--------|--------|


C#|--------|--------|--------|--------|
G#|--------|--------|--------|--------|
 E|--------|--------|--------|--------|
 B|--------|--------|--------|--------|
F#|--------|--------|--------|--------|
 B|--------|--------|--------|--------|





Track 4: Craig (treb. keyboard arr. for gtr.)

C#|--------|--------|--------|--------|--------|--------|--------|--------|--------|
G#|--------|--------|--------|--------|--------|--------|--------|--------|--------|
 E|--------|--------|--------|--------|--------|--------|--------|--------|--------|
 B|--------|--------|--------|--------|--------|--------|--------|--------|--------|
F#|--------|--------|--------|--------|--------|--------|--------|--------|--------|
 B|--------|--------|--------|--------|--------|--------|--------|--------|--------|


C#|--------|--------|--------|--------|--------|--------|--------|--------|--------|
G#|--------|--------|--------|--------|--------|--------|--------|--------|--------|
 E|--------|--------|--------|--------|--------|--------|--------|--------|--------|
 B|--------|--------|--------|--------|--------|--------|--------|--------|--------|
F#|--------|--------|--------|--------|--------|--------|--------|--------|--------|
 B|--------|--------|--------|--------|--------|--------|--------|--------|--------|


C#|--------|--------|--------|--------|--------|--------|--------|--------|--------|
G#|--------|--------|--------|--------|--------|--------|--------|--------|--------|
 E|--------|--------|--------|--------|--------|--------|--------|--------|--------|
 B|--------|--------|--------|--------|--------|--------|--------|--------|--------|
F#|--------|--------|--------|--------|--------|--------|--------|--------|--------|
 B|--------|--------|--------|--------|--------|--------|--------|--------|--------|


C#|--------|--------|--------|--------|--------|--------|--------|--------|--------|
G#|--------|--------|--------|--------|--------|--------|--------|--------|--------|
 E|--------|--------|--------|--------|--------|--------|--------|--------|--------|
 B|--------|--------|--------|--------|--------|--------|--------|--------|--------|
F#|--------|--------|--------|--------|--------|--------|--------|--------|--------|
 B|--------|--------|--------|--------|--------|--------|--------|--------|--------|


C#|--------|--------|--------|--------|--------|--------|--------|--------|--------|
G#|--------|--------|--------|--------|--------|--------|--------|--------|--------|
 E|--------|--------|--------|--------|--------|--------|--------|--------|--------|
 B|--------|--------|--------|--------|--------|--------|--------|--------|--------|
F#|--------|--------|--------|--------|--------|--------|--------|--------|--------|
 B|--------|--------|--------|--------|--------|--------|--------|--------|--------|


C#|--------|--------|--------|--------|--------|--------|--------|--------|--------|
G#|--------|--------|--------|--------|--------|--------|--------|--------|--------|
 E|--------|--------|--------|--------|--------|--------|--------|--------|--------|
 B|--------|--------|--------|--------|--------|--------|--------|--------|--------|
F#|--------|--------|--------|--------|--------|--------|--------|--------|--------|
 B|--------|--------|--------|--------|--------|--------|--------|--------|--------|


C#|--------|--------|--------|--------|--------|--------|--------|--------|--------|
G#|--------|--------|--------|--------|--------|--------|--------|--------|--------|
 E|--------|--------|--------|--------|--------|--------|--------|--------|--------|
 B|--------|--------|--------|--------|--------|--------|--------|--------|--------|
F#|--------|--------|--------|--------|--------|--------|--------|--------|--------|
 B|--------|--------|--------|--------|--------|--------|--------|--------|--------|


C#|--------|--------|--------|--------|--------|--------|--------|--------|--------|
G#|--------|--------|--------|--------|--------|--------|--------|--------|--------|
 E|--------|--------|--------|--------|--------|--------|--------|--------|--------|
 B|--------|--------|--------|--------|--------|--------|--------|--------|--------|
F#|--------|--------|--------|--------|--------|--------|--------|--------|--------|
 B|--------|--------|--------|--------|--------|--------|--------|--------|--------|


C#|--------|--------|--------|--------|--------|--------|--------|--------|--------|
G#|--------|--------|--------|--------|--------|--------|--------|--------|--------|
 E|--------|--------|--------|--------|--------|--------|--------|--------|--------|
 B|--------|--------|--------|--------|--------|--------|--------|--------|--------|
F#|--------|--------|--------|--------|--------|--------|--------|--------|--------|
 B|--------|--------|--------|--------|--------|--------|--------|--------|--------|


C#|--------|--------|--------|--------|--------|--------|--------|--------|--------|
G#|--------|--------|--------|--------|--------|--------|--------|--------|--------|
 E|--------|--------|--------|--------|--------|--------|--------|--------|--------|
 B|--------|--------|--------|--------|--------|--------|--------|--------|--------|
F#|--------|--------|--------|--------|--------|--------|--------|--------|--------|
 B|--------|--------|--------|--------|--------|--------|--------|--------|--------|


C#|--------|--------|--------|--------|--------|--------|--------|--------|--------|
G#|--------|--------|--------|--------|--------|--------|--------|--------|--------|
 E|--------|--------|--------|--------|--------|--------|--------|--------|--------|
 B|--------|--------|--------|--------|--------|--------|--------|--------|--------|
F#|--------|--------|--------|--------|--------|--------|--------|--------|--------|
 B|--------|--------|--------|--------|--------|--------|--------|--------|--------|


C#|--------|--------|--------|--------|--------|--------|--------|--------|--------|
G#|--------|--------|--------|--------|--------|--------|--------|--------|--------|
 E|--------|--------|--------|--------|--------|--------|--------|--------|--------|
 B|--------|--------|--------|--------|--------|--------|--------|--------|--------|
F#|--------|--------|--------|--------|--------|--------|--------|--------|--------|
 B|--------|--------|--------|--------|--------|--------|--------|--------|--------|


C#|--------|--------|--------|---------------------|-----------------|
G#|--------|--------|--------|-12------------------|-----7-----7-----|
 E|--------|--------|--------|----------------5----|-5---------------|
 B|--------|--------|--------|---------------------|-----------------|
F#|--------|--------|--------|-------4---4---------|-----------------|
 B|--------|--------|--------|---------------------|-----------------|





Track 5: Craig (bass keyboard arr. for bass gtr.)

 E|--------|--------|--------|--------|--------|--------|--------|--------|--------|
 B|--------|--------|--------|--------|--------|--------|--------|--------|--------|
F#|--------|--------|--------|--------|--------|--------|--------|--------|--------|
 B|--------|--------|--------|--------|--------|--------|--------|--------|--------|


 E|--------|--------|--------|--------|--------|--------|--------|--------|--------|
 B|--------|--------|--------|--------|--------|--------|--------|--------|--------|
F#|--------|--------|--------|--------|--------|--------|--------|--------|--------|
 B|--------|--------|--------|--------|--------|--------|--------|--------|--------|


 E|--------|--------|--------|--------|--------|--------|--------|--------|--------|
 B|--------|--------|--------|--------|--------|--------|--------|--------|--------|
F#|--------|--------|--------|--------|--------|--------|--------|--------|--------|
 B|--------|--------|--------|--------|--------|--------|--------|--------|--------|


 E|--------|--------|--------|--------|--------|--------|--------|--------|--------|
 B|--------|--------|--------|--------|-9------|-9------|-0------|-0------|-9------|
F#|--------|--------|--------|--------|--------|--------|--------|--------|--------|
 B|--------|--------|--------|--------|--------|--------|--------|--------|--------|


 E|--------|--------|--------|--------|--------|--------|--------|--------|--------|
 B|-9------|-0------|-0------|-9------|-9------|-0------|-0------|-9------|-9------|
F#|--------|--------|--------|--------|--------|--------|--------|--------|--------|
 B|--------|--------|--------|--------|--------|--------|--------|--------|--------|


 E|--------|--------|-------------|-------------|-------------|--------|--------|--------|
 B|-0------|-0------|-------------|-------------|-------------|-0------|-0------|-0------|
F#|--------|--------|-3------3----|-------3-----|------3------|--------|--------|--------|
 B|--------|--------|-------------|-------------|-------------|--------|--------|--------|


 E|--------|-------------|-------------|-------------|-------------|-------------|
 B|-0------|-8------7----|-------0-----|------3------|-8------7----|-------0-----|
F#|--------|-------------|-------------|-------------|-------------|-------------|
 B|--------|-------------|-------------|-------------|-------------|-------------|


 E|-------------|-------------|-------------|-------------|-------------|-------------|
 B|------3------|-8------7----|-------0-----|------3------|-8------7----|-------0-----|
F#|-------------|-------------|-------------|-------------|-------------|-------------|
 B|-------------|-------------|-------------|-------------|-------------|-------------|


 E|-------------|-3------5----|-------------|-------------|-------------|-------------|
 B|------0------|-------------|-------------|-------------|-0------5----|-------0-----|
F#|-------------|-------------|-------3-----|------1------|-------------|-------------|
 B|-------------|-------------|-------------|-------------|-------------|-------------|


 E|------7------|-------------|-------------|------7------|-------------|-------------|
 B|-------------|-7------8----|-------0-----|-------------|-7------8----|-------8-----|
F#|-------------|-------------|-------------|-------------|-------------|-------------|
 B|-------------|-------------|-------------|-------------|-------------|-------------|


 E|-------------|-------------|-------------|-------------|-------------|-------------|
 B|------7------|-0------3----|-------8-----|------7------|-0------3----|-------8-----|
F#|-------------|-------------|-------------|-------------|-------------|-------------|
 B|-------------|-------------|-------------|-------------|-------------|-------------|


 E|-------------|-------------|-------------|-------------|--------|--------|--------|
 B|------7------|-0------3----|-------8-----|------7------|-9------|-9------|-0------|
F#|-------------|-------------|-------------|-------------|--------|--------|--------|
 B|-------------|-------------|-------------|-------------|--------|--------|--------|


 E|--------|--------|--------|--------|--------|--------|--------|--------|--------|
 B|-0------|-9------|-9------|-0------|-0------|-9------|-9------|-0------|-0------|
F#|--------|--------|--------|--------|--------|--------|--------|--------|--------|
 B|--------|--------|--------|--------|--------|--------|--------|--------|--------|


 E|--------|--------|--------|--------|--------|--------|--------|--------|--------|
 B|-9------|-9------|-0------|-0------|-9------|-9------|-0------|-0------|-9------|
F#|--------|--------|--------|--------|--------|--------|--------|--------|--------|
 B|--------|--------|--------|--------|--------|--------|--------|--------|--------|


 E|--------|--------|--------|--------|--------|
 B|-9------|-0------|-0------|-9------|-9------|
F#|--------|--------|--------|--------|--------|
 B|--------|--------|--------|--------|--------|