Menu:

 

Search:

 

slipknot - vermilion pt 2:

 



Title: Vermillion Pt.2
Artist: 
Album: Volume 3: The Subliminal Verses
Author: Slipknot


Track 1: Untitled

E|---------------------------------|---------------------------------|---------------------------------|
B|---------------------------------|---------------------------------|---------------------------------|
G|---------------------------------|---------------------------------|---------------------------------|
D|-6---6---6---8---8---8---6---6---|-6---6---6---6---6---6---6---6---|-9---9---9---9---9---9---9---9---|
A|-6---6---6---6---6---6---7---7---|-7---6---6---6---6---7---6---6---|-9---9---9---9---9---9---9---9---|
D|-6---6---6---6---6---6---6---6---|-6---6---6---6---6---6---6---6---|-9---9---9---9---9---9---9---9---|


E|---------------------------------|---------------------------------|---------------------------------|
B|---------------------------------|---------------------------------|---------------------------------|
G|---------------------------------|---------------------------------|---------------------------------|
D|-9---9---9---9---9---9---9---9---|-6---6---6---8---8---8---6---6---|-6---6---6---6---6---6---6---6---|
A|-9---9---9---9---9---9---9---9---|-6---6---6---6---6---6---7---7---|-7---6---6---6---6---7---6---6---|
D|-9---8---8---8---8---8---8---8---|-6---6---6---6---6---6---6---6---|-6---6---6---6---6---6---6---6---|


E|---------------------------------|---------------------------------|---------------------------------|
B|---------------------------------|---------------------------------|---------------------------------|
G|---------------------------------|---------------------------------|---------------------------------|
D|-9---9---9---9---9---9---9---9---|-9---9---9---9---9---9---9---9---|-6---6---6---8---8---8---6---6---|
A|-9---9---9---9---9---9---9---9---|-9---9---9---9---9---9---9---9---|-6---6---6---6---6---6---7---7---|
D|-9---9---9---9---9---9---9---9---|-9---8---8---8---8---8---8---8---|-6---6---6---6---6---6---6---6---|


E|---------------------------------|---------------------------------|---------------------------------|
B|---------------------------------|---------------------------------|---------------------------------|
G|---------------------------------|---------------------------------|---------------------------------|
D|-6---6---6---6---6---6---6---6---|-9---9---9---9---9---9---9---9---|-9---9---9---9---9---9---9---9---|
A|-7---6---6---6---6---7---6---6---|-9---9---9---9---9---9---9---9---|-9---9---9---9---9---9---9---9---|
D|-6---6---6---6---6---6---6---6---|-9---9---9---9---9---9---9---9---|-9---8---8---8---8---8---8---8---|


E|---------------------------------|---------------------------------|---------------------------------|
B|---------------------------------|---------------------------------|---------------------------------|
G|---------------------------------|---------------------------------|---------------------------------|
D|-6---6---6---8---8---8---6---6---|-6---6---6---6---6---6---6---6---|-9---9---9---9---9---9---9---9---|
A|-6---6---6---6---6---6---7---7---|-7---6---6---6---6---7---6---6---|-9---9---9---9---9---9---9---9---|
D|-6---6---6---6---6---6---6---6---|-6---6---6---6---6---6---6---6---|-9---9---9---9---9---9---9---9---|


E|---------------------------------|---------------------------------|---------------------------------|
B|---------------------------------|---------------------------------|---------------------------------|
G|---------------------------------|---------------------------------|---------------------------------|
D|-9---9---9---9---9---9---9---9---|-6---6---6---8---8---8---6---6---|-6---6---6---6---6---6---6---6---|
A|-9---9---9---9---9---9---9---9---|-6---6---6---6---6---6---7---7---|-7---6---6---6---6---7---6---6---|
D|-9---8---8---8---8---8---8---8---|-6---6---6---6---6---6---6---6---|-6---6---6---6---6---6---6---6---|


E|---------------------------------|---------------------------------|---------------------------------|
B|---------------------------------|---------------------------------|---------------------------------|
G|---------------------------------|---------------------------------|---------------------------------|
D|-9---9---9---9---9---9---9---9---|-9---9---9---9---9---9---9---9---|-6---6---6---8---8---8---6---6---|
A|-9---9---9---9---9---9---9---9---|-9---9---9---9---9---9---9---9---|-6---6---6---6---6---6---7---7---|
D|-9---9---9---9---9---9---9---9---|-9---8---8---8---8---8---8---8---|-6---6---6---6---6---6---6---6---|


E|---------------------------------|---------------------------------|---------------------------------|
B|---------------------------------|---------------------------------|---------------------------------|
G|---------------------------------|---------------------------------|---------------------------------|
D|-6---6---6---6---6---6---6---6---|-9---9---9---9---9---9---9---9---|-9---9---9---9---9---9---9---9---|
A|-7---6---6---6---6---7---6---6---|-9---9---9---9---9---9---9---9---|-9---9---9---9---9---9---9---9---|
D|-6---6---6---6---6---6---6---6---|-9---9---9---9---9---9---9---9---|-9---8---8---8---8---8---8---8---|


E|---------------------------|------------------------------|------------------------------|
B|---------------------------|------------------------------|------------------------------|
G|---------------------------|------------------------------|------------------------------|
D|-7----7---7---7---7---7----|-7---7---7---7---7----7---7---|-7---7---7----7---7---7---7---|
A|-7----7---7---7---7---7----|-7---7---7---7---7----7---7---|-7---7---7----7---7---7---7---|
D|-7----7---7---7---7---7----|-7---7---7---7---7----7---7---|-7---7---7----7---7---7---7---|


E|------------------------------|------------------------------|------------------------------|
B|------------------------------|------------------------------|------------------------------|
G|------------------------------|------------------------------|------------------------------|
D|-9---9---9---9---9---9---9----|-9---9---9---9---9----9---9---|-9---9---9----9---9---9---9---|
A|-9---9---9---9---9---9---9----|-9---9---9---9---9----9---9---|-9---9---9----9---9---9---9---|
D|-9---9---9---9---9---9---9----|-9---9---9---9---9----9---9---|-9---9---9----9---9---9---9---|


E|------------------------------|---------------------------------|---------------------------------|
B|------------------------------|---------------------------------|---------------------------------|
G|------------------------------|---------------------------------|---------------------------------|
D|-9----9---9---9---9---9---9---|-6---6---6---8---8---8---6---6---|-6---6---6---6---6---6---6---6---|
A|-9----9---9---9---9---9---9---|-6---6---6---6---6---6---7---7---|-7---6---6---6---6---7---6---6---|
D|-9----9---9---9---9---9---9---|-6---6---6---6---6---6---6---6---|-6---6---6---6---6---6---6---6---|


E|---------------------------------|---------------------------------|---------------------------------|
B|---------------------------------|---------------------------------|---------------------------------|
G|---------------------------------|---------------------------------|---------------------------------|
D|-9---9---9---9---9---9---9---9---|-9---9---9---9---9---9---9---9---|-6---6---6---8---8---8---6---6---|
A|-9---9---9---9---9---9---9---9---|-9---9---9---9---9---9---9---9---|-6---6---6---6---6---6---7---7---|
D|-9---9---9---9---9---9---9---9---|-9---8---8---8---8---8---8---8---|-6---6---6---6---6---6---6---6---|


E|---------------------------------|---------------------------------|---------------------------------|
B|---------------------------------|---------------------------------|---------------------------------|
G|---------------------------------|---------------------------------|---------------------------------|
D|-6---6---6---6---6---6---6---6---|-9---9---9---9---9---9---9---9---|-9---9---9---9---9---9---9---9---|
A|-7---6---6---6---6---7---6---6---|-9---9---9---9---9---9---9---9---|-9---9---9---9---9---9---9---9---|
D|-6---6---6---6---6---6---6---6---|-9---9---9---9---9---9---9---9---|-9---8---8---8---8---8---8---8---|


E|---------------------------------|---------------------------------|---------------------------------|
B|---------------------------------|---------------------------------|---------------------------------|
G|---------------------------------|---------------------------------|---------------------------------|
D|-6---6---6---8---8---8---6---6---|-6---6---6---6---6---6---6---6---|-9---9---9---9---9---9---9---9---|
A|-6---6---6---6---6---6---7---7---|-7---6---6---6---6---7---6---6---|-9---9---9---9---9---9---9---9---|
D|-6---6---6---6---6---6---6---6---|-6---6---6---6---6---6---6---6---|-9---9---9---9---9---9---9---9---|


E|---------------------------------|---------------------------------|---------------------------------|
B|---------------------------------|---------------------------------|---------------------------------|
G|---------------------------------|---------------------------------|---------------------------------|
D|-9---9---9---9---9---9---9---9---|-6---6---6---8---8---8---6---6---|-6---6---6---6---6---6---6---6---|
A|-9---9---9---9---9---9---9---9---|-6---6---6---6---6---6---7---7---|-7---6---6---6---6---7---6---6---|
D|-9---8---8---8---8---8---8---8---|-6---6---6---6---6---6---6---6---|-6---6---6---6---6---6---6---6---|


E|---------------------------------|---------------------------------|---------------------------|
B|---------------------------------|---------------------------------|---------------------------|
G|---------------------------------|---------------------------------|---------------------------|
D|-9---9---9---9---9---9---9---9---|-9---9---9---9---9---9---9---9---|-7----7---7---7---7---7----|
A|-9---9---9---9---9---9---9---9---|-9---9---9---9---9---9---9---9---|-7----7---7---7---7---7----|
D|-9---9---9---9---9---9---9---9---|-9---8---8---8---8---8---8---8---|-7----7---7---7---7---7----|


E|------------------------------|------------------------------|------------------------------|
B|------------------------------|------------------------------|------------------------------|
G|------------------------------|------------------------------|------------------------------|
D|-7---7---7---7---7----7---7---|-7---7---7----7---7---7---7---|-9---9---9---9---9---9---9----|
A|-7---7---7---7---7----7---7---|-7---7---7----7---7---7---7---|-9---9---9---9---9---9---9----|
D|-7---7---7---7---7----7---7---|-7---7---7----7---7---7---7---|-9---9---9---9---9---9---9----|


E|------------------------------|------------------------------|------------------------------|
B|------------------------------|------------------------------|------------------------------|
G|------------------------------|------------------------------|------------------------------|
D|-9---9---9---9---9----9---9---|-9---9---9----9---9---9---9---|-9----9---9---9---9---9---9---|
A|-9---9---9---9---9----9---9---|-9---9---9----9---9---9---9---|-9----9---9---9---9---9---9---|
D|-9---9---9---9---9----9---9---|-9---9---9----9---9---9---9---|-9----9---9---9---9---9---9---|


E|-------------|-------------|-------------|-------------|-------------|-------------|
B|-------------|-------------|-------------|-------------|-------------|-------------|
G|-------------|-------4-----|-4-----------|-------------|-------4-----|-4-----------|
D|-5------4----|-4-----4-----|-4----4------|-5------4----|-4-----4-----|-4----4------|
A|-5------4----|-4-----2-----|-2----4------|-5------4----|-4-----2-----|-2----4------|
D|-5------4----|-4-----------|------4------|-5------4----|-4-----------|------4------|


E|-------------|-------------|-------------|-------------|-------------|------------------------|
B|-------------|-------------|-------------|-------------|-------------|------------------------|
G|-------------|-------4-----|-4-----------|-------------|-------4-----|---------4----6----7----|
D|-5------4----|-4-----4-----|-4----4------|-5------4----|-4-----4-----|-4---4---4----6----7----|
A|-5------4----|-4-----2-----|-2----4------|-5------4----|-4-----2-----|-2---2---2----4----5----|
D|-5------4----|-4-----------|------4------|-5------4----|-4-----------|------------------------|


E|---------------------------|---------------------------|---------------------|---------------------------|
B|---------------------------|---------------------------|---------------------|---------------------------|
G|---------------------------|---------------------------|---------------------|---------------------------|
D|-5----5---5---5---5---7----|-7---7---7----4----4---4---|-4----7----7----7----|-5----5---5---5---5---7----|
A|-5----5---5---5---5---7----|-7---7---7----4----4---4---|-4----7----7----7----|-5----5---5---5---5---7----|
D|-5----5---5---5---5---7----|-7---7---7----4----4---4---|-4----7----7----7----|-5----5---5---5---5---7----|


E|------------------------------|------------------------------|---------------------------|
B|------------------------------|------------------------------|---------------------------|
G|-----------------4----4---4---|-4---4---4----4---4---4---4---|---------------------------|
D|-7---7---7---7---4----4---4---|-4---4---4----4---4---4---4---|-5----5---5---5---5---7----|
A|-7---7---7---7---2----2---2---|-2---2---2----2---2---2---2---|-5----5---5---5---5---7----|
D|-7---7---7---7----------------|------------------------------|-5----5---5---5---5---7----|


E|------------------------------|------------------------------|---------------------------|
B|------------------------------|------------------------------|---------------------------|
G|-----------------4----4---4---|-4---4---4----4---4---4---4---|---------------------------|
D|-7---7---7---7---4----4---4---|-4---4---4----4---4---4---4---|-5----5---5---5---5---7----|
A|-7---7---7---7---2----2---2---|-2---2---2----2---2---2---2---|-5----5---5---5---5---7----|
D|-7---7---7---7----------------|------------------------------|-5----5---5---5---5---7----|


E|-----------------------|-----------------|-----------------|-------------|-----------------|
B|-----------------------|-----------------|-----------------|-------------|-----------------|
G|-----------------------|-----------------|-4-----4---------|-------------|-----------------|
D|-7---7---7---7---5-----|------4----4-----|-4-----4----4----|-------5-----|------4----4-----|
A|-7---7---7---7---5-----|------4----4-----|-2-----2----4----|-------5-----|------4----4-----|
D|-7---7---7---7---5-----|------4----4-----|------------4----|-------5-----|------4----4-----|


E|-----------------|-------------|-----------------|-----------------|-------------|
B|-----------------|-------------|-----------------|-----------------|-------------|
G|-4-----4---------|-------------|-----------------|-4-----4---------|-------------|
D|-4-----4----4----|-------5-----|------4----4-----|-4-----4----4----|-------5-----|
A|-2-----2----4----|-------5-----|------4----4-----|-2-----2----4----|-------5-----|
D|------------4----|-------5-----|------4----4-----|------------4----|-------5-----|


E|-----------------|---------------------------------|---------------------------------|
B|-----------------|---------------------------------|---------------------------------|
G|-----------------|---------------------------------|---------------------------------|
D|------4----4-----|-6---6---6---8---8---8---6---6---|-6---6---6---6---6---6---6---6---|
A|------4----4-----|-6---6---6---6---6---6---7---7---|-7---6---6---6---6---7---6---6---|
D|------4----4-----|-6---6---6---6---6---6---6---6---|-6---6---6---6---6---6---6---6---|


E|---------------------------------|---------------------------------|---------------------------------|
B|---------------------------------|---------------------------------|---------------------------------|
G|---------------------------------|---------------------------------|---------------------------------|
D|-9---9---9---9---9---9---9---9---|-9---9---9---9---9---9---9---9---|-6---6---6---8---8---8---6---6---|
A|-9---9---9---9---9---9---9---9---|-9---9---9---9---9---9---9---9---|-6---6---6---6---6---6---7---7---|
D|-9---9---9---9---9---9---9---9---|-9---8---8---8---8---8---8---8---|-6---6---6---6---6---6---6---6---|


E|---------------------------------|---------------------------------|---------------------------------|
B|---------------------------------|---------------------------------|---------------------------------|
G|---------------------------------|---------------------------------|---------------------------------|
D|-6---6---6---6---6---6---6---6---|-9---9---9---9---9---9---9---9---|-9---9---9---9---9---9---9---9---|
A|-7---6---6---6---6---7---6---6---|-9---9---9---9---9---9---9---9---|-9---9---9---9---9---9---9---9---|
D|-6---6---6---6---6---6---6---6---|-9---9---9---9---9---9---9---9---|-9---8---8---8---8---8---8---8---|


E|---------------------------------|---------------------------------|---------------------------------|
B|---------------------------------|---------------------------------|---------------------------------|
G|---------------------------------|---------------------------------|---------------------------------|
D|-6---6---6---8---8---8---6---6---|-6---6---6---6---6---6---6---6---|-9---9---9---9---9---9---9---9---|
A|-6---6---6---6---6---6---7---7---|-7---6---6---6---6---7---6---6---|-9---9---9---9---9---9---9---9---|
D|-6---6---6---6---6---6---6---6---|-6---6---6---6---6---6---6---6---|-9---9---9---9---9---9---9---9---|


E|---------------------------------|---------------------------------|---------------------------------|
B|---------------------------------|---------------------------------|---------------------------------|
G|---------------------------------|---------------------------------|---------------------------------|
D|-9---9---9---9---9---9---9---9---|-6---6---6---8---8---8---6---6---|-6---6---6---6---6---6---6---6---|
A|-9---9---9---9---9---9---9---9---|-6---6---6---6---6---6---7---7---|-7---6---6---6---6---7---6---6---|
D|-9---8---8---8---8---8---8---8---|-6---6---6---6---6---6---6---6---|-6---6---6---6---6---6---6---6---|


E|---------------------------------|---------------------------------|---------------------------------|
B|---------------------------------|---------------------------------|---------------------------------|
G|---------------------------------|---------------------------------|---------------------------------|
D|-9---9---9---9---9---9---9---9---|-9---9---9---9---9---9---9---9---|-6---6---6---8---8---8---6---6---|
A|-9---9---9---9---9---9---9---9---|-9---9---9---9---9---9---9---9---|-6---6---6---6---6---6---7---7---|
D|-9---9---9---9---9---9---9---9---|-9---8---8---8---8---8---8---8---|-6---6---6---6---6---6---6---6---|


E|---------------------------------|---------------------------------|---------------------------------|
B|---------------------------------|---------------------------------|---------------------------------|
G|---------------------------------|---------------------------------|---------------------------------|
D|-6---6---6---6---6---6---6---6---|-9---9---9---9---9---9---9---9---|-9---9---9---9---9---9---9---9---|
A|-7---6---6---6---6---7---6---6---|-9---9---9---9---9---9---9---9---|-9---9---9---9---9---9---9---9---|
D|-6---6---6---6---6---6---6---6---|-9---9---9---9---9---9---9---9---|-9---8---8---8---8---8---8---8---|


E|---------------------------------|---------------------------------|---------------------------------|
B|---------------------------------|---------------------------------|---------------------------------|
G|---------------------------------|---------------------------------|---------------------------------|
D|-6---6---6---8---8---8---6---6---|-6---6---6---6---6---6---6---6---|-9---9---9---9---9---9---9---9---|
A|-6---6---6---6---6---6---7---7---|-7---6---6---6---6---7---6---6---|-9---9---9---9---9---9---9---9---|
D|-6---6---6---6---6---6---6---6---|-6---6---6---6---6---6---6---6---|-9---9---9---9---9---9---9---9---|


E|---------------------------------|-4-----6-----12---|-12--11-----|-11-----|
B|---------------------------------|------------------|------------|--------|
G|---------------------------------|------------------|------------|--------|
D|-9---9---9---9---9---9---9---9---|------------------|------------|--------|
A|-9---9---9---9---9---9---9---9---|------------------|------------|--------|
D|-9---8---8---8---8---8---8---8---|------------------|------------|--------|





Track 2: Untitled

E|------------------|------------------------|--------|------------|------------------|
B|------------------|------------------------|--------|------------|------------------|
G|-1-----3----------|------------------------|--------|------------|-1-----3----------|
D|-------------2----|-2---1-----1---2---1----|--------|------------|-------------2----|
A|------------------|------------------------|-2------|-2---1------|------------------|
D|------------------|------------------------|--------|------------|------------------|


E|------------------------|--------|------------|------------------|------------------------|
B|------------------------|--------|------------|------------------|------------------------|
G|------------------------|--------|------------|-1-----3----------|------------------------|
D|-2---1-----1---2---1----|--------|------------|-------------2----|-2---1-----1---2---1----|
A|------------------------|-2------|-2---1------|------------------|------------------------|
D|------------------------|--------|------------|------------------|------------------------|


E|--------|------------|------------------|------------------------|--------|------------|
B|--------|------------|------------------|------------------------|--------|------------|
G|--------|------------|-1-----3----------|------------------------|--------|------------|
D|--------|------------|-------------2----|-2---1-----1---2---1----|--------|------------|
A|-2------|-2---1------|------------------|------------------------|-2------|-2---1------|
D|--------|------------|------------------|------------------------|--------|------------|


E|------------------|------------------------|--------|------------|------------------|
B|------------------|------------------------|--------|------------|------------------|
G|-1-----3----------|------------------------|--------|------------|-1-----3----------|
D|-------------2----|-2---1-----1---2---1----|--------|------------|-------------2----|
A|------------------|------------------------|-2------|-2---1------|------------------|
D|------------------|------------------------|--------|------------|------------------|


E|------------------------|--------|------------|--------|--------|--------|--------|
B|------------------------|--------|------------|--------|--------|--------|--------|
G|------------------------|--------|------------|--------|--------|--------|--------|
D|-2---1-----1---2---1----|--------|------------|--------|--------|--------|--------|
A|------------------------|-2------|-2---1------|--------|--------|--------|--------|
D|------------------------|--------|------------|--------|--------|--------|--------|


E|--------|--------|--------|------------------|------------------------|--------|
B|--------|--------|--------|------------------|------------------------|--------|
G|--------|--------|--------|-1-----3----------|------------------------|--------|
D|--------|--------|--------|-------------2----|-2---1-----1---2---1----|--------|
A|--------|--------|--------|------------------|------------------------|-2------|
D|--------|--------|--------|------------------|------------------------|--------|


E|------------|------------------|------------------------|--------|------------|------------------|
B|------------|------------------|------------------------|--------|------------|------------------|
G|------------|-1-----3----------|------------------------|--------|------------|-1-----3----------|
D|------------|-------------2----|-2---1-----1---2---1----|--------|------------|-------------2----|
A|-2---1------|------------------|------------------------|-2------|-2---1------|------------------|
D|------------|------------------|------------------------|--------|------------|------------------|


E|------------------------|--------|------------|------------------|------------------------|
B|------------------------|--------|------------|------------------|------------------------|
G|------------------------|--------|------------|-1-----3----------|------------------------|
D|-2---1-----1---2---1----|--------|------------|-------------2----|-2---1-----1---2---1----|
A|------------------------|-2------|-2---1------|------------------|------------------------|
D|------------------------|--------|------------|------------------|------------------------|


E|--------|------------|--------|--------|--------|--------|--------|--------|--------|
B|--------|------------|--------|--------|--------|--------|--------|--------|--------|
G|--------|------------|--------|--------|--------|--------|--------|--------|--------|
D|--------|------------|--------|--------|--------|--------|--------|--------|--------|
A|-2------|-2---1------|--------|--------|--------|--------|--------|--------|--------|
D|--------|------------|--------|--------|--------|--------|--------|--------|--------|


E|---------------------------|------------------------------|------------------------------|
B|------3---2---3---2--------|-3---2---3---2--------3---2---|-3---2--------3---2---3---2---|
G|---------------------------|------------------------------|------------------------------|
D|---------------------------|------------------------------|------------------------------|
A|---------------------------|------------------------------|------------------------------|
D|---------------------------|------------------------------|------------------------------|


E|---------------------------|------------------------------|------------------------------|
B|------3---2---3---2--------|-3---2---3---2--------3---2---|-3---2--------3---2---3---2---|
G|---------------------------|------------------------------|------------------------------|
D|---------------------------|------------------------------|------------------------------|
A|---------------------------|------------------------------|------------------------------|
D|---------------------------|------------------------------|------------------------------|


E|---------------------------|------------------------------|------------------------------|
B|------3---2---3---2--------|-3---2---3---2--------3---2---|-3---2--------3---2---3---2---|
G|---------------------------|------------------------------|------------------------------|
D|---------------------------|------------------------------|------------------------------|
A|---------------------------|------------------------------|------------------------------|
D|---------------------------|------------------------------|------------------------------|


E|---------------------------|-----------------------|------------------------|---------------------------|
B|------3---2---3---2--------|-3---2---3---2---------|------------------------|---------------------------|
G|---------------------------|-----------------4-----|---------4----6----7----|---------------------------|
D|---------------------------|-----------------4-----|-4---4---4----6----7----|-5----5---5---5---5---7----|
A|---------------------------|-----------------2-----|-2---2---2----4----5----|-5----5---5---5---5---7----|
D|---------------------------|-----------------------|------------------------|-5----5---5---5---5---7----|


E|---------------------------|---------------------|--------|--------|--------|--------|
B|---------------------------|---------------------|--------|--------|--------|--------|
G|---------------------------|---------------------|--------|--------|--------|--------|
D|-7---7---7----4----4---4---|-4----7----7----7----|--------|--------|--------|--------|
A|-7---7---7----4----4---4---|-4----7----7----7----|--------|--------|--------|--------|
D|-7---7---7----4----4---4---|-4----7----7----7----|--------|--------|--------|--------|


E|--------|--------|--------|--------------------|------------------------------|---------------------------|
B|--------|--------|--------|------------3---2---|-3---2--------3---2---3---2---|------3---2---3---2--------|
G|--------|--------|--------|--------------------|------------------------------|---------------------------|
D|--------|--------|--------|--------------------|------------------------------|---------------------------|
A|--------|--------|--------|--------------------|------------------------------|---------------------------|
D|--------|--------|--------|--------------------|------------------------------|---------------------------|


E|------------------------------|------------------------------|---------------------------|
B|-3---2---3---2--------3---2---|-3---2--------3---2---3---2---|------3---2---3---2--------|
G|------------------------------|------------------------------|---------------------------|
D|------------------------------|------------------------------|---------------------------|
A|------------------------------|------------------------------|---------------------------|
D|------------------------------|------------------------------|---------------------------|


E|------------------------------|------------------------------|---------------------------|
B|-3---2---3---2--------3---2---|-3---2--------3---2---3---2---|------3---2---3---2--------|
G|------------------------------|------------------------------|---------------------------|
D|------------------------------|------------------------------|---------------------------|
A|------------------------------|------------------------------|---------------------------|
D|------------------------------|------------------------------|---------------------------|


E|------------------------------|------------------------------|------------------|
B|-3---2---3---2--------3---2---|-3---2--------3---2---3---2---|------------------|
G|------------------------------|------------------------------|-1-----3----------|
D|------------------------------|------------------------------|-------------2----|
A|------------------------------|------------------------------|------------------|
D|------------------------------|------------------------------|------------------|


E|------------------------|--------|------------|------------------|------------------------|
B|------------------------|--------|------------|------------------|------------------------|
G|------------------------|--------|------------|-1-----3----------|------------------------|
D|-2---1-----1---2---1----|--------|------------|-------------2----|-2---1-----1---2---1----|
A|------------------------|-2------|-2---1------|------------------|------------------------|
D|------------------------|--------|------------|------------------|------------------------|


E|--------|------------|------------------|------------------------|--------|------------|
B|--------|------------|------------------|------------------------|--------|------------|
G|--------|------------|-1-----3----------|------------------------|--------|------------|
D|--------|------------|-------------2----|-2---1-----1---2---1----|--------|------------|
A|-2------|-2---1------|------------------|------------------------|-2------|-2---1------|
D|--------|------------|------------------|------------------------|--------|------------|


E|------------------|------------------------|--------|------------|------------------|
B|------------------|------------------------|--------|------------|------------------|
G|-1-----3----------|------------------------|--------|------------|-1-----3----------|
D|-------------2----|-2---1-----1---2---1----|--------|------------|-------------2----|
A|------------------|------------------------|-2------|-2---1------|------------------|
D|------------------|------------------------|--------|------------|------------------|


E|------------------------|--------|------------|------------------|------------------------|
B|------------------------|--------|------------|------------------|------------------------|
G|------------------------|--------|------------|-1-----3----------|------------------------|
D|-2---1-----1---2---1----|--------|------------|-------------2----|-2---1-----1---2---1----|
A|------------------------|-2------|-2---1------|------------------|------------------------|
D|------------------------|--------|------------|------------------|------------------------|


E|--------|------------|--------|--------|--------|
B|--------|------------|--------|--------|--------|
G|--------|------------|--------|--------|--------|
D|--------|------------|--------|--------|--------|
A|-2------|-2---1------|--------|--------|--------|
D|--------|------------|--------|--------|--------|





Track 3: Untitled

G|--------|--------|--------|--------|--------|--------|--------|--------|--------|
D|--------|--------|--------|--------|--------|--------|--------|--------|--------|
A|--------|--------|--------|--------|--------|--------|--------|--------|--------|
E|--------|--------|--------|--------|--------|--------|--------|--------|--------|


G|--------|--------|--------|--------|--------|--------|--------|--------|--------|
D|--------|--------|--------|--------|--------|--------|--------|--------|--------|
A|--------|--------|--------|--------|--------|--------|--------|--------|--------|
E|--------|--------|--------|--------|--------|--------|--------|--------|--------|


G|--------|--------|--------|--------|--------|--------|--------|--------|--------|
D|--------|--------|--------|--------|--------|--------|--------|--------|--------|
A|--------|--------|--------|--------|--------|--------|--------|--------|--------|
E|--------|--------|--------|--------|--------|--------|--------|--------|--------|


G|--------|--------|--------|--------|--------|--------|--------|--------|--------|
D|--------|--------|--------|--------|--------|--------|--------|--------|--------|
A|--------|--------|--------|--------|--------|--------|--------|--------|--------|
E|--------|--------|--------|--------|--------|--------|--------|--------|--------|


G|--------|--------|--------|--------|--------|--------|--------|--------|--------|
D|--------|--------|--------|--------|--------|--------|--------|--------|--------|
A|--------|--------|--------|--------|--------|--------|--------|--------|--------|
E|--------|--------|--------|--------|--------|--------|--------|--------|--------|


G|--------|--------|--------|--------|--------|--------|--------|--------|--------|
D|--------|--------|--------|--------|--------|--------|--------|--------|--------|
A|--------|--------|--------|--------|--------|--------|--------|--------|--------|
E|--------|--------|--------|--------|--------|--------|--------|--------|--------|


G|--------|--------|--------|--------|--------|--------|--------|--------|--------|
D|--------|--------|--------|--------|--------|--------|--------|--------|--------|
A|--------|--------|--------|--------|--------|--------|--------|--------|--------|
E|--------|--------|--------|--------|--------|--------|--------|--------|--------|


G|--------|--------|--------|--------|--------|--------|--------|--------|--------|
D|--------|--------|--------|--------|--------|--------|--------|--------|--------|
A|--------|--------|--------|--------|--------|--------|--------|--------|--------|
E|--------|--------|--------|--------|--------|--------|--------|--------|--------|


G|--------|--------|--------|--------|--------|--------|--------|--------|--------|
D|--------|--------|--------|--------|--------|--------|--------|--------|--------|
A|--------|--------|--------|--------|--------|--------|--------|--------|--------|
E|--------|--------|--------|--------|--------|--------|--------|--------|--------|


G|--------|--------|--------|--------|--------|--------|--------|--------|--------|
D|--------|--------|--------|--------|--------|--------|--------|--------|--------|
A|--------|--------|--------|--------|--------|--------|--------|--------|--------|
E|--------|--------|--------|--------|--------|--------|--------|--------|--------|


G|--------|--------|--------|--------|--------|--------|--------|--------|--------|
D|--------|--------|--------|--------|--------|--------|--------|--------|--------|
A|--------|--------|--------|--------|--------|--------|--------|--------|--------|
E|--------|--------|--------|--------|--------|--------|--------|--------|--------|


G|--------|--------|--------|--------|--------|--------|--------|--------|--------|
D|--------|--------|--------|--------|--------|--------|--------|--------|--------|
A|--------|--------|--------|--------|--------|--------|--------|--------|--------|
E|--------|--------|--------|--------|--------|--------|--------|--------|--------|


G|--------|--------|--------|--------|--------|--------|
D|--------|--------|--------|--------|--------|--------|
A|--------|--------|--------|--------|--------|--------|
E|--------|--------|--------|--------|--------|--------|