Menu:

 

Search:

 

slipknot - vermilion pt 2:

 



Title: Vermilion Pt. 2
Artist: 
Album: Vol.3: (Subliminal Verses)
Author: Slipknot


Track 1: Untitled

C#|---------------------------------|---------------------------------|---------------------------------|
G#|-0---0---0---2---2---2---3---3---|-3---2-----------2---2---2-------|---------------------------------|
 E|-2---2---2---2---2---2---2-------|-----2---2---2---2---2---2---2---|-2---2---2---2-------2-------2---|
 B|-0---0---0---0---0---0---0---0---|-0---0---0---0---0---0---0---0---|-0---0---0---0---0---0---0---0---|
F#|---------------------------------|-----------------------------0---|-0---0---0---0---0---0---0---0---|
 B|---------------------------------|---------------------------------|---------------------------------|


C#|---------------------------------|---------------------------------|---------------------------------|
G#|---------------------------------|-0---0---0---2---2---2---3---3---|-3---2-----------2---2---2-------|
 E|---------------------------------|-2---2---2---2---2---2---2-------|-----2---2---2---2---2---2---2---|
 B|-0---0---0---0---0---0---0---0---|-0---0---0---0---0---0---0---0---|-0---0---0---0---0---0---0---0---|
F#|-0-------0-------0-------0-------|---------------------------------|-----------------------------0---|
 B|---------------------------------|---------------------------------|---------------------------------|


C#|---------------------------------|---------------------------------|---------------------------------|
G#|---------------------------------|---------------------------------|-0---0---0---2---2---2-----------|
 E|-2---2---2---2-------2-------2---|---------------------------------|-2---2---2---2---2---2---2---2---|
 B|-0---0---0---0---0---0---0---0---|-0---0---0---0---0---0---0---0---|-0---0---0---0---0---0---0---0---|
F#|-0---0---0---0---0---0---0---0---|-0-------0-------0-------0-------|---------------------------------|
 B|---------------------------------|---------------------------------|---------------------------------|


C#|---------------------------------|---------------------------------|---------------------------------|
G#|-----------------2---3---2-------|---------------------------------|---------------------------------|
 E|-2---2---2---2---2---2---2---2---|-2---2---2---2-------2-------2---|---------------------------------|
 B|-0---0---0---0---0---0---0---0---|-0---0---0---0---0---0---0---0---|-0---0---0---0---0---0---0---0---|
F#|-----------------------------0---|-0---0---0---0---0---0---0---0---|-0-------0-------0-------0-------|
 B|---------------------------------|---------------------------------|---------------------------------|


C#|---------------------------------|---------------------------------|---------------------------------|
G#|-0---0---0---2---2---2-----------|-----------------2---3---2-------|---------------------------------|
 E|-2---2---2---2---2---2---2---2---|-2---2---2---2---2---2---2---2---|-2---2---2---2-------2-------2---|
 B|-0---0---0---0---0---0---0---0---|-0---0---0---0---0---0---0---0---|-0---0---0---0---0---0---0---0---|
F#|---------------------------------|-----------------------------0---|-0---0---0---0---0---0---0---0---|
 B|---------------------------------|---------------------------------|---------------------------------|


C#|---------------------------------|---------------------------------|---------------------------------|
G#|---------------------------------|-0---0---0---2---2---2-----------|-----------------2---3---2-------|
 E|---------------------------------|-2---2---2---2---2---2---2---2---|-2---2---2---2---2---2---2---2---|
 B|-0---0---0---0---0---0---0---0---|-0---0---0---0---0---0---0---0---|-0---0---0---0---0---0---0---0---|
F#|-0-------0-------0-------0-------|---------------------------------|-----------------------------0---|
 B|---------------------------------|---------------------------------|---------------------------------|


C#|---------------------------------|---------------------------------|---------------------------------|
G#|---------------------------------|---------------------------------|-0---0---0---2---2---2-----------|
 E|-2---2---2---2-------2-------2---|---------------------------------|-2---2---2---2---2---2---2---2---|
 B|-0---0---0---0---0---0---0---0---|-0---0---0---0---0---0---0---0---|-0---0---0---0---0---0---0---0---|
F#|-0---0---0---0---0---0---0---0---|-0-------0-------0-------0-------|---------------------------------|
 B|---------------------------------|---------------------------------|---------------------------------|


C#|---------------------------------|---------------------------------|---------------------------------|
G#|-----------------2---3---2-------|---------------------------------|---------------------------------|
 E|-2---2---2---2---2---2---2---2---|-2---2---2---2-------2-------2---|---------------------------------|
 B|-0---0---0---0---0---0---0---0---|-0---0---0---0---0---0---0---0---|-0---0---0---0---0---0---0---0---|
F#|-----------------------------0---|-0---0---0---0---0---0---0---0---|-0-------0-------0-------0-------|
 B|---------------------------------|---------------------------------|---------------------------------|


C#|------------------------|------------------------------|---------------------------|
G#|------------------------|------------------------------|---------------------------|
 E|-5--------5--------5----|-----5-------5-------5----5---|-5-------5--------5----5---|
 B|-5----5---5----5---5----|-5---5---5---5---5---5----5---|-5---5---5----5---5----5---|
F#|-3----3---3----3---3----|-3---3---3---3---3---3----3---|-3---3---3----3---3----3---|
 B|------------------------|------------------------------|---------------------------|


C#|------------------------------|------------------------------|---------------------------|
G#|------------------------------|------------------------------|---------------------------|
 E|-7---7-------7-----------7----|-----7-----------7------------|-7--------7-----------7----|
 B|-7---7---7---7---7---7---7----|-7---7---7---7---7----7---7---|-7----7---7---7---7---7----|
F#|-5---5---5---5---5---5---5----|-5---5---5---5---5----5---5---|-5----5---5---5---5---5----|
 B|---------0---------------0----|-0---------------0----0-------|-0----0---------------0----|


C#|------------------------------|---------------------------------|---------------------------------|
G#|----------------------0---0---|-0---2---2---2-------------------|---------2---3---2---------------|
 E|---------7----7---7---2---2---|-2---2---2---2---2---2---2---2---|-2---2---2---2---2---2---2---2---|
 B|-7---7---7----7---7---0---0---|-0---0---0---0---0---0---0---0---|-0---0---0---0---0---0---0---0---|
F#|-5---5---5----5---5-----------|---------------------------------|---------------------0---0---0---|
 B|-0-------0--------------------|---------------------------------|---------------------------------|


C#|---------------------------------|---------------------------------|---------------------------------|
G#|---------------------------------|-------------------------0---0---|-0---2---2---2-------------------|
 E|-2---2-------2-------2-----------|-------------------------2---2---|-2---2---2---2---2---2---2---2---|
 B|-0---0---0---0---0---0---0---0---|-0---0---0---0---0---0---0---0---|-0---0---0---0---0---0---0---0---|
F#|-0---0---0---0---0---0---0-------|-0-------0-------0---------------|---------------------------------|
 B|---------------------------------|---------------------------------|---------------------------------|


C#|---------------------------------|---------------------------------|---------------------------------|
G#|---------2---3---2---------------|---------------------------------|-------------------------0---0---|
 E|-2---2---2---2---2---2---2---2---|-2---2-------2-------2-----------|-------------------------2---2---|
 B|-0---0---0---0---0---0---0---0---|-0---0---0---0---0---0---0---0---|-0---0---0---0---0---0---0---0---|
F#|---------------------0---0---0---|-0---0---0---0---0---0---0-------|-0-------0-------0---------------|
 B|---------------------------------|---------------------------------|---------------------------------|


C#|---------------------------------|---------------------------------|---------------------------------|
G#|-0---2---2---2-------------------|---------2---3---2---------------|---------------------------------|
 E|-2---2---2---2---2---2---2---2---|-2---2---2---2---2---2---2---2---|-2---2-------2-------2-----------|
 B|-0---0---0---0---0---0---0---0---|-0---0---0---0---0---0---0---0---|-0---0---0---0---0---0---0---0---|
F#|---------------------------------|---------------------0---0---0---|-0---0---0---0---0---0---0-------|
 B|---------------------------------|---------------------------------|---------------------------------|


C#|---------------------------------|---------------------------------|---------------------------------|
G#|-------------------------0---0---|-0---2---2---2-------------------|---------2---3---2---------------|
 E|-------------------------2---2---|-2---2---2---2---2---2---2---2---|-2---2---2---2---2---2---2---2---|
 B|-0---0---0---0---0---0---0---0---|-0---0---0---0---0---0---0---0---|-0---0---0---0---0---0---0---0---|
F#|-0-------0-------0---------------|---------------------------------|---------------------0---0---0---|
 B|---------------------------------|---------------------------------|---------------------------------|


C#|---------------------------------|------------------------------|---------------------------|
G#|---------------------------------|------------------------------|---------------------------|
 E|-2---2-------2-------2-----------|-------------------------5----|-----5--------5--------5---|
 B|-0---0---0---0---0---0---0---0---|-0---0---0---0---0---0---5----|-5---5----5---5----5---5---|
F#|-0---0---0---0---0---0---0-------|-0-------0-------0-------3----|-3---3----3---3----3---3---|
 B|---------------------------------|------------------------------|---------------------------|


C#|------------------------------|---------------------------|------------------------------|
G#|------------------------------|---------------------------|------------------------------|
 E|-----5-------5----5---5-------|-5--------5----5---7---7---|-----7-----------7--------7---|
 B|-5---5---5---5----5---5---5---|-5----5---5----5---7---7---|-7---7---7---7---7----7---7---|
F#|-3---3---3---3----3---3---3---|-3----3---3----3---5---5---|-5---5---5---5---5----5---5---|
 B|------------------------------|---------------------------|-0---------------0----0-------|


C#|---------------------------|------------------------------|--------------1------------|
G#|---------------------------|------------------------------|--------------1------------|
 E|---------7------------7----|-----7-----------7------------|-7----7---7---3--------3---|
 B|-7---7---7----7---7---7----|-7---7---7---7---7----7---7---|-7----7---7---3----3---3---|
F#|-5---5---5----5---5---5----|-5---5---5---5---5----5---5---|-5----5---5---1----1-------|
 B|---------0----0-------0----|-0---------------0----0-------|-0-------------------------|


C#|---------5--------------------|-0--------------------3----|-----------------1------------|
G#|---------5--------------------|-3--------3-------3---6----|-----6-------6---1------------|
 E|-----3---5--------5-------5---|-2----2---2---2---2---5----|-5---5---5---5---3--------3---|
 B|-3---3---5----5---5---5---5---|-0----0-------0-------3----|-3-------3-------3----3---3---|
F#|-1-------3----3-------3-------|-0--------------------0----|-----------------1----1-------|
 B|------------------------------|-0-------------------------|------------------------------|


C#|---------5--------------------|-0--------------------3----|-----------------1------------|
G#|---------5--------------------|-3--------3-------3---6----|-----6-------6---1------------|
 E|-----3---5--------5-------5---|-2----2---2---2---2---5----|-5---5---5---5---3--------3---|
 B|-3---3---5----5---5---5---5---|-0----0-------0-------3----|-3-------3-------3----3---3---|
F#|-1-------3----3-------3-------|-0--------------------0----|-----------------1----1-------|
 B|------------------------------|-0-------------------------|------------------------------|


C#|---------5--------------------|-0--------------------3----|-----------------1------------|
G#|---------5--------------------|-3--------3-------3---6----|-----6-------6---1------------|
 E|-----3---5--------5-------5---|-2----2---2---2---2---5----|-5---5---5---5---3--------3---|
 B|-3---3---5----5---5---5---5---|-0----0-------0-------3----|-3-------3-------3----3---3---|
F#|-1-------3----3-------3-------|-0--------------------0----|-----------------1----1-------|
 B|------------------------------|-0-------------------------|------------------------------|


C#|---------5--------------------|-0-------------------------|-----------1------------|
G#|---------5--------------------|-3--------3-------3--------|-----------1------------|
 E|-----3---5--------5-------5---|-2----2---2---2---2---2----|-4----5----3--------3---|
 B|-3---3---5----5---5---5---5---|-0----0-------0-------0----|-2----3----3----3---3---|
F#|-1-------3----3-------3-------|-0-------------------------|-----------1----1-------|
 B|------------------------------|-0-------------------------|------------------------|


C#|---------5--------------------|-0--------------------1----|-----------0------------|
G#|---------5--------------------|-1--------------------1----|-----------3--------3---|
 E|-----3---5--------5-------5---|-2--------2-------2---3----|-----------2----2---2---|
 B|-3---3---5----5---5---5---5---|-2----2---2---2---2---3----|-2----2----0----0-------|
F#|-1-------3----3-------3-------|-0----0-------0-------1----|-0----0----0------------|
 B|------------------------------|---------------------------|-----------0------------|


C#|---------0--------------------|-0--------------------0----|-----------------0------------|
G#|-----3---3--------3-------3---|-3--------3-------3---3----|-----3-------3---3--------3---|
 E|-2---2---2----2---2---2---2---|-2----2---2---2---2---2----|-2---2---2---2---2----2---2---|
 B|-0-------0----0-------0-------|-0----0-------0-------0----|-0-------0-------0----0-------|
F#|------------------------------|---------------------------|------------------------------|
 B|------------------------------|---------------------------|------------------------------|


C#|---------0--------------------|-0--------------------0----|-----------------0------------|
G#|-----3---3--------3-------3---|-3--------3-------3---3----|-----3-------3---3--------3---|
 E|-2---2---2----2---2---2---2---|-2----2---2---2---2---2----|-2---2---2---2---2----2---2---|
 B|-0-------0----0-------0-------|-0----0-------0-------0----|-0-------0-------0----0-------|
F#|------------------------------|-0-------------------------|-----------------0------------|
 B|------------------------------|-0-------------------------|-----------------0------------|


C#|---------0--------------------|-1--------------------5----|-----------------0------------|
G#|-----3---3--------3-------3---|-1--------------------5----|-----------------3--------3---|
 E|-2---2---2----2---2---2---2---|-3--------3-------3---5----|-----5-------5---2----2---2---|
 B|-0-------0----0-------0-------|-3----3---3---3---3---5----|-5---5---5---5---0----0-------|
F#|---------0--------------------|-1----1-------1-------3----|-3-------3-------0------------|
 B|---------0--------------------|---------------------------|-----------------0------------|


C#|---------3--------------------|-1--------------------5----|-----------------0------------|
G#|-----3---6--------6-------6---|-1--------------------5----|-----------------3--------3---|
 E|-2---2---5----5---5---5---5---|-3--------3-------3---5----|-----5-------5---2----2---2---|
 B|-0-------3----3-------3-------|-3----3---3---3---3---5----|-5---5---5---5---0----0-------|
F#|---------0--------------------|-1----1-------1-------3----|-3-------3-------0------------|
 B|------------------------------|---------------------------|-----------------0------------|


C#|---------3--------------------|-1--------------------5----|-----------------0------------|
G#|-----3---6--------6-------6---|-1--------------------5----|-----------------3--------3---|
 E|-2---2---5----5---5---5---5---|-3--------3-------3---5----|-----5-------5---2----2---2---|
 B|-0-------3----3-------3-------|-3----3---3---3---3---5----|-5---5---5---5---0----0-------|
F#|---------0--------------------|-1----1-------1-------3----|-3-------3-------0------------|
 B|------------------------------|---------------------------|-----------------0------------|


C#|---------3--------------------|-1--------------------5----|---------------------------------|
G#|-----3---6--------6-------6---|-1--------------------5----|-----------------0---0---0---2---|
 E|-2---2---5----5---5---5---5---|-3--------3-------3---5----|-----5-------5---2---2---2---2---|
 B|-0-------3----3-------3-------|-3----3---3---3---3---5----|-5---5---5---5---0---0---0---0---|
F#|---------0--------------------|-1----1-------1-------3----|-3-------3-----------------------|
 B|------------------------------|---------------------------|---------------------------------|


C#|---------------------------------|---------------------------------|---------------------------------|
G#|-2---2---------------------------|-2---3---2-----------------------|---------------------------------|
 E|-2---2---2---2---2---2---2---2---|-2---2---2---2---2---2---2---2---|-----2-------2-------------------|
 B|-0---0---0---0---0---0---0---0---|-0---0---0---0---0---0---0---0---|-0---0---0---0---0---0---0---0---|
F#|---------------------------------|-------------0---0---0---0---0---|-0---0---0---0---0-------0-------|
 B|---------------------------------|---------------------------------|---------------------------------|


C#|---------------------------------|---------------------------------|---------------------------------|
G#|-----------------0---0---0---2---|-2---2---------------------------|-2---3---2-----------------------|
 E|-----------------2---2---2---2---|-2---2---2---2---2---2---2---2---|-2---2---2---2---2---2---2---2---|
 B|-0---0---0---0---0---0---0---0---|-0---0---0---0---0---0---0---0---|-0---0---0---0---0---0---0---0---|
F#|-0-------0-----------------------|---------------------------------|-------------0---0---0---0---0---|
 B|---------------------------------|---------------------------------|---------------------------------|


C#|---------------------------------|---------------------------------|---------------------------------|
G#|---------------------------------|-----------------0---0---0---2---|-2---2---------------------------|
 E|-----2-------2-------------------|-----------------2---2---2---2---|-2---2---2---2---2---2---2---2---|
 B|-0---0---0---0---0---0---0---0---|-0---0---0---0---0---0---0---0---|-0---0---0---0---0---0---0---0---|
F#|-0---0---0---0---0-------0-------|-0-------0-----------------------|---------------------------------|
 B|---------------------------------|---------------------------------|---------------------------------|


C#|---------------------------------|---------------------------------|---------------------------------|
G#|-2---3---2-----------------------|---------------------------------|-----------------0---0---0---2---|
 E|-2---2---2---2---2---2---2---2---|-----2-------2-------------------|-----------------2---2---2---2---|
 B|-0---0---0---0---0---0---0---0---|-0---0---0---0---0---0---0---0---|-0---0---0---0---0---0---0---0---|
F#|-------------0---0---0---0---0---|-0---0---0---0---0-------0-------|-0-------0-----------------------|
 B|---------------------------------|---------------------------------|---------------------------------|


C#|---------------------------------|---------------------------------|---------------------------------|
G#|-2---2---------------------------|-2---3---2-----------------------|---------------------------------|
 E|-2---2---2---2---2---2---2---2---|-2---2---2---2---2---2---2---2---|-----2-------2-------------------|
 B|-0---0---0---0---0---0---0---0---|-0---0---0---0---0---0---0---0---|-0---0---0---0---0---0---0---0---|
F#|---------------------------------|-------------0---0---0---0---0---|-0---0---0---0---0-------0-------|
 B|---------------------------------|---------------------------------|---------------------------------|


C#|---------------------------------|---------------------------------|---------------------------------|
G#|-----------------0---0---0---2---|-2---2---------------------------|-2---3---2-----------------------|
 E|-----------------2---2---2---2---|-2---2---2---2---2---2---2---2---|-2---2---2---2---2---2---2---2---|
 B|-0---0---0---0---0---0---0---0---|-0---0---0---0---0---0---0---0---|-0---0---0---0---0---0---0---0---|
F#|-0-------0-----------------------|---------------------------------|-------------0---0---0---0---0---|
 B|---------------------------------|---------------------------------|---------------------------------|


C#|---------------------------------|---------------------------------|---------------------------------|
G#|---------------------------------|-----------------0---0---0---2---|-2---2---------------------------|
 E|-----2-------2-------------------|-----------------2---2---2---2---|-2---2---2---2---2---2---2---2---|
 B|-0---0---0---0---0---0---0---0---|-0---0---0---0---0---0---0---0---|-0---0---0---0---0---0---0---0---|
F#|-0---0---0---0---0-------0-------|-0-------0-----------------------|---------------------------------|
 B|---------------------------------|---------------------------------|---------------------------------|


C#|---------------------------------|---------------------------------|-----------------------|
G#|-2---3---2-----------------------|---------------------------------|-----------------------|
 E|-2---2---2---2---2---2---2---2---|-----2-------2-------------------|-----------------------|
 B|-0---0---0---0---0---0---0---0---|-0---0---0---0---0---0---0---0---|-0---0---0---0---------|
F#|-------------0---0---0---0---0---|-0---0---0---0---0-------0-------|-0-------0-------------|
 B|---------------------------------|---------------------------------|-----------------------|


C#|--------|--------|--------|
G#|--------|--------|--------|
 E|--------|--------|--------|
 B|--------|--------|--------|
F#|--------|--------|--------|
 B|--------|--------|--------|





Track 2: Untitled

C#|------------------|--------------------|--------|--------|------------------|--------------------|
G#|-0-----2----------|--------------------|--------|--------|-0-----2----------|--------------------|
 E|-------------0----|-0------------------|-7------|-7------|-------------0----|-0------------------|
 B|------------------|-------4---5---4----|-5------|-4------|------------------|-------4---5---4----|
F#|------------------|--------------------|-5------|-4------|------------------|--------------------|
 B|------------------|--------------------|-0------|-0------|------------------|--------------------|


C#|--------|--------|------------------|--------------------|--------|--------|------------------|
G#|--------|--------|-0-----2----------|--------------------|--------|--------|-0-----2----------|
 E|-7------|-7------|-------------0----|-0------------------|-7------|-7------|-------------0----|
 B|-5------|-4------|------------------|-------4---5---4----|-5------|-4------|------------------|
F#|-5------|-4------|------------------|--------------------|-5------|-4------|------------------|
 B|-0------|-0------|------------------|--------------------|-0------|-0------|------------------|


C#|--------------------|--------|--------|------------------|--------------------|
G#|--------------------|--------|--------|-0-----2----------|--------------------|
 E|-0------------------|-7------|-7------|-------------0----|-0------------------|
 B|-------4---5---4----|-5------|-4------|------------------|-------4---5---4----|
F#|--------------------|-5------|-4------|------------------|--------------------|
 B|--------------------|-0------|-0------|------------------|--------------------|


C#|--------|--------|------------------|--------------------|--------|--------|-------------|
G#|--------|--------|-0-----2----------|--------------------|--------|--------|-------------|
 E|-7------|-7------|-------------0----|-0------------------|-7------|-7------|-------------|
 B|-5------|-4------|------------------|-------4---5---4----|-5------|-4------|-------------|
F#|-5------|-4------|------------------|--------------------|-5------|-4------|-------------|
 B|-0------|-0------|------------------|--------------------|-0------|-0------|-------------|


C#|-------------|-------------|-------------|--------|--------|-------------|---------------------|
G#|-------------|------0------|-------------|--------|--------|--------0----|-----2---------------|
 E|-------------|------5------|-7-----------|--------|--------|-------------|-----------0----0----|
 B|-------------|-5----5------|-7-----------|--------|--------|-------------|---------------------|
F#|-------------|-3----3------|-5-----------|--------|--------|-------------|---------------------|
 B|-------------|-------------|-------------|--------|--------|-------------|---------------------|


C#|------------------------|-------------|-------------|---------------------|------------------------|
G#|------------------------|-------------|--------0----|-----2---------------|------------------------|
 E|-------------------7----|--------7----|-------------|-----------0----0----|-------------------7----|
 B|------4---5---4----5----|--------4----|-------------|---------------------|------4---5---4----5----|
F#|-------------------5----|--------4----|-------------|---------------------|-------------------5----|
 B|-------------------0----|--------0----|-------------|---------------------|-------------------0----|


C#|-------------|-------------|---------------------|------------------------|-------------|
G#|-------------|--------0----|-----2---------------|------------------------|-------------|
 E|--------7----|-------------|-----------0----0----|-------------------7----|--------7----|
 B|--------4----|-------------|---------------------|------4---5---4----5----|--------4----|
F#|--------4----|-------------|---------------------|-------------------5----|--------4----|
 B|--------0----|-------------|---------------------|-------------------0----|--------0----|


C#|-------------|---------------------|------------------------|-------------|-------------|
G#|--------0----|-----2---------------|------------------------|-------------|-------------|
 E|-------------|-----------0----0----|-------------------7----|--------7----|-------------|
 B|-------------|---------------------|------4---5---4----5----|--------4----|-------------|
F#|-------------|---------------------|-------------------5----|--------4----|-------------|
 B|-------------|---------------------|-------------------0----|--------0----|-------------|


C#|-----------------|-----------------|-------------|--------|--------|--------|------------1---0---|
G#|-----------------|-----------------|-0-----------|--------|--------|--------|--------------------|
 E|-----------------|-----------------|-5------7----|--------|--------|--------|--------------------|
 B|-----------------|------------5----|-5------7----|--------|--------|--------|--------------------|
F#|-----------------|------------3----|-3------5----|--------|--------|--------|--------------------|
 B|-----------------|-----------------|-------------|--------|--------|--------|--------------------|


C#|-1---0---0-------1---0---1---0---|-0-------1---0---1---0---0-------|-1---0---1---0--------1---0---|
G#|---------------------------------|---------------------------------|------------------------------|
 E|---------------------------------|---------------------------------|------------------------------|
 B|---------------------------------|---------------------------------|------------------------------|
F#|---------------------------------|---------------------------------|------------------------------|
 B|---------------------------------|---------------------------------|------------------------------|


C#|-1---0---0-------1---0---1---0---|-0-------1---0---1---0---0-------|-1---0---1---0--------1---0---|
G#|---------------------------------|---------------------------------|------------------------------|
 E|---------------------------------|---------------------------------|------------------------------|
 B|---------------------------------|---------------------------------|------------------------------|
F#|---------------------------------|---------------------------------|------------------------------|
 B|---------------------------------|---------------------------------|------------------------------|


C#|-1---0---0-------1---0---1---0---|-0-------1---0---1---0---0-------|-1---0---1---0--------1---0---|
G#|---------------------------------|---------------------------------|------------------------------|
 E|---------------------------------|---------------------------------|------------------------------|
 B|---------------------------------|---------------------------------|------------------------------|
F#|---------------------------------|---------------------------------|------------------------------|
 B|---------------------------------|---------------------------------|------------------------------|


C#|-1---0---0-------1---0---1---0---|-0-------1---0---1---0---1----|------0----------|
G#|---------------------------------|------------------------------|-3---------------|
 E|---------------------------------|------------------------------|-----------------|
 B|---------------------------------|------------------------------|-----------------|
F#|---------------------------------|------------------------------|-----------------|
 B|---------------------------------|------------------------------|-----------------|


C#|--------|--------|--------|--------|--------|--------|--------|--------|--------|
G#|--------|--------|--------|--------|--------|--------|--------|--------|--------|
 E|--------|--------|--------|--------|--------|--------|--------|--------|--------|
 B|--------|--------|--------|--------|--------|--------|--------|--------|--------|
F#|--------|--------|--------|--------|--------|--------|--------|--------|--------|
 B|--------|--------|--------|--------|--------|--------|--------|--------|--------|


C#|--------|------1---0---1---0---0-------|-1---0---1---0---0-------1---0---|-1---0---0-------1---0---1---0---|
G#|--------|------------------------------|---------------------------------|---------------------------------|
 E|--------|------------------------------|---------------------------------|---------------------------------|
 B|--------|------------------------------|---------------------------------|---------------------------------|
F#|--------|------------------------------|---------------------------------|---------------------------------|
 B|--------|------------------------------|---------------------------------|---------------------------------|


C#|------1---0---1---0---0-------|-1---0---1---0---0-------1---0---|-1---0---0-------1---0---1---0---|
G#|------------------------------|---------------------------------|---------------------------------|
 E|------------------------------|---------------------------------|---------------------------------|
 B|------------------------------|---------------------------------|---------------------------------|
F#|------------------------------|---------------------------------|---------------------------------|
 B|------------------------------|---------------------------------|---------------------------------|


C#|------1---0---1---0---0-------|-1---0---1---0---0-------1---0---|-1---0---0-------1---0---1---0---|
G#|------------------------------|---------------------------------|---------------------------------|
 E|------------------------------|---------------------------------|---------------------------------|
 B|------------------------------|---------------------------------|---------------------------------|
F#|------------------------------|---------------------------------|---------------------------------|
 B|------------------------------|---------------------------------|---------------------------------|


C#|------1---0---1---0---0-------|-1---0---1---0-------------|-----------------|--------------------|
G#|------------------------------|-----------------0-----2---|-----------------|--------------------|
 E|------------------------------|---------------------------|------0----0-----|--------------7-----|
 B|------------------------------|---------------------------|-----------------|-4---5---4----5-----|
F#|------------------------------|---------------------------|-----------------|--------------5-----|
 B|------------------------------|---------------------------|-----------------|--------------0-----|


C#|-------------|-----------------|-----------------|--------------------|-------------|
G#|-------------|-------0-----2---|-----------------|--------------------|-------------|
 E|-------7-----|-----------------|------0----0-----|--------------7-----|-------7-----|
 B|-------4-----|-----------------|-----------------|-4---5---4----5-----|-------4-----|
F#|-------4-----|-----------------|-----------------|--------------5-----|-------4-----|
 B|-------0-----|-----------------|-----------------|--------------0-----|-------0-----|


C#|-----------------|-----------------|--------------------|-------------|-----------------|
G#|-------0-----2---|-----------------|--------------------|-------------|-------0-----2---|
 E|-----------------|------0----0-----|--------------7-----|-------7-----|-----------------|
 B|-----------------|-----------------|-4---5---4----5-----|-------4-----|-----------------|
F#|-----------------|-----------------|--------------5-----|-------4-----|-----------------|
 B|-----------------|-----------------|--------------0-----|-------0-----|-----------------|


C#|-----------------|--------------------|-------------|-----------------|-----------------|
G#|-----------------|--------------------|-------------|-------0-----2---|-----------------|
 E|------0----0-----|--------------7-----|-------7-----|-----------------|------0----0-----|
 B|-----------------|-4---5---4----5-----|-------4-----|-----------------|-----------------|
F#|-----------------|--------------5-----|-------4-----|-----------------|-----------------|
 B|-----------------|--------------0-----|-------0-----|-----------------|-----------------|


C#|--------------------|-------------|-----------------|-----------------|--------------------|
G#|--------------------|-------------|-------0-----2---|-----------------|--------------------|
 E|--------------7-----|-------7-----|-----------------|------0----0-----|--------------7-----|
 B|-4---5---4----5-----|-------4-----|-----------------|-----------------|-4---5---4----5-----|
F#|--------------5-----|-------4-----|-----------------|-----------------|--------------5-----|
 B|--------------0-----|-------0-----|-----------------|-----------------|--------------0-----|


C#|-------------|--------|--------|--------|--------|
G#|-------------|--------|--------|--------|--------|
 E|-------7-----|--------|--------|--------|--------|
 B|-------4-----|--------|--------|--------|--------|
F#|-------4-----|--------|--------|--------|--------|
 B|-------0-----|--------|--------|--------|--------|





Track 3: Untitled

C#|--------|--------|--------|--------|--------|--------|--------|--------|--------|
G#|--------|--------|--------|--------|--------|--------|--------|--------|--------|
 E|--------|--------|--------|--------|--------|--------|--------|--------|--------|
 B|--------|--------|--------|--------|--------|--------|--------|--------|--------|
F#|--------|--------|--------|--------|--------|--------|--------|--------|--------|
 B|--------|--------|--------|--------|--------|--------|--------|--------|--------|


C#|--------|--------|--------|--------|--------|--------|--------|--------|--------|
G#|--------|--------|--------|--------|--------|--------|--------|--------|--------|
 E|--------|--------|--------|--------|--------|--------|--------|--------|--------|
 B|--------|--------|--------|--------|--------|--------|--------|--------|--------|
F#|--------|--------|--------|--------|--------|--------|--------|--------|--------|
 B|--------|--------|--------|--------|--------|--------|--------|--------|--------|


C#|--------|--------|--------|--------|--------|--------|--------|--------|--------|
G#|--------|--------|--------|--------|--------|--------|--------|--------|--------|
 E|--------|--------|--------|--------|--------|--------|--------|--------|--------|
 B|--------|--------|--------|--------|--------|--------|--------|--------|--------|
F#|--------|--------|--------|--------|--------|--------|--------|--------|--------|
 B|--------|--------|--------|--------|--------|--------|--------|--------|--------|


C#|--------|--------|--------|--------|--------|--------|--------|--------|--------|
G#|--------|--------|--------|--------|--------|--------|--------|--------|--------|
 E|--------|--------|--------|--------|--------|--------|--------|--------|--------|
 B|--------|--------|--------|--------|--------|--------|--------|--------|--------|
F#|--------|--------|--------|--------|--------|--------|--------|--------|--------|
 B|--------|--------|--------|--------|--------|--------|--------|--------|--------|


C#|--------|--------|--------|--------|--------|--------|--------|--------|--------|
G#|--------|--------|--------|--------|--------|--------|--------|--------|--------|
 E|--------|--------|--------|--------|--------|--------|--------|--------|--------|
 B|--------|--------|--------|--------|--------|--------|--------|--------|--------|
F#|--------|--------|--------|--------|--------|--------|--------|--------|--------|
 B|--------|--------|--------|--------|--------|--------|--------|--------|--------|


C#|--------|--------|--------|--------|--------|--------|--------|--------|--------|
G#|--------|--------|--------|--------|--------|--------|--------|--------|--------|
 E|--------|--------|--------|--------|--------|--------|--------|--------|--------|
 B|--------|--------|--------|--------|--------|--------|--------|--------|--------|
F#|--------|--------|--------|--------|--------|--------|--------|--------|--------|
 B|--------|--------|--------|--------|--------|--------|--------|--------|--------|


C#|--------|--------|--------|--------|--------|--------|--------|--------|--------|
G#|--------|--------|--------|--------|--------|--------|--------|--------|--------|
 E|--------|--------|--------|--------|--------|--------|--------|--------|--------|
 B|--------|--------|--------|--------|--------|--------|--------|--------|--------|
F#|--------|--------|--------|--------|--------|--------|--------|--------|--------|
 B|--------|--------|--------|--------|--------|--------|--------|--------|--------|


C#|--------|--------|--------|--------|--------|--------|--------|--------|--------|
G#|--------|--------|--------|--------|--------|--------|--------|--------|--------|
 E|--------|--------|--------|--------|--------|--------|--------|--------|--------|
 B|--------|--------|--------|--------|--------|--------|--------|--------|--------|
F#|--------|--------|--------|--------|--------|--------|--------|--------|--------|
 B|--------|--------|--------|--------|--------|--------|--------|--------|--------|


C#|--------|--------|--------|--------|--------|--------|--------|--------|--------|
G#|--------|--------|--------|--------|--------|--------|--------|--------|--------|
 E|--------|--------|--------|--------|--------|--------|--------|--------|--------|
 B|--------|--------|--------|--------|--------|--------|--------|--------|--------|
F#|--------|--------|--------|--------|--------|--------|--------|--------|--------|
 B|--------|--------|--------|--------|--------|--------|--------|--------|--------|


C#|--------|--------|--------|--------|--------|-------0-----0---|-------0---------|
G#|--------|--------|--------|--------|--------|-------3-----3---|-------3---------|
 E|--------|--------|--------|--------|--------|-------2-----2---|-------2---------|
 B|--------|--------|--------|--------|--------|-------0-----0---|-------0---------|
F#|--------|--------|--------|--------|--------|-------0---------|-----------------|
 B|--------|--------|--------|--------|--------|-------0---------|-----------------|


C#|-------------|-------------|--------|--------|--------|--------|--------|--------|
G#|-------------|-------------|--------|--------|--------|--------|--------|--------|
 E|-------------|-------------|--------|--------|--------|--------|--------|--------|
 B|-------------|-------------|--------|--------|--------|--------|--------|--------|
F#|-------------|-------------|--------|--------|--------|--------|--------|--------|
 B|-------------|-------------|--------|--------|--------|--------|--------|--------|


C#|--------|--------|--------|--------|--------|--------|--------|--------|--------|
G#|--------|--------|--------|--------|--------|--------|--------|--------|--------|
 E|--------|--------|--------|--------|--------|--------|--------|--------|--------|
 B|--------|--------|--------|--------|--------|--------|--------|--------|--------|
F#|--------|--------|--------|--------|--------|--------|--------|--------|--------|
 B|--------|--------|--------|--------|--------|--------|--------|--------|--------|


C#|--------|--------|--------|--------|--------|--------|--------|--------|--------|
G#|--------|--------|--------|--------|--------|--------|--------|--------|--------|
 E|--------|--------|--------|--------|--------|--------|--------|--------|--------|
 B|--------|--------|--------|--------|--------|--------|--------|--------|--------|
F#|--------|--------|--------|--------|--------|--------|--------|--------|--------|
 B|--------|--------|--------|--------|--------|--------|--------|--------|--------|





Track 4: Untitled

C#|--------|--------|--------|--------|--------|--------|--------|--------|--------|
G#|--------|--------|--------|--------|--------|--------|--------|--------|--------|
 E|--------|--------|--------|--------|--------|--------|--------|--------|--------|
 B|--------|--------|--------|--------|--------|--------|--------|--------|--------|
F#|--------|--------|--------|--------|--------|--------|--------|--------|--------|
 B|--------|--------|--------|--------|--------|--------|--------|--------|--------|


C#|--------|--------|--------|--------|--------|--------|--------|--------|--------|
G#|--------|--------|--------|--------|--------|--------|--------|--------|--------|
 E|--------|--------|--------|--------|--------|--------|--------|--------|--------|
 B|--------|--------|--------|--------|--------|--------|--------|--------|--------|
F#|--------|--------|--------|--------|--------|--------|--------|--------|--------|
 B|--------|--------|--------|--------|--------|--------|--------|--------|--------|


C#|--------|--------|--------|--------|--------|--------|--------|--------|--------|
G#|--------|--------|--------|--------|--------|--------|--------|--------|--------|
 E|--------|--------|--------|--------|--------|--------|--------|--------|--------|
 B|--------|--------|--------|--------|--------|--------|--------|--------|--------|
F#|--------|--------|--------|--------|--------|--------|--------|--------|--------|
 B|--------|--------|--------|--------|--------|--------|--------|--------|--------|


C#|--------|--------|--------|--------|--------|--------|--------|--------|--------|
G#|--------|--------|--------|--------|--------|--------|--------|--------|--------|
 E|--------|--------|--------|--------|--------|--------|--------|--------|--------|
 B|--------|--------|--------|--------|--------|--------|--------|--------|--------|
F#|--------|--------|--------|--------|--------|--------|--------|--------|--------|
 B|--------|--------|--------|--------|--------|--------|--------|--------|--------|


C#|--------|--------|--------|--------|--------|--------|--------|--------|--------|
G#|--------|--------|--------|--------|--------|--------|--------|--------|--------|
 E|--------|--------|--------|--------|--------|--------|--------|--------|--------|
 B|--------|--------|--------|--------|--------|--------|--------|--------|--------|
F#|--------|--------|--------|--------|--------|--------|--------|--------|--------|
 B|--------|--------|--------|--------|--------|--------|--------|--------|--------|


C#|--------|--------|--------|--------|--------|--------|--------|--------|--------|
G#|--------|--------|--------|--------|--------|--------|--------|--------|--------|
 E|--------|--------|--------|--------|--------|--------|--------|--------|--------|
 B|--------|--------|--------|--------|--------|--------|--------|--------|--------|
F#|--------|--------|--------|--------|--------|--------|--------|--------|--------|
 B|--------|--------|--------|--------|--------|--------|--------|--------|--------|


C#|--------|--------|--------|--------|--------|--------|--------|--------|--------|
G#|--------|--------|--------|--------|--------|--------|--------|--------|--------|
 E|--------|--------|--------|--------|--------|--------|--------|--------|--------|
 B|--------|--------|--------|--------|--------|--------|--------|--------|--------|
F#|--------|--------|--------|--------|--------|--------|--------|--------|--------|
 B|--------|--------|--------|--------|--------|--------|--------|--------|--------|


C#|--------|--------|--------|--------|--------|--------|--------|--------|--------|
G#|--------|--------|--------|--------|--------|--------|--------|--------|--------|
 E|--------|--------|--------|--------|--------|--------|--------|--------|--------|
 B|--------|--------|--------|--------|--------|--------|--------|--------|--------|
F#|--------|--------|--------|--------|--------|--------|--------|--------|--------|
 B|--------|--------|--------|--------|--------|--------|--------|--------|--------|


C#|--------|--------|--------|--------|--------|--------|--------|--------|--------|
G#|--------|--------|--------|--------|--------|--------|--------|--------|--------|
 E|--------|--------|--------|--------|--------|--------|--------|--------|--------|
 B|--------|--------|--------|--------|--------|--------|--------|--------|--------|
F#|--------|--------|--------|--------|--------|--------|--------|--------|--------|
 B|--------|--------|--------|--------|--------|--------|--------|--------|--------|


C#|--------|--------|--------|--------|--------|--------|--------|--------|--------|
G#|--------|--------|--------|--------|--------|--------|--------|--------|--------|
 E|--------|--------|--------|--------|--------|--------|--------|--------|--------|
 B|--------|--------|--------|--------|--------|--------|--------|--------|--------|
F#|--------|--------|--------|--------|--------|--------|--------|--------|--------|
 B|--------|--------|--------|--------|--------|--------|--------|--------|--------|


C#|--------|--------|--------|--------|--------|--------|--------|--------|--------|
G#|--------|--------|--------|--------|--------|--------|--------|--------|--------|
 E|--------|--------|--------|--------|--------|--------|--------|--------|--------|
 B|--------|--------|--------|--------|--------|--------|--------|--------|--------|
F#|--------|--------|--------|--------|--------|--------|--------|--------|--------|
 B|--------|--------|--------|--------|--------|--------|--------|--------|--------|


C#|--------|--------|--------|--------|--------|--------|--------|--------|--------|
G#|--------|--------|--------|--------|--------|--------|--------|--------|--------|
 E|--------|--------|--------|--------|--------|--------|--------|--------|--------|
 B|--------|--------|--------|--------|--------|--------|--------|--------|--------|
F#|--------|--------|--------|--------|--------|--------|--------|--------|--------|
 B|--------|--------|--------|--------|--------|--------|--------|--------|--------|


C#|--------|--------|-----------------|---------------------|-------------|-------------|
G#|--------|--------|-----------------|---------------------|-------------|-------------|
 E|--------|--------|-----------------|------5----5---------|-------------|-------------|
 B|--------|--------|-------------5---|---------------9-----|-------9-----|-------9-----|
F#|--------|--------|-------9---------|---------------------|-------------|-------------|
 B|--------|--------|-----------------|---------------------|-------------|-------------|





Track 5: Untitled

 E|-------------|--------|------------|---------------------------------|-------------|
 B|-------------|--------|------------|---------------------------------|-------------|
F#|-2------4----|-4------|-0----------|---------------------------------|-2------4----|
 B|-------------|--------|--------12--|-12--11--11--9---9---7---7---7---|-------------|


 E|--------|------------|---------------------------------|-------------|--------|
 B|--------|------------|---------------------------------|-------------|--------|
F#|-4------|-0----------|---------------------------------|-2------4----|-4------|
 B|--------|--------12--|-12--11--11--9---9---7---7---7---|-------------|--------|


 E|------------|---------------------------------|-------------|--------|------------|
 B|------------|---------------------------------|-------------|--------|------------|
F#|-0----------|---------------------------------|-2------4----|-4------|-0----------|
 B|--------12--|-12--11--11--9---9---7---7---7---|-------------|--------|--------12--|


 E|---------------------------------|-------------|--------|------------|---------------------------------|
 B|---------------------------------|-------------|--------|------------|---------------------------------|
F#|---------------------------------|-2------4----|-4------|-0----------|---------------------------------|
 B|-12--11--11--9---9---7---7---7---|-------------|--------|--------12--|-12--11--11--9---9---7---7---7---|


 E|-------------|--------|------------|---------------------------------|-------------|
 B|-------------|--------|------------|---------------------------------|-------------|
F#|-2------4----|-4------|-0----------|---------------------------------|-3------3----|
 B|-------------|--------|--------12--|-12--11--11--9---9---7---7---7---|-------------|


 E|-------------|-------------|-------------|-------------|-------------|-------------|
 B|-------------|-------------|-------------|-------------|-------------|-------------|
F#|-------3-----|------3------|-5------5----|-------5-----|------5------|-5------2----|
 B|-------------|-------------|-------------|-------0-----|------0------|-0-----------|


 E|-----------------|-------------|-----------------------|------------------------------|
 B|-----------------|-------------|-----------------------|------------------------------|
F#|-------4----4----|--------0----|-----------------------|-------------------------2----|
 B|-----------------|-------------|-----------12--12--11--|-11--9---9---7---7---7--------|


 E|-----------------|-------------|-----------------------|------------------------------|
 B|-----------------|-------------|-----------------------|------------------------------|
F#|-------4----4----|--------0----|-----------------------|-------------------------2----|
 B|-----------------|-------------|-----------12--12--11--|-11--9---9---7---7---7--------|


 E|-----------------|-------------|-----------------------|------------------------------|
 B|-----------------|-------------|-----------------------|------------------------------|
F#|-------4----4----|--------0----|-----------------------|-------------------------2----|
 B|-----------------|-------------|-----------12--12--11--|-11--9---9---7---7---7--------|


 E|-----------------|-------------|-----------------------|------------------------------|
 B|-----------------|-------------|-----------------------|------------------------------|
F#|-------4----4----|--------0----|-----------------------|-------------------------3----|
 B|-----------------|-------------|-----------12--12--11--|-11--9---9---7---7---7--------|


 E|-------------|-------------|-------------|-------------|-------------|-------------|
 B|-------------|-------------|-------------|-------------|-------------|-------------|
F#|-------3-----|------3------|-3------5----|-------5-----|------5------|-5------5----|
 B|-------------|-------------|-------------|-------------|------0------|-0------0----|


 E|-------------|-------------|-------------|-------------|-------------|-------------|
 B|-------------|-------------|-------------|-------------|-------------|-------------|
F#|-------1-----|------0------|-------------|-------1-----|------0------|-------------|
 B|-------------|-------------|-0------3----|-------------|-------------|-0------3----|


 E|-------------|-------------|-------------|-------------|-------------|-------------|
 B|-------------|-------------|-------------|-------------|-------------|-------------|
F#|-------1-----|------0------|-------------|-------1-----|------0------|-------------|
 B|-------------|-------------|-0------3----|-------------|-------------|-0------0----|


 E|-----------------|-------------|-------------|-------------|-------------|------------------------|
 B|-----------------|-------------|-------------|-------------|-------------|------------------------|
F#|-----------1-----|------3------|-------------|-------------|-------------|------3---5---5---------|
 B|-2----3----------|-------------|-0------3----|-------0-----|------3------|-0-----------------3----|


 E|---------------------------|------------------------|------------------------|---------------------------|
 B|---------------------------|------------------------|------------------------|---------------------------|
F#|-0---3---5---------3---5---|-5---------0---3---5----|------3---5---5---------|-0---3---5---------3---5---|
 B|-3---3---3----3------------|------3-----------------|-0-----------------0----|--------------2------------|


 E|---------------------|-------------|-------------|-------------|-------------|-------------|
 B|---------------------|-------------|-------------|-------------|-------------|-------------|
F#|-5---------5----3----|-1------0----|-------------|-------------|-1------0----|-------------|
 B|------3--------------|-------------|-------0-----|------3------|-------------|-------0-----|


 E|-------------|-------------|-------------|-------------|-------------|-------------|
 B|-------------|-------------|-------------|-------------|-------------|-------------|
F#|-------------|-1------0----|-------------|-------------|-1------0----|-------2-----|
 B|------3------|-------------|-------0-----|------3------|-------------|-------------|


 E|-----------------|-------------|---------------------------|-----------------------|
 B|-----------------|-------------|---------------------------|-----------------------|
F#|------4----4-----|-------0-----|---------------------------|-----------------2-----|
 B|-----------------|-------------|-------12--12--11--11--9---|-9---7---7---7---------|


 E|-----------------|-------------|---------------------------|-----------------------|
 B|-----------------|-------------|---------------------------|-----------------------|
F#|------4----4-----|-------0-----|---------------------------|-----------------2-----|
 B|-----------------|-------------|-------12--12--11--11--9---|-9---7---7---7---------|


 E|-----------------|-------------|---------------------------|-----------------------|
 B|-----------------|-------------|---------------------------|-----------------------|
F#|------4----4-----|-------0-----|---------------------------|-----------------2-----|
 B|-----------------|-------------|-------12--12--11--11--9---|-9---7---7---7---------|


 E|-----------------|-------------|---------------------------|-----------------------|
 B|-----------------|-------------|---------------------------|-----------------------|
F#|------4----4-----|-------0-----|---------------------------|-----------------2-----|
 B|-----------------|-------------|-------12--12--11--11--9---|-9---7---7---7---------|


 E|-----------------|-------------|---------------------------|-----------------------|
 B|-----------------|-------------|---------------------------|-----------------------|
F#|------4----4-----|-------0-----|---------------------------|-----------------2-----|
 B|-----------------|-------------|-------12--12--11--11--9---|-9---7---7---7---------|


 E|-----------------|-------------|---------------------------|-----------------------|
 B|-----------------|-------------|---------------------------|-----------------------|
F#|------4----4-----|-------0-----|---------------------------|-----------------2-----|
 B|-----------------|-------------|-------12--12--11--11--9---|-9---7---7---7---------|


 E|-------------|-------------|-------------|
 B|-------------|-------------|-------------|
F#|-------2-----|-------2-----|-------2-----|
 B|-------------|-------------|-------------|





Track 6: Untitled

 E|--------|--------|--------|--------|--------|--------|--------|--------|--------|
 B|--------|--------|--------|--------|--------|--------|--------|--------|--------|
F#|--------|--------|--------|--------|--------|--------|--------|--------|--------|
 B|--------|--------|--------|--------|--------|--------|--------|--------|--------|


 E|--------|--------|--------|--------|--------|--------|--------|--------|--------|
 B|--------|--------|--------|--------|--------|--------|--------|--------|--------|
F#|--------|--------|--------|--------|--------|--------|--------|--------|--------|
 B|--------|--------|--------|--------|--------|--------|--------|--------|--------|


 E|--------|--------|--------|--------|--------|--------|--------|--------|--------|
 B|--------|--------|--------|--------|--------|--------|--------|--------|--------|
F#|--------|--------|--------|--------|--------|--------|--------|--------|--------|
 B|--------|--------|--------|--------|--------|--------|--------|--------|--------|


 E|--------|--------|--------|-------------|-------------|-------------|-------------|
 B|--------|--------|--------|-------------|-------------|-------------|-------------|
F#|--------|--------|--------|--------2----|--------2----|-------------|-------------|
 B|--------|--------|--------|-------------|-------------|--------0----|--------0----|


 E|-------------|-------------|-------------|-------------|-------------|-------------|
 B|-------------|-------------|-------------|-------------|-------------|-------------|
F#|--------2----|--------2----|-------------|-------------|--------2----|--------2----|
 B|-------------|-------------|--------0----|--------0----|-------------|-------------|


 E|-------------|-------------|-------------|-------------|-------------|-------------|
 B|-------------|-------------|-------------|-------------|-------------|-------------|
F#|-------------|-------------|--------2----|--------2----|-------------|-------------|
 B|--------0----|--------0----|-------------|-------------|--------0----|--------0----|


 E|--------|--------|--------|--------|--------|--------|--------|--------|--------|
 B|--------|--------|--------|--------|--------|--------|--------|--------|--------|
F#|--------|--------|--------|--------|--------|--------|--------|--------|--------|
 B|--------|--------|--------|--------|--------|--------|--------|--------|--------|


 E|--------|--------|--------|--------|--------|--------|--------|--------|--------|
 B|--------|--------|--------|--------|--------|--------|--------|--------|--------|
F#|--------|--------|--------|--------|--------|--------|--------|--------|--------|
 B|--------|--------|--------|--------|--------|--------|--------|--------|--------|


 E|--------|--------|--------|--------|--------|--------|--------|--------|--------|
 B|--------|--------|--------|--------|--------|--------|--------|--------|--------|
F#|--------|--------|--------|--------|--------|--------|--------|--------|--------|
 B|--------|--------|--------|--------|--------|--------|--------|--------|--------|


 E|--------|--------|--------|--------|--------|--------|--------|--------|--------|
 B|--------|--------|--------|--------|--------|--------|--------|--------|--------|
F#|--------|--------|--------|--------|--------|--------|--------|--------|--------|
 B|--------|--------|--------|--------|--------|--------|--------|--------|--------|


 E|--------|--------|--------|--------|--------|--------|--------|--------|--------|
 B|--------|--------|--------|--------|--------|--------|--------|--------|--------|
F#|--------|--------|--------|--------|--------|--------|--------|--------|--------|
 B|--------|--------|--------|--------|--------|--------|--------|--------|--------|


 E|--------|--------|--------|--------|--------|--------|--------|--------|--------|
 B|--------|--------|--------|--------|--------|--------|--------|--------|--------|
F#|--------|--------|--------|--------|--------|--------|--------|--------|--------|
 B|--------|--------|--------|--------|--------|--------|--------|--------|--------|


 E|--------|--------|--------|--------|--------|--------|--------|--------|--------|
 B|--------|--------|--------|--------|--------|--------|--------|--------|--------|
F#|--------|--------|--------|--------|--------|--------|--------|--------|--------|
 B|--------|--------|--------|--------|--------|--------|--------|--------|--------|


 E|--------|--------|--------|--------|--------|
 B|--------|--------|--------|--------|--------|
F#|--------|--------|--------|--------|--------|
 B|--------|--------|--------|--------|--------|





Track 7: Untitled

 E|--------|--------|--------|--------|--------|--------|--------|--------|--------|
 B|--------|--------|--------|--------|--------|--------|--------|--------|--------|
F#|--------|--------|--------|--------|--------|--------|--------|--------|--------|
 B|--------|--------|--------|--------|--------|--------|--------|--------|--------|


 E|--------|--------|--------|--------|--------|--------|--------|--------|--------|
 B|--------|--------|--------|--------|--------|--------|--------|--------|--------|
F#|--------|--------|--------|--------|--------|--------|--------|--------|--------|
 B|--------|--------|--------|--------|--------|--------|--------|--------|--------|


 E|--------|--------|--------|--------|--------|--------|--------|--------|--------|
 B|--------|--------|--------|--------|--------|--------|--------|--------|--------|
F#|--------|--------|--------|--------|--------|--------|--------|--------|--------|
 B|--------|--------|--------|--------|--------|--------|--------|--------|--------|


 E|--------|--------|--------|--------|--------|--------|--------|--------|--------|
 B|--------|--------|--------|--------|--------|--------|--------|--------|--------|
F#|--------|--------|--------|--------|--------|--------|--------|--------|--------|
 B|--------|--------|--------|--------|--------|--------|--------|--------|--------|


 E|--------|--------|--------|--------|--------|--------|--------|--------|--------|
 B|--------|--------|--------|--------|--------|--------|--------|--------|--------|
F#|--------|--------|--------|--------|--------|--------|--------|--------|--------|
 B|--------|--------|--------|--------|--------|--------|--------|--------|--------|


 E|--------|--------|--------|--------|--------|--------|--------|--------|--------|
 B|--------|--------|--------|--------|--------|--------|--------|--------|--------|
F#|--------|--------|--------|--------|--------|--------|--------|--------|--------|
 B|--------|--------|--------|--------|--------|--------|--------|--------|--------|


 E|--------|--------|--------|--------|--------|--------|--------|--------|-------------|
 B|--------|--------|--------|--------|--------|--------|--------|--------|-------------|
F#|--------|--------|--------|--------|--------|--------|--------|--------|-------------|
 B|--------|--------|--------|--------|--------|--------|--------|--------|-------------|


 E|-------------|-------------|-----------------|-------------|-------------|-------------|
 B|-------------|-12-----12---|-14---15---------|-------------|-14-----12---|-11----12----|
F#|-------------|-------------|-----------13----|------15-----|-------------|-------------|
 B|-------------|-------------|-----------------|-------------|-------------|-------------|


 E|------13-----|-14-----14---|-------14----|------14-----|--------|--------|--------|
 B|-------------|-------------|-------------|-------------|--------|--------|--------|
F#|-------------|-------------|-------------|-------------|--------|--------|--------|
 B|-------------|-------------|-------------|-------------|--------|--------|--------|


 E|--------|--------|--------|--------|--------|--------|--------|--------|--------|
 B|--------|--------|--------|--------|--------|--------|--------|--------|--------|
F#|--------|--------|--------|--------|--------|--------|--------|--------|--------|
 B|--------|--------|--------|--------|--------|--------|--------|--------|--------|


 E|--------|-------17----|-------------|-------------|-------------|--------|--------|
 B|--------|-------------|-------------|-------------|-------------|--------|--------|
F#|--------|-------------|-------------|-------------|-------------|--------|--------|
 B|--------|-------------|-------------|-------------|-------------|--------|--------|


 E|--------|--------|--------|--------|--------|--------|--------|--------|--------|
 B|--------|--------|--------|--------|--------|--------|--------|--------|--------|
F#|--------|--------|--------|--------|--------|--------|--------|--------|--------|
 B|--------|--------|--------|--------|--------|--------|--------|--------|--------|


 E|--------|--------|--------|--------|--------|--------|--------|--------|--------|
 B|--------|--------|--------|--------|--------|--------|--------|--------|--------|
F#|--------|--------|--------|--------|--------|--------|--------|--------|--------|
 B|--------|--------|--------|--------|--------|--------|--------|--------|--------|


 E|--------|--------|--------|--------|
 B|--------|--------|--------|--------|
F#|--------|--------|--------|--------|
 B|--------|--------|--------|--------|