Menu:

 

Search:

 

slipknot - three nil:

 



Title: Three Nil
Artist: 
Album: Volume 3 Subliminal verses
Author: Slipknot


Track 1: Jim

C#|-----------------|-----------------|-----------------|-----------------|-----------------|
G#|-----------------|-----------------|-----------------|-----------------|-----------------|
 E|-----------------|-----------------|-----------------|-----------------|-----------------|
 B|-13--------------|-13--------------|-13--------------|-13--------------|-13--------------|
F#|-13--------------|-13--------------|-13--------------|-13--------------|-13--------------|
 B|-13--------------|-13--------------|-13--------------|-13--------------|-13--------------|


C#|-----------------|-----------------|-----------------|-----------------|-----------------|
G#|-----------------|-----------------|-----------------|-----------------|-----------------|
 E|-----------------|-----------------|-----------------|-----------------|-----------------|
 B|-13--------------|-13--------------|-13--------------|-13--------------|-13--------------|
F#|-13--------------|-13--------------|-13--------------|-13--------------|-13--------------|
 B|-13--------------|-13--------------|-13--------------|-13--------------|-13--------------|


C#|-----------------|-----------------|-----------------|-----------------|-----------------|
G#|-----------------|-----------------|-----------------|-----------------|-----------------|
 E|-----------------|-----------------|-----------------|-----------------|-----------------|
 B|-13--------------|-13--------------|-13--------------|-13--------------|-13--------------|
F#|-13--------------|-13--------------|-13--------------|-13--------------|-13--------------|
 B|-13--------------|-13--------------|-13--------------|-13--------------|-13--------------|


C#|-----------------|-------------------------------------------------|-------------------------------------------------|
G#|-----------------|-------------------------------------------------|-------------------------------------------------|
 E|-----------------|-------------------------------------------------|-------------------------------------------------|
 B|-13--------------|-------------------------------------------------|-------------------------------------------------|
F#|-13--------------|----4--3-----1--0-----4--3-----1--0--------1--0--|----4--3-----1--0-----4--3-----1--0--------1--0--|
 B|-13--------------|-0--4--3--0--1--0--0--4--3--0--1--0--0--0--1--0--|-0--4--3--0--1--0--0--4--3--0--1--0--0--0--1--0--|


C#|-------------------------------------------------|-------------------------------------------------|
G#|-------------------------------------------------|-------------------------------------------------|
 E|-------------------------------------------------|-------------------------------------------------|
 B|-------------------------------------------------|-------------------------------------------------|
F#|----4--3-----1--0-----4--3-----1--0--------1--0--|----4--3-----1--0-----4--3-----1--0--------1--0--|
 B|-0--4--3--0--1--0--0--4--3--0--1--0--0--0--1--0--|-0--4--3--0--1--0--0--4--3--0--1--0--0--0--1--0--|


C#|-------------------------------------------------|-------------------------------------------------|
G#|-------------------------------------------------|-------------------------------------------------|
 E|-------------------------------------------------|-------------------------------------------------|
 B|-------------------------------------------------|-------------------------------------------------|
F#|----4--3-----1--0-----4--3-----1--0--------1--0--|----4--3-----1--0-----4--3-----1--0--------1--0--|
 B|-0--4--3--0--1--0--0--4--3--0--1--0--0--0--1--0--|-0--4--3--0--1--0--0--4--3--0--1--0--0--0--1--0--|


C#|-------------------------------------------------|-------------------------------------------------|
G#|-------------------------------------------------|-------------------------------------------------|
 E|-------------------------------------------------|-------------------------------------------------|
 B|-------------------------------------------------|-------------------------------------------------|
F#|-------------------------------------------------|-------------------------------------------------|
 B|-0--4--3--0--1--0--0--3--6--3--0--4--7--4--0--3--|-0--4--3--0--1--0--0--3--6--3--0--4--7--4--0--3--|


C#|-------------------------------------------------|-------------------------------------------------|
G#|-------------------------------------------------|-------------------------------------------------|
 E|-------------------------------------------------|-------------------------------------------------|
 B|-------------------------------------------------|-------------------------------------------------|
F#|----4--3-----1--0--------------------------------|----4--3-----1--0--------------------------------|
 B|-0--4--3--0--1--0--0--3--6--3--0--4--7--4--0--3--|-0--4--3--0--1--0--0--3--6--3--0--4--7--4--0--3--|


C#|-------------------------------------------------|-------------------------------------------------|
G#|-------------------------------------------------|-------------------------------------------------|
 E|-------------------------------------------------|-------------------------------------------------|
 B|-------------------------------------------------|-------------------------------------------------|
F#|----4--3-----1--0--------------------------------|----4--3-----1--0--------------------------------|
 B|-0--4--3--0--1--0--0--3--6--3--0--4--7--4--0--3--|-0--4--3--0--1--0--0--3--6--3--0--4--7--4--0--3--|


C#|-------------------------------------------------|-------------------------------------------------|
G#|-------------------------------------------------|-------------------------------------------------|
 E|-------------------------------------------------|-------------------------------------------------|
 B|-------------------------------------------------|-------------------------------------------------|
F#|----4--3-----1--0--------------------------------|----4--3-----1--0--------------------------------|
 B|-0--4--3--0--1--0--0--3--6--3--0--4--7--4--0--3--|-0--4--3--0--1--0--0--3--6--3--0--4--7--4--0--3--|


C#|-------------------------------------------|-------------------------------------------------|
G#|-------------------------------------------|-------------------------------------------------|
 E|-------------------------------------------|-------------------------------------------------|
 B|-------------------------------------------|-------------------------------------------------|
F#|----4--3--1--0-----------------------------|-------------------------------------------------|
 B|-0--4--3--1--0-----------0--1--0-----0--1--|-0--4--3--1--0-----0--1--0-----0-----0--4--3--1--|


C#|-------------------------------------------------|--------------------------------------|
G#|-------------------------------------------------|--------------------------------------|
 E|-------------------------------------------------|--------------------------------------|
 B|-------------------------------------------------|--------------------------------------|
F#|----4--3-----1--0-----4--3-----1--0--------1--0--|----4--3-----1--0---------------------|
 B|-0--4--3--0--1--0--0--4--3--0--1--0--0--0--1--0--|-0--4--3--0--1--0--0--1--0------------|


C#|-----------------------------------------------------------------|-----------------------------------------------------------------|
G#|-----------------------------------------------------------------|-----------------------------------------------------------------|
 E|-----------------------------------------------------------------|-----------------------------------------------------------------|
 B|-----------------------------------------------------------------|-----------------------------------------------------------------|
F#|---------2-2-2-2-3-3-3-3-----------------5-5-5-5-6-6-6-6---------|---------2-2-2-2-3-3-3-3-----------------5-5-5-5-6-6-6-6---------|
 B|-2-2-2-2-----------------3-3-3-3-5-5-5-5-----------------6-6-6-6-|-2-2-2-2-----------------3-3-3-3-5-5-5-5-----------------6-6-6-6-|


C#|-----------------------------------------------------------------|------------------------------------------------------|
G#|-----------------------------------------------------------------|------------------------------------------------------|
 E|-----------------------------------------------------------------|------------------------------------------------------|
 B|-----------------------------------------------------------------|-------------------------------------------------9----|
F#|---------5-5-5-5-6-6-6-6-----------------8-8-8-8-9-9-9-9---------|---------5-5-5-5-6-6-6-6-----------------8-8-8-8-9----|
 B|-5-5-5-5-----------------6-6-6-6-8-8-8-8-----------------9-9-9-9-|-5-5-5-5-----------------6-6-6-6-8-8-8-8--------------|


C#|---------------------------------|---------------------------------|---------------------------------|
G#|---------------------------------|---------------------------------|---------------------------------|
 E|---------------------------------|---------------------------------|---------------------------------|
 B|-----4---5-----------7---8-------|-----4---5-----------7---8-------|-----7---8-----------10--11------|
F#|-2---2---3---3---5---5---6---6---|-2---2---3---3---5---5---6---6---|-5---5---6---6---8---8---9---9---|
 B|-2-----------3---5-----------6---|-2-----------3---5-----------6---|-5-----------6---8-----------9---|


C#|---------------------------------|-------------------------------------------------|
G#|---------------------------------|-------------------------------------------------|
 E|---------------------------------|-------------------------------------------------|
 B|-----7---8-----------10--11------|-------------------------------------------------|
F#|-5---5---6---6---8---8---9---9---|----4--3-----1--0-----4--3-----1--0--------1--0--|
 B|-5-----------6---8-----------9---|-0--4--3--0--1--0--0--4--3--0--1--0--0--0--1--0--|


C#|-------------------------------------------------|-------------------------------------------------|
G#|-------------------------------------------------|-------------------------------------------------|
 E|-------------------------------------------------|-------------------------------------------------|
 B|-------------------------------------------------|-------------------------------------------------|
F#|----4--3-----1--0-----4--3-----1--0--------1--0--|----4--3-----1--0-----4--3-----1--0--------1--0--|
 B|-0--4--3--0--1--0--0--4--3--0--1--0--0--0--1--0--|-0--4--3--0--1--0--0--4--3--0--1--0--0--0--1--0--|


C#|---------------------------------------------|-------------------------------------------------|
G#|---------------------------------------------|-------------------------------------------------|
 E|---------------------------------------------|-------------------------------------------------|
 B|---------------------------------------------|-------------------------------------------------|
F#|-0--0------0--0---------------5--5-----5--6--|-------------------------------------------------|
 B|-0--0------0--0------0--2--3--5--5--3--5--6--|-0--4--3-----1--0--0--4--3-----1--0--0--0--1--0--|


C#|-------------------------------------------------|-------------------------------------------------|
G#|-------------------------------------------------|-------------------------------------------------|
 E|-------------------------------------------------|-------------------------------------------------|
 B|-------------------------------------------------|-------------------------------------------------|
F#|-------------------------------------------------|-------------------------------------------------|
 B|-0--4--3-----1--0--0--4--3-----1--0--0--0--1--0--|-0--4--3-----1--0--0--4--3-----1--0--0--0--1--0--|


C#|-------------------------------------------------|-------------------------------------------------|
G#|-------------------------------------------------|-------------------------------------------------|
 E|-------------------------------------------------|-------------------------------------------------|
 B|-------------------------------------------------|-------------------------------------------------|
F#|-------------------------------------------------|-------------------------------------------------|
 B|-0--4--3-----1--0--0--4--3-----1--0--0--0--1--0--|-0--4--3-----1--0--0--4--3-----1--0--0--0--1--0--|


C#|-------------------------------------------------|-------------------------------------------------|
G#|-------------------------------------------------|-------------------------------------------------|
 E|-------------------------------------------------|-------------------------------------------------|
 B|-------------------------------------------------|-------------------------------------------------|
F#|-------------------------------------------------|-------------------------------------------------|
 B|-0--4--3-----1--0--0--4--3-----1--0--0--0--1--0--|-0--4--3-----1--0--0--4--3-----1--0--0--0--1--0--|


C#|--------------------------------------|-----------------------------------------------------------------|
G#|--------------------------------------|-----------------------------------------------------------------|
 E|--------------------------------------|-----------------------------------------------------------------|
 B|--------------------------------------|-----------------------------------------------------------------|
F#|--------------------------------------|---------2-2-2-2-3-3-3-3-----------------5-5-5-5-6-6-6-6---------|
 B|-0--4--3-----1--0--0--1--0------------|-2-2-2-2-----------------3-3-3-3-5-5-5-5-----------------6-6-6-6-|


C#|-----------------------------------------------------------------|-----------------------------------------------------------------|
G#|-----------------------------------------------------------------|-----------------------------------------------------------------|
 E|-----------------------------------------------------------------|-----------------------------------------------------------------|
 B|-----------------------------------------------------------------|-----------------------------------------------------------------|
F#|---------2-2-2-2-3-3-3-3-----------------5-5-5-5-6-6-6-6---------|---------5-5-5-5-6-6-6-6-----------------8-8-8-8-9-9-9-9---------|
 B|-2-2-2-2-----------------3-3-3-3-5-5-5-5-----------------6-6-6-6-|-5-5-5-5-----------------6-6-6-6-8-8-8-8-----------------9-9-9-9-|


C#|------------------------------------------------------|---------------------------------|
G#|------------------------------------------------------|---------------------------------|
 E|------------------------------------------------------|---------------------------------|
 B|-------------------------------------------------9----|-----4---5-----------7---8-------|
F#|---------5-5-5-5-6-6-6-6-----------------8-8-8-8-9----|-2---2---3---3---5---5---6---6---|
 B|-5-5-5-5-----------------6-6-6-6-8-8-8-8--------------|-2-----------3---5-----------6---|


C#|---------------------------------|---------------------------------|---------------------------------|
G#|---------------------------------|---------------------------------|---------------------------------|
 E|---------------------------------|---------------------------------|---------------------------------|
 B|-----4---5-----------7---8-------|-----7---8-----------10--11------|-----7---8-----------10--11------|
F#|-2---2---3---3---5---5---6---6---|-5---5---6---6---8---8---9---9---|-5---5---6---6---8---8---9---9---|
 B|-2-----------3---5-----------6---|-5-----------6---8-----------9---|-5-----------6---8-----------9---|


C#|-----------------------------------------|-----------------------------------------|
G#|-----------------------------------------|-----------------------------------------|
 E|-----------------------------------------|-----------------------------------------|
 B|-----------------------------------------|-----------------------------------2--2--|
F#|-3---5---5--5---5--5--5---5--5--5--3--3--|-3---5---5--5---5--5--5---5--5--5--2--2--|
 B|-0---0---0--0---0--0--0---0--0--0--0--0--|-0---0---0--0---0--0--0---0--0--0--2--2--|


C#|-----------------------------------------|-----------------------------------------|
G#|-----------------------------------------|-----------------------------------------|
 E|-----------------------------------------|-----------------------------------------|
 B|-2---3---3--3---3--3--3---3--3--3--5--5--|-5---6---6--6---6--6--6---6--6--6--------|
F#|-2---3---3--3---3--3--3---3--3--3--5--5--|-5---6---6--6---6--6--6---6--6--6--3--3--|
 B|-2---3---3--3---3--3--3---3--3--3--5--5--|-5---6---6--6---6--6--6---6--6--6--0--0--|


C#|-----------------------------------------|-----------------------------------------|
G#|-----------------------------------------|-----------------------------------------|
 E|-----------------------------------------|-----------------------------------------|
 B|-----------------------------------------|-----------------------------------2--2--|
F#|-3---5---5--5---5--5--5---5--5--5--3--3--|-3---5---5--5---5--5--5---5--5--5--2--2--|
 B|-0---0---0--0---0--0--0---0--0--0--0--0--|-0---0---0--0---0--0--0---0--0--0--2--2--|


C#|-----------------------------------------|-----------------------------------------|
G#|-----------------------------------------|-----------------------------------------|
 E|-----------------------------------------|-----------------------------------------|
 B|-2---3---3--3---3--3--3---3--3--3--5--5--|-5---6---6--6---6--6--6---6--6--6--------|
F#|-2---3---3--3---3--3--3---3--3--3--5--5--|-5---6---6--6---6--6--6---6--6--6--3--3--|
 B|-2---3---3--3---3--3--3---3--3--3--5--5--|-5---6---6--6---6--6--6---6--6--6--0--0--|


C#|-----------------------------------------|-----------------------------------------|
G#|-----------------------------------------|-----------------------------------------|
 E|-----------------------------------------|-----------------------------------------|
 B|-----------------------------------------|-----------------------------------2--2--|
F#|-3---5---5--5---5--5--5---5--5--5--3--3--|-3---5---5--5---5--5--5---5--5--5--2--2--|
 B|-0---0---0--0---0--0--0---0--0--0--0--0--|-0---0---0--0---0--0--0---0--0--0--2--2--|


C#|-----------------------------------------|-----------------------------------------|
G#|-----------------------------------------|-----------------------------------------|
 E|-----------------------------------------|-----------------------------------------|
 B|-2---3---3--3---3--3--3---3--3--3--5--5--|-5---6---6--6---6--6--6---6--6--6--------|
F#|-2---3---3--3---3--3--3---3--3--3--5--5--|-5---6---6--6---6--6--6---6--6--6--3--3--|
 B|-2---3---3--3---3--3--3---3--3--3--5--5--|-5---6---6--6---6--6--6---6--6--6--0--0--|


C#|-----------------------------------------|-----------------------------------------|
G#|-----------------------------------------|-----------------------------------------|
 E|-----------------------------------------|-----------------------------------------|
 B|-----------------------------------------|-----------------------------------2--2--|
F#|-3---5---5--5---5--5--5---5--5--5--3--3--|-3---5---5--5---5--5--5---5--5--5--2--2--|
 B|-0---0---0--0---0--0--0---0--0--0--0--0--|-0---0---0--0---0--0--0---0--0--0--2--2--|


C#|-----------------------------------------|-----------------------------------------|
G#|-----------------------------------------|-----------------------------------------|
 E|-----------------------------------------|-----------------------------------------|
 B|-2---3---3--3---3--3--3---3--3--3--5--5--|-5---6---6--6---6--6--6---6--6--6--------|
F#|-2---3---3--3---3--3--3---3--3--3--5--5--|-5---6---6--6---6--6--6---6--6--6--3--3--|
 B|-2---3---3--3---3--3--3---3--3--3--5--5--|-5---6---6--6---6--6--6---6--6--6--0--0--|


C#|------------------------------------|------------------------------------|------------------------------------|
G#|------------------------------------|------------------------------------|------------------------------------|
 E|------------------------------------|------------------------------------|------------------------------------|
 B|-1----------------------------------|-1----------------------------------|-1----------------------------------|
F#|-1----0---3---2---5-5-5-5-5--6------|-1----0---3---2---5-5-5-5-5--6------|-1----0---3---2---5-5-5-5-5--6------|
 B|-1----0---3---2---------------------|-1----0---3---2---------------------|-1----0---3---2---------------------|


C#|------------------------------------|------------------------------------|------------------------------------|
G#|------------------------------------|------------------------------------|------------------------------------|
 E|------------------------------------|------------------------------------|------------------------------------|
 B|-1----------------------------------|-1----------------------------------|-1----------------------------------|
F#|-1----0---3---2---5-5-5-5-5--6------|-1----0---3---2---5-5-5-5-5--6------|-1----0---3---2---5-5-5-5-5--6------|
 B|-1----0---3---2---------------------|-1----0---3---2---------------------|-1----0---3---2---------------------|


C#|--------|-----------------------------------|-----------------------------------|
G#|--------|-----------------------------------|-----------------------------------|
 E|--------|-----------------------------------|-----------------------------------|
 B|--------|-------------3-------5------6--6---|-------------3-------5------6--6---|
F#|--------|-1-------0---3---0---5---0--6--6---|-1-------0---3---0---5---0--6--6---|
 B|--------|-1----4--0---3---0---5---0--6--6---|-1----4--0---3---0---5---0--6--6---|


C#|-----------------------------------|-----------------------------------|-----------------------------------|
G#|-----------------------------------|-----------------------------------|-----------------------------------|
 E|-----------------------------------|-----------------------------------|-----------------------------------|
 B|-------------3-------5------6--6---|-------------3-------5------6--6---|-------------3-------5------6--6---|
F#|-1-------0---3---0---5---0--6--6---|-1-------0---3---0---5---0--6--6---|-1-------0---3---0---5---0--6--6---|
 B|-1----4--0---3---0---5---0--6--6---|-1----4--0---3---0---5---0--6--6---|-1----4--0---3---0---5---0--6--6---|


C#|-----------------------------------|-----------------------------------|-----------------------------------|
G#|-----------------------------------|-----------------------------------|-----------------------------------|
 E|-----------------------------------|-----------------------------------|-----------------------------------|
 B|-------------3-------5------6--6---|-------------3-------5------6--6---|-------------3-------5------6--6---|
F#|-1-------0---3---0---5---0--6--6---|-1-------0---3---0---5---0--6--6---|-1-------0---3---0---5---0--6--6---|
 B|-1----4--0---3---0---5---0--6--6---|-1----4--0---3---0---5---0--6--6---|-1----4--0---3---0---5---0--6--6---|


C#|-------------------------------------|-------------------------------------|-------------------------------------|
G#|-------------------------------------|-------------------------------------|-------------------------------------|
 E|-------------------------------------|-------------------------------------|-------------------------------------|
 B|-1-------0---3-------5---------------|-1-------0---3-------5---------------|-1-------0---3-------5---------------|
F#|-1-------0---3---0---5---------------|-1-------0---3---0---5---------------|-1-------0---3---0---5---------------|
 B|-1----4--0---3---0---5---3---5---6---|-1----4--0---3---0---5---3---5---6---|-1----4--0---3---0---5---3---5---6---|


C#|-------------------------------------|-------------------------------------|-------------------------------------|
G#|-------------------------------------|-------------------------------------|-------------------------------------|
 E|-------------------------------------|-------------------------------------|-------------------------------------|
 B|-1-------0---3-------5---------------|-1-------0---3-------5---------------|-1-------0---3-------5---------------|
F#|-1-------0---3---0---5---------------|-1-------0---3---0---5---------------|-1-------0---3---0---5---------------|
 B|-1----4--0---3---0---5---3---5---6---|-1----4--0---3---0---5---3---5---6---|-1----4--0---3---0---5---3---5---6---|


C#|-----------------------------------------|-----------------------------------------|
G#|-----------------------------------------|-----------------------------------------|
 E|-----------------7---7---7---8---6---6---|-----------------7---7---7---8---6---6---|
 B|-1-------0---3---7---7---7---7---7---7---|-1-------0---3---7---7---7---7---7---7---|
F#|-1-------0---3---5---5---5---6---4---4---|-1-------0---3---5---5---5---6---4---4---|
 B|-1----4--0---3---------------------------|-1----4--0---3---------------------------|


C#|-----------------------------------------|-----------------------------------------|
G#|-----------------------------------------|-----------------------------------------|
 E|-----------------7---7---7---8---6---6---|-----------------7---7---7---8---6---6---|
 B|-1-------0---3---7---7---7---7---7---7---|-1-------0---3---7---7---7---7---7---7---|
F#|-1-------0---3---5---5---5---6---4---4---|-1-------0---3---5---5---5---6---4---4---|
 B|-1----4--0---3---------------------------|-1----4--0---3---------------------------|


C#|-----------------------------------------|--------------------------------|-----------------------------------------|
G#|-----------------------------------------|--------------------------------|-----------------------------------------|
 E|-----------------7---7---7---8---6---6---|--------------------------------|-----------------------------------------|
 B|-1-------0---3---7---7---7---7---7---7---|-5---6---6--6---6---------------|-----------------------------------------|
F#|-1-------0---3---5---5---5---6---4---4---|-5---6---6--6---6--6---6--------|-3---5---5--5---5--5--5---5--5--5--3--3--|
 B|-1----4--0---3---------------------------|-5---6---6--6---6----------16---|-0---0---0--0---0--0--0---0--0--0--0--0--|


C#|-----------------------------------------|-----------------------------------------|
G#|-----------------------------------------|-----------------------------------------|
 E|-----------------------------------------|-----------------------------------------|
 B|-----------------------------------2--2--|-2---3---3--3---3--3--3---3--3--3--5--5--|
F#|-3---5---5--5---5--5--5---5--5--5--2--2--|-2---3---3--3---3--3--3---3--3--3--5--5--|
 B|-0---0---0--0---0--0--0---0--0--0--2--2--|-2---3---3--3---3--3--3---3--3--3--5--5--|


C#|-----------------------------------------|-----------------------------------------|
G#|-----------------------------------------|-----------------------------------------|
 E|-----------------------------------------|-----------------------------------------|
 B|-5---6---6--6---6--6--6---6--6--6--------|-----------------------------------------|
F#|-5---6---6--6---6--6--6---6--6--6--3--3--|-3---5---5--5---5--5--5---5--5--5--3--3--|
 B|-5---6---6--6---6--6--6---6--6--6--0--0--|-0---0---0--0---0--0--0---0--0--0--0--0--|


C#|-----------------------------------------|-----------------------------------------|
G#|-----------------------------------------|-----------------------------------------|
 E|-----------------------------------------|-----------------------------------------|
 B|-----------------------------------2--2--|-2---3---3--3---3--3--3---3--3--3--5--5--|
F#|-3---5---5--5---5--5--5---5--5--5--2--2--|-2---3---3--3---3--3--3---3--3--3--5--5--|
 B|-0---0---0--0---0--0--0---0--0--0--2--2--|-2---3---3--3---3--3--3---3--3--3--5--5--|


C#|-----------------------------------------|-----------------------------------------|
G#|-----------------------------------------|-----------------------------------------|
 E|-----------------------------------------|-----------------------------------------|
 B|-5---6---6--6---6--6--6---6--6--6--------|-----------------------------------------|
F#|-5---6---6--6---6--6--6---6--6--6--3--3--|-3---5---5--5---5--5--5---5--5--5--3--3--|
 B|-5---6---6--6---6--6--6---6--6--6--0--0--|-0---0---0--0---0--0--0---0--0--0--0--0--|


C#|-----------------------------------------|-----------------------------------------|
G#|-----------------------------------------|-----------------------------------------|
 E|-----------------------------------------|-----------------------------------------|
 B|-----------------------------------2--2--|-2---3---3--3---3--3--3---3--3--3--5--5--|
F#|-3---5---5--5---5--5--5---5--5--5--2--2--|-2---3---3--3---3--3--3---3--3--3--5--5--|
 B|-0---0---0--0---0--0--0---0--0--0--2--2--|-2---3---3--3---3--3--3---3--3--3--5--5--|


C#|-----------------------------------------|-----------------------------------------|
G#|-----------------------------------------|-----------------------------------------|
 E|-----------------------------------------|-----------------------------------------|
 B|-5---6---6--6---6--6--6---6--6--6--------|-----------------------------------------|
F#|-5---6---6--6---6--6--6---6--6--6--3--3--|-3---5---5--5---5--5--5---5--5--5--3--3--|
 B|-5---6---6--6---6--6--6---6--6--6--0--0--|-0---0---0--0---0--0--0---0--0--0--0--0--|


C#|-----------------------------------------|-----------------------------------------|
G#|-----------------------------------------|-----------------------------------------|
 E|-----------------------------------------|-----------------------------------------|
 B|-----------------------------------2--2--|-2---3---3--3---3--3--3---3--3--3--5--5--|
F#|-3---5---5--5---5--5--5---5--5--5--2--2--|-2---3---3--3---3--3--3---3--3--3--5--5--|
 B|-0---0---0--0---0--0--0---0--0--0--2--2--|-2---3---3--3---3--3--3---3--3--3--5--5--|


C#|-----------------------------------------|-----------------------------------------|
G#|-----------------------------------------|-----------------------------------------|
 E|-----------------------------------------|-----------------------------------------|
 B|-5---6---6--6---6--6--6---6--6--6--------|-----------------------------------------|
F#|-5---6---6--6---6--6--6---6--6--6--3--3--|-3---5---5--5---5--5--5---5--5--5--3--3--|
 B|-5---6---6--6---6--6--6---6--6--6--0--0--|-0---0---0--0---0--0--0---0--0--0--0--0--|


C#|-----------------------------------------|-----------------------------------------|
G#|-----------------------------------------|-----------------------------------------|
 E|-----------------------------------------|-----------------------------------------|
 B|-----------------------------------2--2--|-2---3---3--3---3--3--3---3--3--3--5--5--|
F#|-3---5---5--5---5--5--5---5--5--5--2--2--|-2---3---3--3---3--3--3---3--3--3--5--5--|
 B|-0---0---0--0---0--0--0---0--0--0--2--2--|-2---3---3--3---3--3--3---3--3--3--5--5--|


C#|-----------------------------------------|-----------------------------------------------------------------|
G#|-----------------------------------------|-----------------------------------------------------------------|
 E|-----------------------------------------|-----------------------------------------------------------------|
 B|-5---6---6--6---6--6--6---6--6--6--------|-----------------------------------------------------------------|
F#|-5---6---6--6---6--6--6---6--6--6--3--3--|---------9-9-9-9-10101010----------------1212121213131313--------|
 B|-5---6---6--6---6--6--6---6--6--6--0--0--|-7-7-7-7-----------------8-8-8-8-10101010----------------11111111|


C#|-----------------------------------------------------------------|-----------------------------------------------------------------|
G#|-----------------------------------------------------------------|-----------------------------------------------------------------|
 E|-----------------------------------------------------------------|-----------------------------------------------------------------|
 B|-----------------------------------------------------------------|-----------------------------------------------------------------|
F#|---------9-9-9-9-10101010----------------1212121213131313--------|---------9-9-9-9-10101010----------------1212121213131313--------|
 B|-7-7-7-7-----------------8-8-8-8-10101010----------------11111111|-7-7-7-7-----------------8-8-8-8-10101010----------------11111111|


C#|-----------------------------------------------------------------|-----------------------------------------------------------------|
G#|-----------------------------------------------------------------|-----------------------------------------------------------------|
 E|-----------------------------------------------------------------|-----------------------------------------------------------------|
 B|-----------------------------------------------------------------|-----------------------------------------------------------------|
F#|---------9-9-9-9-10101010----------------1212121213131313--------|---------9-9-9-9-10101010----------------1212121213131313--------|
 B|-7-7-7-7-----------------8-8-8-8-10101010----------------11111111|-7-7-7-7-----------------8-8-8-8-10101010----------------11111111|


C#|-------------------------------------------------------------|-----------------------------------------------------------------|
G#|-------------------------------------------------------------|-----------------------------------------------------------------|
 E|-------------------------------------------------------------|-----------------------------------------------------------------|
 B|-------------------------------------------------------------|-----------------------------------------------------------------|
F#|---------9-9-9-9-10101010----------------1212121213131313----|---------9-9-9-9-10101010----------------1212121213131313--------|
 B|-7-7-7-7-----------------8-8-8-8-10101010----------------11--|-7-7-7-7-----------------8-8-8-8-10101010----------------11111111|


C#|-------------------------------------------------------------|--------------------------------|
G#|-------------------------------------------------------------|--------------------------------|
 E|-------------------------------------------------------------|--------------------------------|
 B|-------------------------------------------------------------|-1------------------------------|
F#|---------9-9-9-9-10101010----------------1212121213131313----|-1----0---4---1---5---2--6------|
 B|-7-7-7-7-----------------8-8-8-8-10101010----------------11--|-1----0---4---1---5---2--6------|


C#|-------------------------------|--------------------------------|-------------------------------|
G#|-------------------------------|--------------------------------|-------------------------------|
 E|-------------------------------|--------------------------------|-------------------------------|
 B|------1------------------------|-1------------------------------|------1------------------------|
F#|------1----0---4---3---5---6---|-1----0---4---1---5---2--6------|------1----0---4---3---5---6---|
 B|------1----0---4---3---5---6---|-1----0---4---1---5---2--6------|------1----0---4---3---5---6---|


C#|--------------------------------|-------------------------------|--------------------------------|
G#|--------------------------------|-------------------------------|--------------------------------|
 E|--------------------------------|-------------------------------|--------------------------------|
 B|-1------------------------------|------1------------------------|-1------------------------------|
F#|-1----0---4---1---5---2--6------|------1----0---4---3---5---6---|-1----0---4---1---5---2--6------|
 B|-1----0---4---1---5---2--6------|------1----0---4---3---5---6---|-1----0---4---1---5---2--6------|


C#|-------------------------------|--------------------------------|--------|
G#|-------------------------------|--------------------------------|--------|
 E|-------------------------------|--------------------------------|--------|
 B|------1------------------------|-1------------------------------|--------|
F#|------1----0---4---3---5---6---|-1----0---4---1---5---2--6------|--------|
 B|------1----0---4---3---5---6---|-1----0---4---1---5---2--6------|--------|





Track 2: Mick

C#|-----------------------------------------|-----------------------------------------|
G#|-----------------------------------------|-----------------------------------------|
 E|-----------------------------------------|-----------------------------------------|
 B|-1---------------------------------------|-1---------------------------------------|
F#|-1----0---3---2---5-5-5-5-5--6-6-6-6-6-6-|-1----0---3---2---5-5-5-5-5--6-6-6-6-6-6-|
 B|-1----0---3---2--------------------------|-1----0---3---2--------------------------|


C#|-----------------------------------------|-----------------------------------------|
G#|-----------------------------------------|-----------------------------------------|
 E|-----------------------------------------|-----------------------------------------|
 B|-1---------------------------------------|-1---------------------------------------|
F#|-1----0---3---2---5-5-5-5-5--6-6-6-6-6-6-|-1----0---3---2---5-5-5-5-5--6-6-6-6-6-6-|
 B|-1----0---3---2--------------------------|-1----0---3---2--------------------------|


C#|-----------------------------------------|-----------------------------------------|
G#|-----------------------------------------|-----------------------------------------|
 E|-----------------------------------------|-----------------------------------------|
 B|-1---------------------------------------|-1---------------------------------------|
F#|-1----0---3---2---5-5-5-5-5--6-6-6-6-6-6-|-1----0---3---2---5-5-5-5-5--6-6-6-6-6-6-|
 B|-1----0---3---2--------------------------|-1----0---3---2--------------------------|


C#|-----------------------------------------|-----------------------------------------|
G#|-----------------------------------------|-----------------------------------------|
 E|-----------------------------------------|-----------------------------------------|
 B|-1---------------------------------------|-1---------------------------------------|
F#|-1----0---3---2---5-5-5-5-5--6-6-6-6-6-6-|-1----0---3---2---5-5-5-5-5--6-6-6-6-6-6-|
 B|-1----0---3---2--------------------------|-1----0---3---2--------------------------|


C#|-----------------------------------------|-----------------------------------------|
G#|-----------------------------------------|-----------------------------------------|
 E|-----------------------------------------|-----------------------------------------|
 B|-1---------------------------------------|-1---------------------------------------|
F#|-1----0---3---2---5-5-5-5----6-6-6-6-6-6-|-1----0---3---2---5-5-5-5----6-6-6-6-6-6-|
 B|-1----0---3---2-----------5--------------|-1----0---3---2-----------5--------------|


C#|-----------------------------------------|-----------------------------------------|
G#|-----------------------------------------|-----------------------------------------|
 E|-----------------------------------------|-----------------------------------------|
 B|-1---------------------------------------|-1---------------------------------------|
F#|-1----0---3---2---5-5-5-5----6-6-6-6-6-6-|-1----0---3---2---5-5-5-5----6-6-6-6-6-6-|
 B|-1----0---3---2-----------5--------------|-1----0---3---2-----------5--------------|


C#|-----------------------------------------|-----------------------------------------|
G#|-----------------------------------------|-----------------------------------------|
 E|-----------------------------------------|-----------------------------------------|
 B|-1---------------------------------------|-1---------------------------------------|
F#|-1----0---3---2---5-5-5-5----6-6-6-6-6-6-|-1----0---3---2---5-5-5-5----6-6-6-6-6-6-|
 B|-1----0---3---2-----------5--------------|-1----0---3---2-----------5--------------|


C#|-----------------------------------------|-----------------------------------------|
G#|-----------------------------------------|-----------------------------------------|
 E|-----------------------------------------|-----------------------------------------|
 B|-1---------------------------------------|-1---------------------------------------|
F#|-1----0---3---2---5-5-5-5----6-6-6-6-6-6-|-1----0---3---2---5-5-5-5----6-6-6-6-6-6-|
 B|-1----0---3---2-----------5--------------|-1----0---3---2-----------5--------------|


C#|--------|--------|--------|--------|--------|--------|--------|--------|--------|
G#|--------|--------|--------|--------|--------|--------|--------|--------|--------|
 E|--------|--------|--------|--------|--------|--------|--------|--------|--------|
 B|--------|--------|--------|--------|--------|--------|--------|--------|--------|
F#|--------|--------|--------|--------|--------|--------|--------|--------|--------|
 B|--------|--------|--------|--------|--------|--------|--------|--------|--------|


C#|--------|--------|--------|--------|--------|--------|--------|--------|--------|
G#|--------|--------|--------|--------|--------|--------|--------|--------|--------|
 E|--------|--------|--------|--------|--------|--------|--------|--------|--------|
 B|--------|--------|--------|--------|--------|--------|--------|--------|--------|
F#|--------|--------|--------|--------|--------|--------|--------|--------|--------|
 B|--------|--------|--------|--------|--------|--------|--------|--------|--------|


C#|--------|--------|-----------------------------------------------------------------|
G#|--------|--------|-----------------------------------------------------------------|
 E|--------|--------|-----------------------------------------------------------------|
 B|--------|--------|-----------------------------------------------------------------|
F#|--------|--------|---------5-5-5-5-6-6-6-6-----------------8-8-8-8-9-9-9-9---------|
 B|--------|--------|-5-5-5-5-----------------6-6-6-6-8-8-8-8-----------------9-9-9-9-|


C#|-----------------------------------------------------------------|--------|--------|
G#|-----------------------------------------------------------------|--------|--------|
 E|-----------------------------------------------------------------|--------|--------|
 B|-----------------------------------------------------------------|--------|--------|
F#|---------5-5-5-5-6-6-6-6-----------------8-8-8-8-9-9-9-9---------|--------|--------|
 B|-5-5-5-5-----------------6-6-6-6-8-8-8-8-----------------9-9-9-9-|--------|--------|


C#|--------|--------|--------|--------|--------|--------|--------|--------|--------|
G#|--------|--------|--------|--------|--------|--------|--------|--------|--------|
 E|--------|--------|--------|--------|--------|--------|--------|--------|--------|
 B|--------|--------|--------|--------|--------|--------|--------|--------|--------|
F#|--------|--------|--------|--------|--------|--------|--------|--------|--------|
 B|--------|--------|--------|--------|--------|--------|--------|--------|--------|


C#|--------|--------|--------|--------|--------|--------|--------|-----------------------------------------------------------------|
G#|--------|--------|--------|--------|--------|--------|--------|-----------------------------------------------------------------|
 E|--------|--------|--------|--------|--------|--------|--------|-----------------------------------------------------------------|
 B|--------|--------|--------|--------|--------|--------|--------|-----------------------------------------------------------------|
F#|--------|--------|--------|--------|--------|--------|--------|---------5-5-5-5-6-6-6-6-----------------8-8-8-8-9-9-9-9---------|
 B|--------|--------|--------|--------|--------|--------|--------|-5-5-5-5-----------------6-6-6-6-8-8-8-8-----------------9-9-9-9-|


C#|-----------------------------------------------------------------|--------|--------|
G#|-----------------------------------------------------------------|--------|--------|
 E|-----------------------------------------------------------------|--------|--------|
 B|-----------------------------------------------------------------|--------|--------|
F#|---------5-5-5-5-6-6-6-6-----------------8-8-8-8-9-9-9-9---------|--------|--------|
 B|-5-5-5-5-----------------6-6-6-6-8-8-8-8-----------------9-9-9-9-|--------|--------|


C#|--------|--------|-----------------------------------------|-----------------------------------------|
G#|--------|--------|-----------------------------------------|-----------------------------------------|
 E|--------|--------|-----------------------------------------|-----------------------------------------|
 B|--------|--------|-----------------------------------------|-----------------------------------2--2--|
F#|--------|--------|-3---5---5--5---5--5--5---5--5--5--3--3--|-3---5---5--5---5--5--5---5--5--5--2--2--|
 B|--------|--------|-0---0---0--0---0--0--0---0--0--0--0--0--|-0---0---0--0---0--0--0---0--0--0--2--2--|


C#|-----------------------------------------|-----------------------------------|-----------------------------------------|
G#|-----------------------------------------|-----------------------------------|-----------------------------------------|
 E|-----------------------------------------|-----------------------------------|-----------------------------------------|
 B|-2---3---3--3---3--3--3---3--3--3--5--5--|-5---6---6--6---6--2---3---4---5---|-----------------------------------------|
F#|-2---3---3--3---3--3--3---3--3--3--5--5--|-5---6---6--6---6------------------|-3---5---5--5---5--5--5---5--5--5--3--3--|
 B|-2---3---3--3---3--3--3---3--3--3--5--5--|-5---6---6--6---6------------------|-0---0---0--0---0--0--0---0--0--0--0--0--|


C#|-----------------------------------------|-----------------------------------------|
G#|-----------------------------------------|-----------------------------------------|
 E|-----------------------------------------|-----------------------------------------|
 B|-----------------------------------2--2--|-2---3---3--3---3--3--3---3--3--3--5--5--|
F#|-3---5---5--5---5--5--5---5--5--5--2--2--|-2---3---3--3---3--3--3---3--3--3--5--5--|
 B|-0---0---0--0---0--0--0---0--0--0--2--2--|-2---3---3--3---3--3--3---3--3--3--5--5--|


C#|-----------------------------------|-----------------------------------------|-----------------------------------------|
G#|-----------------------------------|-----------------------------------------|-----------------------------------------|
 E|-----------------------------------|-----------------------------------------|-----------------------------------------|
 B|-5---6---6--6---6--2---3---4---5---|-----------------------------------------|-----------------------------------2--2--|
F#|-5---6---6--6---6------------------|-3---5---5--5---5--5--5---5--5--5--3--3--|-3---5---5--5---5--5--5---5--5--5--2--2--|
 B|-5---6---6--6---6------------------|-0---0---0--0---0--0--0---0--0--0--0--0--|-0---0---0--0---0--0--0---0--0--0--2--2--|


C#|-----------------------------------------|-----------------------------------|-----------------------------------------|
G#|-----------------------------------------|-----------------------------------|-----------------------------------------|
 E|-----------------------------------------|-----------------------------------|-----------------------------------------|
 B|-2---3---3--3---3--3--3---3--3--3--5--5--|-5---6---6--6---6--2---3---4---5---|-----------------------------------------|
F#|-2---3---3--3---3--3--3---3--3--3--5--5--|-5---6---6--6---6------------------|-3---5---5--5---5--5--5---5--5--5--3--3--|
 B|-2---3---3--3---3--3--3---3--3--3--5--5--|-5---6---6--6---6------------------|-0---0---0--0---0--0--0---0--0--0--0--0--|


C#|-----------------------------------------|-----------------------------------------|
G#|-----------------------------------------|-----------------------------------------|
 E|-----------------------------------------|-----------------------------------------|
 B|-----------------------------------2--2--|-2---3---3--3---3--3--3---3--3--3--5--5--|
F#|-3---5---5--5---5--5--5---5--5--5--2--2--|-2---3---3--3---3--3--3---3--3--3--5--5--|
 B|-0---0---0--0---0--0--0---0--0--0--2--2--|-2---3---3--3---3--3--3---3--3--3--5--5--|


C#|-----------------------------------|--------|--------|--------|--------|--------|
G#|-----------------------------------|--------|--------|--------|--------|--------|
 E|-----------------------------------|--------|--------|--------|--------|--------|
 B|-5---6---6--6---6--2---3---4---5---|--------|--------|--------|--------|--------|
F#|-5---6---6--6---6------------------|--------|--------|--------|--------|--------|
 B|-5---6---6--6---6------------------|--------|--------|--------|--------|--------|


C#|--------|--------|--------|--------|--------|--------|--------|--------|--------|
G#|--------|--------|--------|--------|--------|--------|--------|--------|--------|
 E|--------|--------|--------|--------|--------|--------|--------|--------|--------|
 B|--------|--------|--------|--------|--------|--------|--------|--------|--------|
F#|--------|--------|--------|--------|--------|--------|--------|--------|--------|
 B|--------|--------|--------|--------|--------|--------|--------|--------|--------|


C#|--------|--------|--------|--------|--------|--------|--------|--------|--------|
G#|--------|--------|--------|--------|--------|--------|--------|--------|--------|
 E|--------|--------|--------|--------|--------|--------|--------|--------|--------|
 B|--------|--------|--------|--------|--------|--------|--------|--------|--------|
F#|--------|--------|--------|--------|--------|--------|--------|--------|--------|
 B|--------|--------|--------|--------|--------|--------|--------|--------|--------|


C#|--------|--------|--------|--------|-----------------------------------------|-----------------------------------------|
G#|--------|--------|--------|--------|-----------------------------------------|-----------------------------------------|
 E|--------|--------|--------|--------|-----------------------------------------|-----------------------------------------|
 B|--------|--------|--------|--------|-----------------------------------------|-----------------------------------2--2--|
F#|--------|--------|--------|--------|-3---5---5--5---5--5--5---5--5--5--3--3--|-3---5---5--5---5--5--5---5--5--5--2--2--|
 B|--------|--------|--------|--------|-0---0---0--0---0--0--0---0--0--0--0--0--|-0---0---0--0---0--0--0---0--0--0--2--2--|


C#|-----------------------------------------|-----------------------------------|-----------------------------------------|
G#|-----------------------------------------|-----------------------------------|-----------------------------------------|
 E|-----------------------------------------|-----------------------------------|-----------------------------------------|
 B|-2---3---3--3---3--3--3---3--3--3--5--5--|-5---6---6--6---6--2---3---4---5---|-----------------------------------------|
F#|-2---3---3--3---3--3--3---3--3--3--5--5--|-5---6---6--6---6------------------|-3---5---5--5---5--5--5---5--5--5--3--3--|
 B|-2---3---3--3---3--3--3---3--3--3--5--5--|-5---6---6--6---6------------------|-0---0---0--0---0--0--0---0--0--0--0--0--|


C#|-----------------------------------------|-----------------------------------------|
G#|-----------------------------------------|-----------------------------------------|
 E|-----------------------------------------|-----------------------------------------|
 B|-----------------------------------2--2--|-2---3---3--3---3--3--3---3--3--3--5--5--|
F#|-3---5---5--5---5--5--5---5--5--5--2--2--|-2---3---3--3---3--3--3---3--3--3--5--5--|
 B|-0---0---0--0---0--0--0---0--0--0--2--2--|-2---3---3--3---3--3--3---3--3--3--5--5--|


C#|-----------------------------------|-----------------------------------------|-----------------------------------------|
G#|-----------------------------------|-----------------------------------------|-----------------------------------------|
 E|-----------------------------------|-----------------------------------------|-----------------------------------------|
 B|-5---6---6--6---6--2---3---4---5---|-----------------------------------------|-----------------------------------2--2--|
F#|-5---6---6--6---6------------------|-3---5---5--5---5--5--5---5--5--5--3--3--|-3---5---5--5---5--5--5---5--5--5--2--2--|
 B|-5---6---6--6---6------------------|-0---0---0--0---0--0--0---0--0--0--0--0--|-0---0---0--0---0--0--0---0--0--0--2--2--|


C#|-----------------------------------------|-----------------------------------|-----------------------------------------|
G#|-----------------------------------------|-----------------------------------|-----------------------------------------|
 E|-----------------------------------------|-----------------------------------|-----------------------------------------|
 B|-2---3---3--3---3--3--3---3--3--3--5--5--|-5---6---6--6---6--2---3---4---5---|-----------------------------------------|
F#|-2---3---3--3---3--3--3---3--3--3--5--5--|-5---6---6--6---6------------------|-3---5---5--5---5--5--5---5--5--5--3--3--|
 B|-2---3---3--3---3--3--3---3--3--3--5--5--|-5---6---6--6---6------------------|-0---0---0--0---0--0--0---0--0--0--0--0--|


C#|-----------------------------------------|-----------------------------------------|
G#|-----------------------------------------|-----------------------------------------|
 E|-----------------------------------------|-----------------------------------------|
 B|-----------------------------------2--2--|-2---3---3--3---3--3--3---3--3--3--5--5--|
F#|-3---5---5--5---5--5--5---5--5--5--2--2--|-2---3---3--3---3--3--3---3--3--3--5--5--|
 B|-0---0---0--0---0--0--0---0--0--0--2--2--|-2---3---3--3---3--3--3---3--3--3--5--5--|


C#|-----------------------------------|-----------------------------------------|-----------------------------------------|
G#|-----------------------------------|-----------------------------------------|-----------------------------------------|
 E|-----------------------------------|-----------------------------------------|-----------------------------------------|
 B|-5---6---6--6---6--2---3---4---5---|-----------------------------------------|-----------------------------------2--2--|
F#|-5---6---6--6---6------------------|-3---5---5--5---5--5--5---5--5--5--3--3--|-3---5---5--5---5--5--5---5--5--5--2--2--|
 B|-5---6---6--6---6------------------|-0---0---0--0---0--0--0---0--0--0--0--0--|-0---0---0--0---0--0--0---0--0--0--2--2--|


C#|-----------------------------------------|-----------------------------------|--------|
G#|-----------------------------------------|-----------------------------------|--------|
 E|-----------------------------------------|-----------------------------------|--------|
 B|-2---3---3--3---3--3--3---3--3--3--5--5--|-5---6---6--6---6--2---3---4---5---|--------|
F#|-2---3---3--3---3--3--3---3--3--3--5--5--|-5---6---6--6---6------------------|--------|
 B|-2---3---3--3---3--3--3---3--3--3--5--5--|-5---6---6--6---6------------------|--------|


C#|--------|--------|--------|--------|--------|--------|--------|--------|--------|
G#|--------|--------|--------|--------|--------|--------|--------|--------|--------|
 E|--------|--------|--------|--------|--------|--------|--------|--------|--------|
 B|--------|--------|--------|--------|--------|--------|--------|--------|--------|
F#|--------|--------|--------|--------|--------|--------|--------|--------|--------|
 B|--------|--------|--------|--------|--------|--------|--------|--------|--------|


C#|--------|--------|--------|--------|--------|--------|--------|--------|
G#|--------|--------|--------|--------|--------|--------|--------|--------|
 E|--------|--------|--------|--------|--------|--------|--------|--------|
 B|--------|--------|--------|--------|--------|--------|--------|--------|
F#|--------|--------|--------|--------|--------|--------|--------|--------|
 B|--------|--------|--------|--------|--------|--------|--------|--------|





Track 3: Untitled

G|--------|--------|--------|--------|--------|--------|--------|--------|--------|
D|--------|--------|--------|--------|--------|--------|--------|--------|--------|
A|--------|--------|--------|--------|--------|--------|--------|--------|--------|
E|--------|--------|--------|--------|--------|--------|--------|--------|--------|


G|--------|--------|--------|--------|--------|--------|--------|--------|--------|
D|--------|--------|--------|--------|--------|--------|--------|--------|--------|
A|--------|--------|--------|--------|--------|--------|--------|--------|--------|
E|--------|--------|--------|--------|--------|--------|--------|--------|--------|


G|--------|--------|--------|--------|--------|--------|--------|--------|--------|
D|--------|--------|--------|--------|--------|--------|--------|--------|--------|
A|--------|--------|--------|--------|--------|--------|--------|--------|--------|
E|--------|--------|--------|--------|--------|--------|--------|--------|--------|


G|--------|--------|--------|--------|--------|--------|--------|--------|--------|
D|--------|--------|--------|--------|--------|--------|--------|--------|--------|
A|--------|--------|--------|--------|--------|--------|--------|--------|--------|
E|--------|--------|--------|--------|--------|--------|--------|--------|--------|


G|--------|--------|--------|--------|--------|--------|--------|--------|--------|
D|--------|--------|--------|--------|--------|--------|--------|--------|--------|
A|--------|--------|--------|--------|--------|--------|--------|--------|--------|
E|--------|--------|--------|--------|--------|--------|--------|--------|--------|


G|--------|--------|--------|--------|--------|--------|--------|--------|--------|
D|--------|--------|--------|--------|--------|--------|--------|--------|--------|
A|--------|--------|--------|--------|--------|--------|--------|--------|--------|
E|--------|--------|--------|--------|--------|--------|--------|--------|--------|


G|--------|--------|--------|--------|--------|--------|--------|--------|--------|
D|--------|--------|--------|--------|--------|--------|--------|--------|--------|
A|--------|--------|--------|--------|--------|--------|--------|--------|--------|
E|--------|--------|--------|--------|--------|--------|--------|--------|--------|


G|--------|--------|--------|--------|--------|--------|--------|--------|--------|
D|--------|--------|--------|--------|--------|--------|--------|--------|--------|
A|--------|--------|--------|--------|--------|--------|--------|--------|--------|
E|--------|--------|--------|--------|--------|--------|--------|--------|--------|


G|--------|--------|--------|--------|--------|--------|--------|--------|--------|
D|--------|--------|--------|--------|--------|--------|--------|--------|--------|
A|--------|--------|--------|--------|--------|--------|--------|--------|--------|
E|--------|--------|--------|--------|--------|--------|--------|--------|--------|


G|--------|--------|--------|--------|--------|--------|--------|--------|--------|
D|--------|--------|--------|--------|--------|--------|--------|--------|--------|
A|--------|--------|--------|--------|--------|--------|--------|--------|--------|
E|--------|--------|--------|--------|--------|--------|--------|--------|--------|


G|--------|--------|--------|--------|--------|--------|--------|--------|--------|
D|--------|--------|--------|--------|--------|--------|--------|--------|--------|
A|--------|--------|--------|--------|--------|--------|--------|--------|--------|
E|--------|--------|--------|--------|--------|--------|--------|--------|--------|


G|--------|--------|--------|--------|--------|--------|--------|--------|--------|
D|--------|--------|--------|--------|--------|--------|--------|--------|--------|
A|--------|--------|--------|--------|--------|--------|--------|--------|--------|
E|--------|--------|--------|--------|--------|--------|--------|--------|--------|


G|--------|--------|--------|--------|--------|--------|--------|--------|--------|
D|--------|--------|--------|--------|--------|--------|--------|--------|--------|
A|--------|--------|--------|--------|--------|--------|--------|--------|--------|
E|--------|--------|--------|--------|--------|--------|--------|--------|--------|


G|--------|--------|--------|--------|--------|--------|--------|--------|--------|
D|--------|--------|--------|--------|--------|--------|--------|--------|--------|
A|--------|--------|--------|--------|--------|--------|--------|--------|--------|
E|--------|--------|--------|--------|--------|--------|--------|--------|--------|


G|--------|--------|--------|--------|--------|--------|--------|--------|--------|
D|--------|--------|--------|--------|--------|--------|--------|--------|--------|
A|--------|--------|--------|--------|--------|--------|--------|--------|--------|
E|--------|--------|--------|--------|--------|--------|--------|--------|--------|


G|--------|--------|--------|--------|--------|--------|--------|--------|
D|--------|--------|--------|--------|--------|--------|--------|--------|
A|--------|--------|--------|--------|--------|--------|--------|--------|
E|--------|--------|--------|--------|--------|--------|--------|--------|