Menu:

 

Search:

 

slipknot - three nil:

 



Title: Three Nil
Artist: 
Album: Vol. 3: The Subliminal Verses 
Author: Slipknot


Track 1: Untitled

C#|------------------------------------|------------------------------------|------------------------------------|
G#|------------------------------------|------------------------------------|------------------------------------|
 E|------------------------------------|------------------------------------|------------------------------------|
 B|-1----9--0--3--2--------------------|-1----9--0--3--2--------------------|-1----9--0--3--2--------------------|
F#|-1----9--0--3--2---2---5--0--6--1---|-1----9--0--3--2---2---5--0--6--1---|-1----9--0--3--2---2---5--0--6--1---|
 B|-1----9--0--3--2--------------------|-1----9--0--3--2--------------------|-1----9--0--3--2--------------------|


C#|------------------------------------|------------------------------------|------------------------------------|
G#|------------------------------------|------------------------------------|------------------------------------|
 E|------------------------------------|------------------------------------|------------------------------------|
 B|-1----9--0--3--2--------------------|-1----9--0--3--2--------------------|-1----9--0--3--2--------------------|
F#|-1----9--0--3--2---2---5--0--6--1---|-1----9--0--3--2---2---5--0--6--1---|-1----9--0--3--2---2---5--0--6--1---|
 B|-1----9--0--3--2--------------------|-1----9--0--3--2--------------------|-1----9--0--3--2--------------------|


C#|------------------------------------|------------------------------------|------------------------------------|
G#|------------------------------------|------------------------------------|------------------------------------|
 E|------------------------------------|------------------------------------|------------------------------------|
 B|-1----9--0--3--2--------------------|-1----9--0--3--2--------------------|-1----9--0--3--2---2---5--0--6--1---|
F#|-1----9--0--3--2---2---5--0--6--1---|-1----9--0--3--2---2---5--0--6--1---|-1----9--0--3--2--------------------|
 B|-1----9--0--3--2--------------------|-1----9--0--3--2--------------------|-1----9--0--3--2--------------------|


C#|------------------------------------|------------------------------------|------------------------------------|
G#|------------------------------------|------------------------------------|------------------------------------|
 E|------------------------------------|------------------------------------|------------------------------------|
 B|-1----9--0--3--2---2---5--0--6--1---|-1----9--0--3--2---2---5--0--6--1---|-1----9--0--3--2---2---5--0--6--1---|
F#|-1----9--0--3--2--------------------|-1----9--0--3--2--------------------|-1----9--0--3--2--------------------|
 B|-1----9--0--3--2--------------------|-1----9--0--3--2--------------------|-1----9--0--3--2--------------------|


C#|------------------------------------|------------------------------------|------------------------------------|
G#|------------------------------------|------------------------------------|------------------------------------|
 E|------------------------------------|------------------------------------|------------------------------------|
 B|-1----9--0--3--2---2---5--0--6--1---|-1----9--0--3--2---2---5--0--6--1---|-1----9--0--3--2---2---5--0--6--1---|
F#|-1----9--0--3--2--------------------|-1----9--0--3--2--------------------|-1----9--0--3--2--------------------|
 B|-1----9--0--3--2--------------------|-1----9--0--3--2--------------------|-1----9--0--3--2--------------------|


C#|------------------------------------|------------------------------------------------|
G#|------------------------------------|------------------------------------------------|
 E|------------------------------------|------------------------------------------------|
 B|-1----9--0--3--2---2---5--0--6--1---|------------------------------------------------|
F#|-1----9--0--3--2--------------------|------------------------------------------------|
 B|-1----9--0--3--2--------------------|-0--3--2--0--1--0--0--3--2--0--1--0--0-0-1--0---|


C#|------------------------------------------------|------------------------------------------------|
G#|------------------------------------------------|------------------------------------------------|
 E|------------------------------------------------|------------------------------------------------|
 B|------------------------------------------------|------------------------------------------------|
F#|------------------------------------------------|------------------------------------------------|
 B|-0--3--2--0--1--0--0--3--2--0--1--0--0-0-1--0---|-0--3--2--0--1--0--0--3--2--0--1--0--0-0-1--0---|


C#|------------------------------------------------|------------------------------------------------|
G#|------------------------------------------------|------------------------------------------------|
 E|------------------------------------------------|------------------------------------------------|
 B|------------------------------------------------|------------------------------------------------|
F#|------------------------------------------------|------------------------------------------------|
 B|-0--3--2--0--1--0--0--3--2--0--1--0--0-0-1--0---|-0--3--2--0--1--0--0--3--2--0--1--0--0-0-1--0---|


C#|------------------------------------------------|------------------------------------------------|
G#|------------------------------------------------|------------------------------------------------|
 E|------------------------------------------------|------------------------------------------------|
 B|------------------------------------------------|------------------------------------------------|
F#|------------------------------------------------|------------------------------------------------|
 B|-0--3--2--0--1--0--0--3--2--0--1--0--0-0-1--0---|-0--3--2--0--1--0--0--3--2--0--1--0--0-0-1--0---|


C#|------------------------------------------------|-------------------------------------------------|
G#|------------------------------------------------|-------------------------------------------------|
 E|------------------------------------------------|-------------------------------------------------|
 B|------------------------------------------------|-------------------------------------------------|
F#|------------------------------------------------|-------------------------------------------------|
 B|-0--3--2--0--1--0--0--3--2--0--1--0--0-0-1--0---|-1--4--3--0--1--0--0--3--6--3--0--4--7--4--0--3--|


C#|-------------------------------------------------|-------------------------------------------------|
G#|-------------------------------------------------|-------------------------------------------------|
 E|-------------------------------------------------|-------------------------------------------------|
 B|-------------------------------------------------|-------------------------------------------------|
F#|-------------------------------------------------|-------------------0--3--6--3--0--4--7--4--0--3--|
 B|-1--4--3--0--1--0--0--3--6--3--0--4--7--4--0--3--|-0--4--3--0--1--0--0--3--6--3--0--4--7--4--0--3--|


C#|-------------------------------------------------|-------------------------------------------------|
G#|-------------------------------------------------|-------------------------------------------------|
 E|-------------------------------------------------|-------------------------------------------------|
 B|-------------------------------------------------|-------------------------------------------------|
F#|-------------------0--3--6--3--0--4--7--4--0--3--|-------------------0--3--6--3--0--4--7--4--0--3--|
 B|-0--4--3--0--1--0--0--3--6--3--0--4--7--4--0--3--|-0--4--3--0--1--0--0--3--6--3--0--4--7--4--0--3--|


C#|-------------------------------------------------|-------------------------------------------------|
G#|-------------------------------------------------|-------------------------------------------------|
 E|-------------------------------------------------|-------------------------------------------------|
 B|-------------------------------------------------|-------------------------------------------------|
F#|-------------------0--3--6--3--0--4--7--4--0--3--|-------------------0--3--6--3--0--4--7--4--0--3--|
 B|-0--4--3--0--1--0--0--3--6--3--0--4--7--4--0--3--|-0--4--3--0--1--0--0--3--6--3--0--4--7--4--0--3--|


C#|-------------------------------------------------|-------------------------------------------------|
G#|-------------------------------------------------|-------------------------------------------------|
 E|-------------------------------------------------|-------------------------------------------------|
 B|-------------------------------------------------|-------------------------------------------------|
F#|-------------------0--3--6--3--0--4--7--4--0--3--|-------------------0--3--6--3--0--4--7--4--0--3--|
 B|-0--4--3--0--1--0--0--3--6--3--0--4--7--4--0--3--|-0--4--3--0--1--0--0--3--6--3--0--4--7--4--0--3--|


C#|-------------------------------------------------|----------------------------------------|
G#|-------------------------------------------------|----------------------------------------|
 E|-------------------------------------------------|----------------------------------------|
 B|-------------------------------------------------|-0--4--3--1--0-------0--1--0------0--1--|
F#|-------------------0--3--6--3--0--4--7--4--0--3--|-0--4--3--1--0-------0--1--0------0--1--|
 B|-0--4--3--0--1--0--0--3--6--3--0--4--7--4--0--3--|-0--4--3--1--0-------0--1--0------0--1--|


C#|---------------------------------------------|--------------------------------------------------|
G#|---------------------------------------------|--------------------------------------------------|
 E|---------------------------------------------|--------------------------------------------------|
 B|-0--4--3--1--0------0--1--0------0--4--3--0--|--------------------------------------------------|
F#|-0--4--3--1--0------0--1--0------0--4--3--0--|--------------------------------------------------|
 B|-0--4--3--1--0------0--1--0------0--4--3--0--|-0--3--2--0--1--0--0--3--2--0--1--0--0-0-1--0--0--|


C#|----------------------------------------|---------------------------------|---------------------------------|
G#|----------------------------------------|---------------------------------|---------------------------------|
 E|----------------------------------------|---------------------------------|---------------------------------|
 B|----------------------------------------|---------------------------------|---------------------------------|
F#|----------------------------------------|-----2---3-----------5---6-------|-----2---3-----------5---6-------|
 B|-3--2--0--1--0--0--3--2--0--0-----------|-2-----------3---5-----------6---|-2-----------3---5-----------6---|


C#|---------------------------------|---------------------------------|---------------------------------|
G#|---------------------------------|---------------------------------|---------------------------------|
 E|---------------------------------|---------------------------------|---------------------------------|
 B|---------------------------------|---------------------------------|-----4---5-----------7---8-------|
F#|-----5---6-----------8---9-------|-----5---6-----------8---9-------|-2---2---3---3---5---5---6---6---|
 B|-5-----------6---8-----------9---|-5-----------6---8-----------9---|-2-----------3---5-----------6---|


C#|---------------------------------|---------------------------------|---------------------------------|
G#|---------------------------------|---------------------------------|---------------------------------|
 E|---------------------------------|---------------------------------|---------------------------------|
 B|-----4---5-----------7---8-------|-----7---8-----------10--11------|-----7---8-----------10--11------|
F#|-2---2---3---3---5---5---6---6---|-5---5---6---6---8---8---9---9---|-5---5---6---6---8---8---9---9---|
 B|-2-----------3---5-----------6---|-5-----------6---8-----------9---|-5-----------6---8-----------9---|


C#|------------------------------------------------|------------------------------------------------|
G#|------------------------------------------------|------------------------------------------------|
 E|------------------------------------------------|------------------------------------------------|
 B|------------------------------------------------|------------------------------------------------|
F#|------------------------------------------------|------------------------------------------------|
 B|-0--3--2--0--1--0--0--3--2--0--1--0--0-0-1--0---|-0--3--2--0--1--0--0--3--2--0--1--0--0-0-1--0---|


C#|-----------------------------------------------|---------------------------------------|
G#|-----------------------------------------------|---------------------------------------|
 E|-----------------------------------------------|---------------------------------------|
 B|-----------------------------------------------|---------------------------------------|
F#|-------------------------------------0--0------|----0--0-------0--0-------0--5--0--6---|
 B|-0--3--2--0--1--0--0--3--2--0--1--0--0--0------|----0--0-------0--0-------0--5--0--6---|


C#|-------------------------------------------|-------------------------------------------|
G#|-------------------------------------------|-------------------------------------------|
 E|-------------------------------------------|-------------------------------------------|
 B|-------------------------------------------|-------------------------------------------|
F#|-1--4--3---------0--4--3---------0---------|-1--4--3---------0--4--3---------0---------|
 B|-1--4--3---1--0--0--4--3---1--0--0---1--0--|-1--4--3---1--0--0--4--3---1--0--0---1--0--|


C#|-------------------------------------------|-------------------------------------------|
G#|-------------------------------------------|-------------------------------------------|
 E|-------------------------------------------|-------------------------------------------|
 B|-------------------------------------------|-------------------------------------------|
F#|-1--4--3---------0--4--3---------0---------|-1--4--3---------0--4--3---------0---------|
 B|-1--4--3---1--0--0--4--3---1--0--0---1--0--|-1--4--3---1--0--0--4--3---1--0--0---1--0--|


C#|-------------------------------------------|-------------------------------------------|
G#|-------------------------------------------|-------------------------------------------|
 E|-------------------------------------------|-------------------------------------------|
 B|-------------------------------------------|-------------------------------------------|
F#|-1--4--3---------0--4--3---------0---------|-1--4--3---------0--4--3---------0---------|
 B|-1--4--3---1--0--0--4--3---1--0--0---1--0--|-1--4--3---1--0--0--4--3---1--0--0---1--0--|


C#|-------------------------------------------|-------------------------------------------|
G#|-------------------------------------------|-------------------------------------------|
 E|-------------------------------------------|-------------------------------------------|
 B|-------------------------------------------|-------------------------------------------|
F#|-1--4--3---------0--4--3---------0---------|-1--4--3---------0--4--3---------0---------|
 B|-1--4--3---1--0--0--4--3---1--0--0---1--0--|-1--4--3---1--0--0--4--3---1--0--0---1--0--|


C#|--------------------------------|---------------------------------|---------------------------------|
G#|--------------------------------|---------------------------------|---------------------------------|
 E|--------------------------------|---------------------------------|---------------------------------|
 B|--------------------------------|---------------------------------|---------------------------------|
F#|-1--4--3------------2---3-------|-----5---6-----------2---3-------|-----5---6-----------5---6-------|
 B|-1--4--3--------2-----------3---|-5-----------6---2-----------3---|-5-----------6---5-----------6---|


C#|---------------------------------|---------------------------------|---------------------------------|
G#|---------------------------------|---------------------------------|---------------------------------|
 E|---------------------------------|---------------------------------|---------------------------------|
 B|---------------------------------|---------------------4---5-------|-----7---8-----------4---5-------|
F#|-----8---9-----------5---6-------|-----8---9-------2---2---3---3---|-5---5---6---6---2---2---3---3---|
 B|-8-----------9---5-----------6---|-8-----------9---2-----------3---|-5-----------6---2-----------3---|


C#|---------------------------------|---------------------------------|---------------------------------|
G#|---------------------------------|---------------------------------|---------------------------------|
 E|---------------------------------|---------------------------------|---------------------------------|
 B|-----7---8-----------7---8-------|-----10--11----------7---8-------|-----10--11----------------------|
F#|-5---5---6---6---5---5---6---6---|-8---8---9---9---5---5---6---6---|-8---8---9---9-------------------|
 B|-5-----------6---5-----------6---|-8-----------9---5-----------6---|-8-----------9---10---0---0--0---|


C#|-------------------------------------|-------------------------------------|-------------------------------------|
G#|-------------------------------------|-------------------------------------|-------------------------------------|
 E|-------------------------------------|-------------------------------------|-------------------------------------|
 B|-------------------------------------|-------------------------------------|-------------------------------------|
F#|-------------------------------------|-------------------------------------|-------------------------------------|
 B|-0--0--0---0--0--0---10---0---0--0---|-0--0--0---0--0--0---2----3---3--3---|-3--3--3---3--3--3---5----6---6--6---|


C#|-------------------------------------|-------------------------------------|-------------------------------------|
G#|-------------------------------------|-------------------------------------|-------------------------------------|
 E|-------------------------------------|-------------------------------------|-------------------------------------|
 B|-------------------------------------|-------------------------------------|-------------------------------------|
F#|-------------------------------------|-------------------------------------|-------------------------------------|
 B|-6--6--6---6--6--6---10---0---0--0---|-0--0--0---0--0--0---10---0---0--0---|-0--0--0---0--0--0---2----3---3--3---|


C#|-------------------------------------|-------------------------------------|-------------------------------------|
G#|-------------------------------------|-------------------------------------|-------------------------------------|
 E|-------------------------------------|-------------------------------------|-------------------------------------|
 B|-------------------------------------|-------------------------------------|-------------------------------------|
F#|-------------------------------------|-------------------------------------|-------------------------------------|
 B|-3--3--3---3--3--3---5----6---6--6---|-6--6--6---6--6--6---10---0---0--0---|-0--0--0---0--0--0---10---0---0--0---|


C#|-------------------------------------|-------------------------------------|-------------------------------------|
G#|-------------------------------------|-------------------------------------|-------------------------------------|
 E|-------------------------------------|-------------------------------------|-------------------------------------|
 B|-------------------------------------|-------------------------------------|-------------------------------------|
F#|-------------------------------------|-------------------------------------|-------------------------------------|
 B|-0--0--0---0--0--0---2----3---3--3---|-3--3--3---3--3--3---5----6---6--6---|-6--6--6---6--6--6---10---0---0--0---|


C#|-------------------------------------|-------------------------------------|-------------------------------------|
G#|-------------------------------------|-------------------------------------|-------------------------------------|
 E|-------------------------------------|-------------------------------------|-------------------------------------|
 B|-------------------------------------|-------------------------------------|-------------------------------------|
F#|-------------------------------------|-------------------------------------|-------------------------------------|
 B|-0--0--0---0--0--0---10---0---0--0---|-0--0--0---0--0--0---2----3---3--3---|-3--3--3---3--3--3---5----6---6--6---|


C#|--------------------------------------|--------------------------------------|--------------------------------------|
G#|--------------------------------------|--------------------------------------|--------------------------------------|
 E|--------------------------------------|--------------------------------------|--------------------------------------|
 B|---------------------1----9--0--3--2--|---------------------1----9--0--3--2--|---------------------1----9--0--3--2--|
F#|---------------------1----9--0--3--2--|----2---5--0--6--1---1----9--0--3--2--|----2---5--0--6--1---1----9--0--3--2--|
 B|-6--6--6---6--6--6---1----9--0--3--2--|---------------------1----9--0--3--2--|---------------------1----9--0--3--2--|


C#|--------------------------------------|--------------------------------------|--------------------------------------|
G#|--------------------------------------|--------------------------------------|--------------------------------------|
 E|--------------------------------------|--------------------------------------|--------------------------------------|
 B|---------------------1----9--0--3--2--|---------------------1----9--0--3--2--|---------------------1----9--0--3--2--|
F#|----2---5--0--6--1---1----9--0--3--2--|----2---5--0--6--1---1----9--0--3--2--|----2---5--0--6--1---1----9--0--3--2--|
 B|---------------------1----9--0--3--2--|---------------------1----9--0--3--2--|---------------------1----9--0--3--2--|


C#|--------------------------------------|--------------------------------------|-----------------------------|
G#|--------------------------------------|--------------------------------------|-----------------------------|
 E|--------------------------------------|--------------------------------------|-----------------------------|
 B|---------------------1----9--0--3--2--|---------------------1----9--0--3--2--|----------2------------------|
F#|----2---5--0--6--1---1----9--0--3--2--|----2---5--0--6--1---1----9--0--3--2--|----------2--1----3--0---3---|
 B|---------------------1----9--0--3--2--|---------------------1----9--0--3--2--|----------2--1----3--0---3---|


C#|---------------------------------|---------------------------------|---------------------------------|
G#|---------------------------------|---------------------------------|---------------------------------|
 E|---------------------------------|---------------------------------|---------------------------------|
 B|---------------------------------|---------------------------------|---------------------------------|
F#|-0--5----0--6----1----3--0---3---|-0--5----0--6----1----3--0---3---|-0--5----0--6----1----3--0---3---|
 B|-0--5----0--6----1----3--0---3---|-0--5----0--6----1----3--0---3---|-0--5----0--6----1----3--0---3---|


C#|---------------------------------|---------------------------------|---------------------------------|
G#|---------------------------------|---------------------------------|---------------------------------|
 E|---------------------------------|---------------------------------|---------------------------------|
 B|---------------------------------|---------------------------------|---------------------------------|
F#|-0--5----0--6----1----3--0---3---|-0--5----0--6----1----3--0---3---|-0--5----0--6----1----3--0---3---|
 B|-0--5----0--6----1----3--0---3---|-0--5----0--6----1----3--0---3---|-0--5----0--6----1----3--0---3---|


C#|---------------------------------|---------------------------------|---------------------------------|
G#|---------------------------------|---------------------------------|---------------------------------|
 E|---------------------------------|---------------------------------|---------------------------------|
 B|---------------------------------|---------------------------------|---------------------------------|
F#|-0--5----0--6----1----3--0---3---|-0--5----0--6----1----3--0---3---|-0--5----3--6----1----3--0---3---|
 B|-0--5----0--6----1----3--0---3---|-0--5----0--6----1----3--0---3---|-0--5----3--6----1----3--0---3---|


C#|---------------------------------|---------------------------------|---------------------------------|
G#|---------------------------------|---------------------------------|---------------------------------|
 E|---------------------------------|---------------------------------|---------------------------------|
 B|---------------------------------|---------------------------------|---------------------------------|
F#|-0--5----3--6----1----3--0---3---|-0--5----3--6----1----3--0---3---|-0--5----3--6----1----3--0---3---|
 B|-0--5----3--6----1----3--0---3---|-0--5----3--6----1----3--0---3---|-0--5----3--6----1----3--0---3---|


C#|---------------------------------|---------------------------------|---------------------------------|
G#|---------------------------------|---------------------------------|---------------------------------|
 E|---------------------------------|---------------------------------|---------------------------------|
 B|---------------------------------|---------------------------------|---------------------------------|
F#|-0--5----0--6----1----3--0---3---|-0--5----0--6----1----3--0---3---|-0--5----0--6----1----3--0---3---|
 B|-0--5----0--6----1----3--0---3---|-0--5----0--6----1----3--0---3---|-0--5----0--6----1----3--0---3---|


C#|---------------------------------|-------------------------------------|-------------------------------------|
G#|---------------------------------|-------------------------------------|-------------------------------------|
 E|---------------------------------|-------------------------------------|-------------------------------------|
 B|---------------------------------|-------------------------------------|-------------------------------------|
F#|-5---5---5---5-------------------|-------------------------------------|-------------------------------------|
 B|-5---5---5---5---10---0---0--0---|-0--0--0---0--0--0---10---0---0--0---|-0--0--0---0--0--0---2----3---3--3---|


C#|-------------------------------------|-------------------------------------|-------------------------------------|
G#|-------------------------------------|-------------------------------------|-------------------------------------|
 E|-------------------------------------|-------------------------------------|-------------------------------------|
 B|-------------------------------------|-------------------------------------|-------------------------------------|
F#|-------------------------------------|-------------------------------------|-------------------------------------|
 B|-3--3--3---3--3--3---5----6---6--6---|-6--6--6---6--6--6---10---0---0--0---|-0--0--0---0--0--0---10---0---0--0---|


C#|-------------------------------------|-------------------------------------|-------------------------------------|
G#|-------------------------------------|-------------------------------------|-------------------------------------|
 E|-------------------------------------|-------------------------------------|-------------------------------------|
 B|-------------------------------------|-------------------------------------|-------------------------------------|
F#|-------------------------------------|-------------------------------------|-------------------------------------|
 B|-0--0--0---0--0--0---2----3---3--3---|-3--3--3---3--3--3---5----6---6--6---|-6--6--6---6--6--6---10---0---0--0---|


C#|-------------------------------------|-------------------------------------|-------------------------------------|
G#|-------------------------------------|-------------------------------------|-------------------------------------|
 E|-------------------------------------|-------------------------------------|-------------------------------------|
 B|-------------------------------------|-------------------------------------|-------------------------------------|
F#|-------------------------------------|-------------------------------------|-------------------------------------|
 B|-0--0--0---0--0--0---10---0---0--0---|-0--0--0---0--0--0---2----3---3--3---|-3--3--3---3--3--3---5----6---6--6---|


C#|-------------------------------------|-------------------------------------|-------------------------------------|
G#|-------------------------------------|-------------------------------------|-------------------------------------|
 E|-------------------------------------|-------------------------------------|-------------------------------------|
 B|-------------------------------------|-------------------------------------|-------------------------------------|
F#|-------------------------------------|-------------------------------------|-------------------------------------|
 B|-6--6--6---6--6--6---10---0---0--0---|-0--0--0---0--0--0---10---0---0--0---|-0--0--0---0--0--0---2----3---3--3---|


C#|-------------------------------------|-------------------------------------|---------------------------------|
G#|-------------------------------------|-------------------------------------|---------------------------------|
 E|-------------------------------------|-------------------------------------|---------------------------------|
 B|-------------------------------------|-------------------------------------|---------------------------------|
F#|-------------------------------------|-------------------------2---3-------|-----5---6-----------2---3-------|
 B|-3--3--3---3--3--3---5----6---6--6---|-6--6--6---6--6--6---2-----------3---|-5-----------6---2-----------3---|


C#|---------------------------------|---------------------------------|---------------------------------|
G#|---------------------------------|---------------------------------|---------------------------------|
 E|---------------------------------|---------------------------------|---------------------------------|
 B|---------------------------------|---------------------------------|---------------------9---10------|
F#|-----5---6-----------2---3-------|-----5---6-----------2---3-------|-----5---6-------7-----------9---|
 B|-5-----------6---2-----------3---|-5-----------6---2-----------3---|-5-----------6-------------------|


C#|---------------------------------|---------------------------------|---------------------------------|
G#|---------------------------------|---------------------------------|---------------------------------|
 E|---------------------------------|---------------------------------|---------------------------------|
 B|-----7---8-----------9---10------|-----7---8-----------9---10------|-----7---8-----------9---10------|
F#|-10----------9---7-----------9---|-10----------9---7-----------9---|-10----------9---7-----------9---|
 B|---------------------------------|---------------------------------|---------------------------------|


C#|---------------------------------|------------------------------|-------------------------------------|
G#|---------------------------------|------------------------------|-------------------------------------|
 E|---------------------------------|------------------------------|-------------------------------------|
 B|-----7---8-----------------------|------------------------------|-------------------------------------|
F#|-10----------9---1----3--0---3---|-1--5----3--6---------1----3--|-0--3----1--5--3-----1----3--0---3---|
 B|-----------------1----3--0---3---|-1--5----3--6---------1----3--|-0--3----1--5--3-----1----3--0---3---|


C#|-------------------------------------|------------------------------|-------------------------------------|
G#|-------------------------------------|------------------------------|-------------------------------------|
 E|-------------------------------------|------------------------------|-------------------------------------|
 B|-------------------------------------|------------------------------|-------------------------------------|
F#|-1--5----3--5--6-----1----3--0---3---|-1--5----3--6---------1----3--|-0--3----1--5--3-----1----3--0---3---|
 B|-1--5----3--5--6-----1----3--0---3---|-1--5----3--6---------1----3--|-0--3----1--5--3-----1----3--0---3---|


C#|-------------------------------------|-----------------------|
G#|-------------------------------------|-----------------------|
 E|-------------------------------------|-----------------------|
 B|-------------------------------------|-----------------------|
F#|-1--5----3--5--6-----1----3--0---3---|-1--5----3--6----------|
 B|-1--5----3--5--6-----1----3--0---3---|-1--5----3--6----------|





Track 2: Untitled

C#|--------|--------|--------|--------|--------|--------|--------|--------|--------|
G#|--------|--------|--------|--------|--------|--------|--------|--------|--------|
 E|--------|--------|--------|--------|--------|--------|--------|--------|--------|
 B|--------|--------|--------|--------|--------|--------|--------|--------|--------|
F#|--------|--------|--------|--------|--------|--------|--------|--------|--------|
 B|--------|--------|--------|--------|--------|--------|--------|--------|--------|


C#|--------|--------|--------|--------|--------|--------|--------|--------|--------|
G#|--------|--------|--------|--------|--------|--------|--------|--------|--------|
 E|--------|--------|--------|--------|--------|--------|--------|--------|--------|
 B|--------|--------|--------|--------|--------|--------|--------|--------|--------|
F#|--------|--------|--------|--------|--------|--------|--------|--------|--------|
 B|--------|--------|--------|--------|--------|--------|--------|--------|--------|


C#|--------|--------|--------|--------|--------|--------|--------|-------------------------------------------------|
G#|--------|--------|--------|--------|--------|--------|--------|-------------------------------------------------|
 E|--------|--------|--------|--------|--------|--------|--------|-------------------------------------------------|
 B|--------|--------|--------|--------|--------|--------|--------|-------------------------------------------------|
F#|--------|--------|--------|--------|--------|--------|--------|-------------------------------------------------|
 B|--------|--------|--------|--------|--------|--------|--------|-0--4--3--0--1--0--0--3--6--3--0--4--7--4--0--3--|


C#|--------|--------|--------|--------|--------|--------|--------|--------|--------|
G#|--------|--------|--------|--------|--------|--------|--------|--------|--------|
 E|--------|--------|--------|--------|--------|--------|--------|--------|--------|
 B|--------|--------|--------|--------|--------|--------|--------|--------|--------|
F#|--------|--------|--------|--------|--------|--------|--------|--------|--------|
 B|--------|--------|--------|--------|--------|--------|--------|--------|--------|


C#|--------|--------|--------|--------|--------|--------|--------|--------|--------|
G#|--------|--------|--------|--------|--------|--------|--------|--------|--------|
 E|--------|--------|--------|--------|--------|--------|--------|--------|--------|
 B|--------|--------|--------|--------|--------|--------|--------|--------|--------|
F#|--------|--------|--------|--------|--------|--------|--------|--------|--------|
 B|--------|--------|--------|--------|--------|--------|--------|--------|--------|


C#|--------|--------|--------|--------|--------|--------|--------|--------|--------|
G#|--------|--------|--------|--------|--------|--------|--------|--------|--------|
 E|--------|--------|--------|--------|--------|--------|--------|--------|--------|
 B|--------|--------|--------|--------|--------|--------|--------|--------|--------|
F#|--------|--------|--------|--------|--------|--------|--------|--------|--------|
 B|--------|--------|--------|--------|--------|--------|--------|--------|--------|


C#|--------|--------|--------|--------|--------|--------|--------|--------|--------|
G#|--------|--------|--------|--------|--------|--------|--------|--------|--------|
 E|--------|--------|--------|--------|--------|--------|--------|--------|--------|
 B|--------|--------|--------|--------|--------|--------|--------|--------|--------|
F#|--------|--------|--------|--------|--------|--------|--------|--------|--------|
 B|--------|--------|--------|--------|--------|--------|--------|--------|--------|


C#|--------|--------|--------|--------|--------|--------|--------|--------|--------|
G#|--------|--------|--------|--------|--------|--------|--------|--------|--------|
 E|--------|--------|--------|--------|--------|--------|--------|--------|--------|
 B|--------|--------|--------|--------|--------|--------|--------|--------|--------|
F#|--------|--------|--------|--------|--------|--------|--------|--------|--------|
 B|--------|--------|--------|--------|--------|--------|--------|--------|--------|


C#|--------|--------|--------|--------|--------|--------|--------|--------|--------|
G#|--------|--------|--------|--------|--------|--------|--------|--------|--------|
 E|--------|--------|--------|--------|--------|--------|--------|--------|--------|
 B|--------|--------|--------|--------|--------|--------|--------|--------|--------|
F#|--------|--------|--------|--------|--------|--------|--------|--------|--------|
 B|--------|--------|--------|--------|--------|--------|--------|--------|--------|


C#|--------|--------|----------------------|----------------------|----------------------|
G#|--------|--------|----------------------|----------------------|----------------------|
 E|--------|--------|----------------------|----------------------|----------------------|
 B|--------|--------|-------1----9--0------|-------1----9--0------|-------1----9--0------|
F#|--------|--------|-------1----9--0------|-------1----9--0------|-------1----9--0------|
 B|--------|--------|-------1----9--0------|-------1----9--0------|-------1----9--0------|


C#|----------------------|----------------------|----------------------|----------------------|
G#|----------------------|----------------------|----------------------|----------------------|
 E|----------------------|----------------------|----------------------|----------------------|
 B|-------1----9--0------|-------1----9--0------|-------1----9--0------|-------1----9--0------|
F#|-------1----9--0------|-------1----9--0------|-------1----9--0------|-------1----9--0------|
 B|-------1----9--0------|-------1----9--0------|-------1----9--0------|-------1----9--0------|


C#|----------------------|-------------|--------|--------|--------|--------|--------|
G#|----------------------|-------------|--------|--------|--------|--------|--------|
 E|----------------------|-------------|--------|--------|--------|--------|--------|
 B|-------1----9--0------|-------------|--------|--------|--------|--------|--------|
F#|-------1----9--0------|-------------|--------|--------|--------|--------|--------|
 B|-------1----9--0------|-------------|--------|--------|--------|--------|--------|


C#|--------|--------|--------|--------|--------|--------|--------|--------|--------|
G#|--------|--------|--------|--------|--------|--------|--------|--------|--------|
 E|--------|--------|--------|--------|--------|--------|--------|--------|--------|
 B|--------|--------|--------|--------|--------|--------|--------|--------|--------|
F#|--------|--------|--------|--------|--------|--------|--------|--------|--------|
 B|--------|--------|--------|--------|--------|--------|--------|--------|--------|


C#|--------|--------|--------|--------|--------|--------|--------|--------|--------|
G#|--------|--------|--------|--------|--------|--------|--------|--------|--------|
 E|--------|--------|--------|--------|--------|--------|--------|--------|--------|
 B|--------|--------|--------|--------|--------|--------|--------|--------|--------|
F#|--------|--------|--------|--------|--------|--------|--------|--------|--------|
 B|--------|--------|--------|--------|--------|--------|--------|--------|--------|


C#|--------|--------|--------|--------|--------|--------|--------|--------|--------|
G#|--------|--------|--------|--------|--------|--------|--------|--------|--------|
 E|--------|--------|--------|--------|--------|--------|--------|--------|--------|
 B|--------|--------|--------|--------|--------|--------|--------|--------|--------|
F#|--------|--------|--------|--------|--------|--------|--------|--------|--------|
 B|--------|--------|--------|--------|--------|--------|--------|--------|--------|


C#|--------|--------|--------|--------|--------|--------|--------|--------|--------|
G#|--------|--------|--------|--------|--------|--------|--------|--------|--------|
 E|--------|--------|--------|--------|--------|--------|--------|--------|--------|
 B|--------|--------|--------|--------|--------|--------|--------|--------|--------|
F#|--------|--------|--------|--------|--------|--------|--------|--------|--------|
 B|--------|--------|--------|--------|--------|--------|--------|--------|--------|


C#|--------|--------|--------|--------|--------|--------|
G#|--------|--------|--------|--------|--------|--------|
 E|--------|--------|--------|--------|--------|--------|
 B|--------|--------|--------|--------|--------|--------|
F#|--------|--------|--------|--------|--------|--------|
 B|--------|--------|--------|--------|--------|--------|





Track 3: Untitled

G|--------|--------|--------|--------|--------|--------|--------|--------|--------|
D|--------|--------|--------|--------|--------|--------|--------|--------|--------|
A|--------|--------|--------|--------|--------|--------|--------|--------|--------|
E|--------|--------|--------|--------|--------|--------|--------|--------|--------|


G|--------|--------|--------|--------|--------|--------|--------|--------|--------|
D|--------|--------|--------|--------|--------|--------|--------|--------|--------|
A|--------|--------|--------|--------|--------|--------|--------|--------|--------|
E|--------|--------|--------|--------|--------|--------|--------|--------|--------|


G|--------|--------|--------|--------|--------|--------|--------|--------|--------|
D|--------|--------|--------|--------|--------|--------|--------|--------|--------|
A|--------|--------|--------|--------|--------|--------|--------|--------|--------|
E|--------|--------|--------|--------|--------|--------|--------|--------|--------|


G|--------|--------|--------|--------|--------|--------|--------|--------|--------|
D|--------|--------|--------|--------|--------|--------|--------|--------|--------|
A|--------|--------|--------|--------|--------|--------|--------|--------|--------|
E|--------|--------|--------|--------|--------|--------|--------|--------|--------|


G|--------|--------|--------|--------|--------|--------|--------|--------|--------|
D|--------|--------|--------|--------|--------|--------|--------|--------|--------|
A|--------|--------|--------|--------|--------|--------|--------|--------|--------|
E|--------|--------|--------|--------|--------|--------|--------|--------|--------|


G|--------|--------|--------|--------|--------|--------|--------|--------|--------|
D|--------|--------|--------|--------|--------|--------|--------|--------|--------|
A|--------|--------|--------|--------|--------|--------|--------|--------|--------|
E|--------|--------|--------|--------|--------|--------|--------|--------|--------|


G|--------|--------|--------|--------|--------|--------|--------|--------|--------|
D|--------|--------|--------|--------|--------|--------|--------|--------|--------|
A|--------|--------|--------|--------|--------|--------|--------|--------|--------|
E|--------|--------|--------|--------|--------|--------|--------|--------|--------|


G|--------|--------|--------|--------|--------|--------|--------|--------|--------|
D|--------|--------|--------|--------|--------|--------|--------|--------|--------|
A|--------|--------|--------|--------|--------|--------|--------|--------|--------|
E|--------|--------|--------|--------|--------|--------|--------|--------|--------|


G|--------|--------|--------|--------|--------|--------|--------|--------|--------|
D|--------|--------|--------|--------|--------|--------|--------|--------|--------|
A|--------|--------|--------|--------|--------|--------|--------|--------|--------|
E|--------|--------|--------|--------|--------|--------|--------|--------|--------|


G|--------|--------|--------|--------|--------|--------|--------|--------|--------|
D|--------|--------|--------|--------|--------|--------|--------|--------|--------|
A|--------|--------|--------|--------|--------|--------|--------|--------|--------|
E|--------|--------|--------|--------|--------|--------|--------|--------|--------|


G|--------|--------|--------|--------|--------|--------|--------|--------|--------|
D|--------|--------|--------|--------|--------|--------|--------|--------|--------|
A|--------|--------|--------|--------|--------|--------|--------|--------|--------|
E|--------|--------|--------|--------|--------|--------|--------|--------|--------|


G|--------|--------|--------|--------|--------|--------|--------|--------|--------|
D|--------|--------|--------|--------|--------|--------|--------|--------|--------|
A|--------|--------|--------|--------|--------|--------|--------|--------|--------|
E|--------|--------|--------|--------|--------|--------|--------|--------|--------|


G|--------|--------|--------|--------|--------|--------|--------|--------|--------|
D|--------|--------|--------|--------|--------|--------|--------|--------|--------|
A|--------|--------|--------|--------|--------|--------|--------|--------|--------|
E|--------|--------|--------|--------|--------|--------|--------|--------|--------|


G|--------|--------|--------|--------|--------|--------|--------|--------|--------|
D|--------|--------|--------|--------|--------|--------|--------|--------|--------|
A|--------|--------|--------|--------|--------|--------|--------|--------|--------|
E|--------|--------|--------|--------|--------|--------|--------|--------|--------|


G|--------|--------|--------|--------|--------|--------|--------|--------|--------|
D|--------|--------|--------|--------|--------|--------|--------|--------|--------|
A|--------|--------|--------|--------|--------|--------|--------|--------|--------|
E|--------|--------|--------|--------|--------|--------|--------|--------|--------|


G|--------|--------|--------|
D|--------|--------|--------|
A|--------|--------|--------|
E|--------|--------|--------|